999
Outputted By AR_CAD Ver.1.7.0
  0
SECTION
  2
HEADER
  9
$ACADVER
  1
AC1014
  9
$DWGCODEPAGE
  3
ANSI_932
  9
$EXTMIN
 10
0
 20
0
  9
$EXTMAX
 10
297
 20
210
  9
$INSBASE
 10
0.0
 20
0.0
 30
0.0
  9
$HANDLING
 70
     1
  9
$HANDSEED
  5
5F8
  9
$LTSCALE
 40
1
  0
ENDSEC
  0
SECTION
  2
TABLES
  0
TABLE
  2
VPORT
  5
1
100
AcDbSymbolTable
 70
     1
  0
VPORT
  5
30
100
AcDbSymbolTableRecord
100
AcDbViewportTableRecord
  2
*ACTIVE
 70
     0
 10
0.0
 20
0.0
 11
1.0
 21
1.0
 12
210.0
 22
148.5
 13
0.0
 23
0.0
 14
10.0
 24
10.0
 15
10.0
 25
10.0
 16
0.0
 26
0.0
 36
1.0
 17
0.0
 27
0.0
 37
0.0
 40
302.94
 41
1.333333
 42
50.0
 43
0.0
 44
0.0
 50
0.0
 51
0.0
 71
     0
 72
   100
 73
     1
 74
     1
 75
     0
 76
     0
 77
     0
 78
     0
  0
ENDTAB
  0
TABLE
  2
LTYPE
  5
2
100
AcDbSymbolTable
 70
     91
  0
LTYPE
  5
31
100
AcDbSymbolTableRecord
100
AcDbLinetypeTableRecord
  2
BYBLOCK
 70
    64
 3

 72
    65
 73
    0
 40
    0
  0
LTYPE
  5
32
100
AcDbSymbolTableRecord
100
AcDbLinetypeTableRecord
  2
BYLAYER
 70
    64
 3

 72
    65
 73
    0
 40
    0
  0
LTYPE
  5
33
100
AcDbSymbolTableRecord
100
AcDbLinetypeTableRecord
  2
CONTINUOUS
 70
    64
 3
CONTINUOUS
 72
    65
 73
    0
 40
    0
  0
LTYPE
  5
34
100
AcDbSymbolTableRecord
100
AcDbLinetypeTableRecord
  2
DASHED
 70
    64
 3

 72
    65
 73
    2
 40
    0.75
 49
    0.5
 74
    0
 49
    -0.25
 74
    0
  0
LTYPE
  5
35
100
AcDbSymbolTableRecord
100
AcDbLinetypeTableRecord
  2
DOT
 70
    64
 3

 72
    65
 73
    2
 40
    0.5
 49
    0.25
 74
    0
 49
    -0.25
 74
    0
  0
LTYPE
  5
36
100
AcDbSymbolTableRecord
100
AcDbLinetypeTableRecord
  2
DASHDOT
 70
    64
 3

 72
    65
 73
    4
 40
    3.5
 49
    1.84147386461011
 74
    0
 49
    -0.552842045129963
 74
    0
 49
    0.552842045129963
 74
    0
 49
    -0.552842045129963
 74
    0
  0
LTYPE
  5
37
100
AcDbSymbolTableRecord
100
AcDbLinetypeTableRecord
  2
DIVIDE
 70
    64
 3

 72
    65
 73
    6
 40
    3.5
 49
    1.4
 74
    0
 49
    -0.42
 74
    0
 49
    0.42
 74
    0
 49
    -0.42
 74
    0
 49
    0.42
 74
    0
 49
    -0.42
 74
    0
  0
LTYPE
  5
38
100
AcDbSymbolTableRecord
100
AcDbLinetypeTableRecord
  2
HIDDEN
 70
    64
 3

 72
    65
 73
    2
 40
    4
 49
    2
 74
    0
 49
    -2
 74
    0
  0
LTYPE
  5
39
100
AcDbSymbolTableRecord
100
AcDbLinetypeTableRecord
  2
CENTER
 70
    64
 3

 72
    65
 73
    4
 40
    2
 49
    1.25
 74
    0
 49
    -0.25
 74
    0
 49
    0.25
 74
    0
 49
    -0.25
 74
    0
  0
LTYPE
  5
3A
100
AcDbSymbolTableRecord
100
AcDbLinetypeTableRecord
  2
PHANTOM
 70
    64
 3

 72
    65
 73
    6
 40
    2.5
 49
    1.25
 74
    0
 49
    -0.25
 74
    0
 49
    0.25
 74
    0
 49
    -0.25
 74
    0
 49
    0.25
 74
    0
 49
    -0.25
 74
    0
  0
LTYPE
  5
3B
100
AcDbSymbolTableRecord
100
AcDbLinetypeTableRecord
  2
BORDER
 70
    64
 3

 72
    65
 73
    6
 40
    1.75
 49
    0.5
 74
    0
 49
    -0.25
 74
    0
 49
    0.5
 74
    0
 49
    -0.25
 74
    0
 49
    0
 74
    0
 49
    -0.25
 74
    0
  0
LTYPE
  5
3C
100
AcDbSymbolTableRecord
100
AcDbLinetypeTableRecord
  2

 70
    64
 3

 72
    65
 73
    2
 40
    4
 49
    3
 74
    0
 49
    -1
 74
    0
  0
LTYPE
  5
3D
100
AcDbSymbolTableRecord
100
AcDbLinetypeTableRecord
  2

 70
    64
 3

 72
    65
 73
    3
 40
    4.5
 49
    1.5
 74
    0
 49
    -1.5
 74
    0
 49
    1.5
 74
    0
  0
LTYPE
  5
3E
100
AcDbSymbolTableRecord
100
AcDbLinetypeTableRecord
  2

 70
    64
 3

 72
    65
 73
    5
 40
    30
 49
    12
 74
    0
 49
    -1.5
 74
    0
 49
    3
 74
    0
 49
    -1.5
 74
    0
 49
    12
 74
    0
  0
LTYPE
  5
3F
100
AcDbSymbolTableRecord
100
AcDbLinetypeTableRecord
  2

 70
    64
 3

 72
    65
 73
    2
 40
    0.157
 49
    0.098
 74
    0
 49
    -0.059
 74
    0
  0
LTYPE
  5
40
100
AcDbSymbolTableRecord
100
AcDbLinetypeTableRecord
  2

 70
    64
 3

 72
    65
 73
    2
 40
    0.393
 49
    0.236
 74
    0
 49
    -0.157
 74
    0
  0
LTYPE
  5
41
100
AcDbSymbolTableRecord
100
AcDbLinetypeTableRecord
  2

 70
    64
 3

 72
    65
 73
    2
 40
    0.787
 49
    0.472
 74
    0
 49
    -0.315
 74
    0
  0
LTYPE
  5
42
100
AcDbSymbolTableRecord
100
AcDbLinetypeTableRecord
  2

 70
    64
 3

 72
    65
 73
    4
 40
    0.216
 49
    0.118
 74
    0
 49
    -0.039
 74
    0
 49
    0.02
 74
    0
 49
    -0.039
 74
    0
  0
LTYPE
  5
43
100
AcDbSymbolTableRecord
100
AcDbLinetypeTableRecord
  2

 70
    64
 3

 72
    65
 73
    4
 40
    0.433
 49
    0.236
 74
    0
 49
    -0.079
 74
    0
 49
    0.039
 74
    0
 49
    -0.079
 74
    0
  0
LTYPE
  5
44
100
AcDbSymbolTableRecord
100
AcDbLinetypeTableRecord
  2

 70
    64
 3

 72
    65
 73
    4
 40
    0.906
 49
    0.591
 74
    0
 49
    -0.118
 74
    0
 49
    0.079
 74
    0
 49
    -0.118
 74
    0
  0
LTYPE
  5
45
100
AcDbSymbolTableRecord
100
AcDbLinetypeTableRecord
  2

 70
    64
 3

 72
    65
 73
    6
 40
    0.551
 49
    0.236
 74
    0
 49
    -0.079
 74
    0
 49
    0.039
 74
    0
 49
    -0.079
 74
    0
 49
    0.039
 74
    0
 49
    -0.079
 74
    0
  0
LTYPE
  5
46
100
AcDbSymbolTableRecord
100
AcDbLinetypeTableRecord
  2

 70
    64
 3

 72
    65
 73
    6
 40
    0.875
 49
    0.25
 74
    0
 49
    -0.125
 74
    0
 49
    0.25
 74
    0
 49
    -0.125
 74
    0
 49
    0
 74
    0
 49
    -0.125
 74
    0
  0
LTYPE
  5
47
100
AcDbSymbolTableRecord
100
AcDbLinetypeTableRecord
  2

 70
    64
 3

 72
    65
 73
    6
 40
    3.5
 49
    1
 74
    0
 49
    -0.5
 74
    0
 49
    1
 74
    0
 49
    -0.5
 74
    0
 49
    0
 74
    0
 49
    -0.5
 74
    0
  0
LTYPE
  5
48
100
AcDbSymbolTableRecord
100
AcDbLinetypeTableRecord
  2

 70
    64
 3

 72
    65
 73
    4
 40
    1.125
 49
    0.75
 74
    0
 49
    -0.125
 74
    0
 49
    0.125
 74
    0
 49
    -0.125
 74
    0
  0
LTYPE
  5
49
100
AcDbSymbolTableRecord
100
AcDbLinetypeTableRecord
  2

 70
    64
 3

 72
    65
 73
    4
 40
    4
 49
    2.5
 74
    0
 49
    -0.5
 74
    0
 49
    0.5
 74
    0
 49
    -0.5
 74
    0
  0
LTYPE
  5
4A
100
AcDbSymbolTableRecord
100
AcDbLinetypeTableRecord
  2

 70
    64
 3

 72
    65
 73
    4
 40
    0.5
 49
    0.25
 74
    0
 49
    -0.125
 74
    0
 49
    0
 74
    0
 49
    -0.125
 74
    0
  0
LTYPE
  5
4B
100
AcDbSymbolTableRecord
100
AcDbLinetypeTableRecord
  2

 70
    64
 3

 72
    65
 73
    4
 40
    2
 49
    1
 74
    0
 49
    -0.5
 74
    0
 49
    0
 74
    0
 49
    -0.5
 74
    0
  0
LTYPE
  5
4C
100
AcDbSymbolTableRecord
100
AcDbLinetypeTableRecord
  2

 70
    64
 3

 72
    65
 73
    2
 40
    0.375
 49
    0.25
 74
    0
 49
    -0.125
 74
    0
  0
LTYPE
  5
4D
100
AcDbSymbolTableRecord
100
AcDbLinetypeTableRecord
  2

 70
    64
 3

 72
    65
 73
    2
 40
    1.5
 49
    1
 74
    0
 49
    -0.5
 74
    0
  0
LTYPE
  5
4E
100
AcDbSymbolTableRecord
100
AcDbLinetypeTableRecord
  2

 70
    64
 3

 72
    65
 73
    6
 40
    0.625
 49
    0.25
 74
    0
 49
    -0.125
 74
    0
 49
    0
 74
    0
 49
    -0.125
 74
    0
 49
    0
 74
    0
 49
    -0.125
 74
    0
  0
LTYPE
  5
4F
100
AcDbSymbolTableRecord
100
AcDbLinetypeTableRecord
  2

 70
    64
 3

 72
    65
 73
    6
 40
    2.5
 49
    1
 74
    0
 49
    -0.5
 74
    0
 49
    0
 74
    0
 49
    -0.5
 74
    0
 49
    0
 74
    0
 49
    -0.5
 74
    0
  0
LTYPE
  5
50
100
AcDbSymbolTableRecord
100
AcDbLinetypeTableRecord
  2

 70
    64
 3

 72
    65
 73
    2
 40
    0.125
 49
    0
 74
    0
 49
    -0.125
 74
    0
  0
LTYPE
  5
51
100
AcDbSymbolTableRecord
100
AcDbLinetypeTableRecord
  2

 70
    64
 3

 72
    65
 73
    2
 40
    0.5
 49
    0
 74
    0
 49
    -0.5
 74
    0
  0
LTYPE
  5
52
100
AcDbSymbolTableRecord
100
AcDbLinetypeTableRecord
  2

 70
    64
 3

 72
    65
 73
    2
 40
    0.188
 49
    0.126
 74
    0
 49
    -0.062
 74
    0
  0
LTYPE
  5
53
100
AcDbSymbolTableRecord
100
AcDbLinetypeTableRecord
  2

 70
    64
 3

 72
    65
 73
    2
 40
    0.75
 49
    0.5
 74
    0
 49
    -0.25
 74
    0
  0
LTYPE
  5
54
100
AcDbSymbolTableRecord
100
AcDbLinetypeTableRecord
  2

 70
    64
 3

 72
    65
 73
    6
 40
    1.25
 49
    0.625
 74
    0
 49
    -0.125
 74
    0
 49
    0.125
 74
    0
 49
    -0.125
 74
    0
 49
    0.125
 74
    0
 49
    -0.125
 74
    0
  0
LTYPE
  5
55
100
AcDbSymbolTableRecord
100
AcDbLinetypeTableRecord
  2

 70
    64
 3

 72
    65
 73
    6
 40
    5
 49
    2.5
 74
    0
 49
    -0.5
 74
    0
 49
    0.5
 74
    0
 49
    -0.5
 74
    0
 49
    0.5
 74
    0
 49
    -0.5
 74
    0
  0
LTYPE
  5
56
100
AcDbSymbolTableRecord
100
AcDbLinetypeTableRecord
  2

 70
    64
 3

 72
    65
 73
    5
 40
    2.5
 49
    0.5
 74
    0
 49
    -0.5
 74
    0
 49
    0.5
 74
    0
 49
    -0.5
 74
    0
 49
    0.5
 74
    0
  0
LTYPE
  5
57
100
AcDbSymbolTableRecord
100
AcDbLinetypeTableRecord
  2

 70
    64
 3

 72
    65
 73
    0
 40
    0
  0
LTYPE
  5
58
100
AcDbSymbolTableRecord
100
AcDbLinetypeTableRecord
  2

 70
    64
 3

 72
    65
 73
    0
 40
    0
  0
LTYPE
  5
59
100
AcDbSymbolTableRecord
100
AcDbLinetypeTableRecord
  2

 70
    64
 3

 72
    65
 73
    0
 40
    0
  0
LTYPE
  5
5A
100
AcDbSymbolTableRecord
100
AcDbLinetypeTableRecord
  2

 70
    64
 3

 72
    65
 73
    2
 40
    0.375
 49
    0.25
 74
    0
 49
    -0.125
 74
    0
  0
LTYPE
  5
5B
100
AcDbSymbolTableRecord
100
AcDbLinetypeTableRecord
  2

 70
    64
 3

 72
    65
 73
    2
 40
    0.5
 49
    0.375
 74
    0
 49
    -0.125
 74
    0
  0
LTYPE
  5
5C
100
AcDbSymbolTableRecord
100
AcDbLinetypeTableRecord
  2

 70
    64
 3

 72
    65
 73
    4
 40
    2
 49
    1.25
 74
    0
 49
    -0.25
 74
    0
 49
    0.25
 74
    0
 49
    -0.25
 74
    0
  0
LTYPE
  5
5D
100
AcDbSymbolTableRecord
100
AcDbLinetypeTableRecord
  2

 70
    64
 3

 72
    65
 73
    6
 40
    2.5
 49
    1.25
 74
    0
 49
    -0.25
 74
    0
 49
    0.25
 74
    0
 49
    -0.25
 74
    0
 49
    0.25
 74
    0
 49
    -0.25
 74
    0
  0
LTYPE
  5
5E
100
AcDbSymbolTableRecord
100
AcDbLinetypeTableRecord
  2

 70
    64
 3

 72
    65
 73
    4
 40
    1
 49
    0.5
 74
    0
 49
    -0.25
 74
    0
 49
    0
 74
    0
 49
    -0.25
 74
    0
  0
LTYPE
  5
5F
100
AcDbSymbolTableRecord
100
AcDbLinetypeTableRecord
  2

 70
    64
 3

 72
    65
 73
    0
 40
    0
  0
LTYPE
  5
60
100
AcDbSymbolTableRecord
100
AcDbLinetypeTableRecord
  2

 70
    64
 3

 72
    65
 73
    2
 40
    0.075
 49
    0.04
 74
    0
 49
    -0.035
 74
    0
  0
LTYPE
  5
61
100
AcDbSymbolTableRecord
100
AcDbLinetypeTableRecord
  2

 70
    64
 3

 72
    65
 73
    2
 40
    0.15
 49
    0.11
 74
    0
 49
    -0.04
 74
    0
  0
LTYPE
  5
62
100
AcDbSymbolTableRecord
100
AcDbLinetypeTableRecord
  2

 70
    64
 3

 72
    65
 73
    2
 40
    0.2
 49
    0.15
 74
    0
 49
    -0.05
 74
    0
  0
LTYPE
  5
63
100
AcDbSymbolTableRecord
100
AcDbLinetypeTableRecord
  2

 70
    64
 3

 72
    65
 73
    2
 40
    0.36
 49
    0.28
 74
    0
 49
    -0.08
 74
    0
  0
LTYPE
  5
64
100
AcDbSymbolTableRecord
100
AcDbLinetypeTableRecord
  2

 70
    64
 3

 72
    65
 73
    2
 40
    0.47
 49
    0.39
 74
    0
 49
    -0.08
 74
    0
  0
LTYPE
  5
65
100
AcDbSymbolTableRecord
100
AcDbLinetypeTableRecord
  2

 70
    64
 3

 72
    65
 73
    2
 40
    0.9
 49
    0.81
 74
    0
 49
    -0.09
 74
    0
  0
LTYPE
  5
66
100
AcDbSymbolTableRecord
100
AcDbLinetypeTableRecord
  2

 70
    64
 3

 72
    65
 73
    6
 40
    1
 49
    0.6
 74
    0
 49
    -0.08
 74
    0
 49
    0.08
 74
    0
 49
    -0.08
 74
    0
 49
    0.08
 74
    0
 49
    -0.08
 74
    0
  0
LTYPE
  5
67
100
AcDbSymbolTableRecord
100
AcDbLinetypeTableRecord
  2

 70
    64
 3

 72
    65
 73
    6
 40
    1.08
 49
    0.6
 74
    0
 49
    -0.08
 74
    0
 49
    0.12
 74
    0
 49
    -0.08
 74
    0
 49
    0.12
 74
    0
 49
    -0.08
 74
    0
  0
LTYPE
  5
68
100
AcDbSymbolTableRecord
100
AcDbLinetypeTableRecord
  2

 70
    64
 3

 72
    65
 73
    6
 40
    2
 49
    1.44
 74
    0
 49
    -0.08
 74
    0
 49
    0.16
 74
    0
 49
    -0.08
 74
    0
 49
    0.16
 74
    0
 49
    -0.08
 74
    0
  0
LTYPE
  5
69
100
AcDbSymbolTableRecord
100
AcDbLinetypeTableRecord
  2

 70
    64
 3

 72
    65
 73
    4
 40
    0.7
 49
    0.45
 74
    0
 49
    -0.06
 74
    0
 49
    0.13
 74
    0
 49
    -0.06
 74
    0
  0
LTYPE
  5
6A
100
AcDbSymbolTableRecord
100
AcDbLinetypeTableRecord
  2

 70
    64
 3

 72
    65
 73
    4
 40
    1.2
 49
    0.97741935483871
 74
    0
 49
    -0.0580645161290322
 74
    0
 49
    0.106451612903226
 74
    0
 49
    -0.0580645161290322
 74
    0
  0
LTYPE
  5
6B
100
AcDbSymbolTableRecord
100
AcDbLinetypeTableRecord
  2

 70
    64
 3

 72
    65
 73
    4
 40
    1.2
 49
    0.98
 74
    0
 49
    -0.06
 74
    0
 49
    0.1
 74
    0
 49
    -0.06
 74
    0
  0
LTYPE
  5
6C
100
AcDbSymbolTableRecord
100
AcDbLinetypeTableRecord
  2

 70
    64
 3

 72
    65
 73
    4
 40
    2.2
 49
    1.93
 74
    0
 49
    -0.07
 74
    0
 49
    0.13
 74
    0
 49
    -0.07
 74
    0
  0
LTYPE
  5
6D
100
AcDbSymbolTableRecord
100
AcDbLinetypeTableRecord
  2

 70
    64
 3

 72
    65
 73
    4
 40
    2.2
 49
    1.88
 74
    0
 49
    -0.07
 74
    0
 49
    0.18
 74
    0
 49
    -0.07
 74
    0
  0
LTYPE
  5
6E
100
AcDbSymbolTableRecord
100
AcDbLinetypeTableRecord
  2

 70
    64
 3

 72
    65
 73
    4
 40
    2.7
 49
    0.25
 74
    0
 49
    -0.2
 74
    0
 49
    0.25
 74
    0
 49
    -2
 74
    0
  0
LTYPE
  5
6F
100
AcDbSymbolTableRecord
100
AcDbLinetypeTableRecord
  2

 70
    64
 3

 72
    65
 73
    4
 40
    3.71
 49
    0.423070175438596
 74
    0
 49
    -0.260350877192982
 74
    0
 49
    0.423070175438596
 74
    0
 49
    -2.60350877192982
 74
    0
  0
LTYPE
  5
70
100
AcDbSymbolTableRecord
100
AcDbLinetypeTableRecord
  2

 70
    64
 3

 72
    65
 73
    2
 40
    0.25
 49
    0
 74
    0
 49
    -0.25
 74
    0
  0
LTYPE
  5
71
100
AcDbSymbolTableRecord
100
AcDbLinetypeTableRecord
  2

 70
    64
 3

 72
    65
 73
    6
 40
    2
 49
    1.05882352941176
 74
    0
 49
    -0.588235294117647
 74
    0
 49
    0.117647058823529
 74
    0
 49
    -0.0588235294117647
 74
    0
 49
    0.117647058823529
 74
    0
 49
    -0.0588235294117647
 74
    0
  0
LTYPE
  5
72
100
AcDbSymbolTableRecord
100
AcDbLinetypeTableRecord
  2

 70
    64
 3

 72
    65
 73
    0
 40
    0
  0
LTYPE
  5
73
100
AcDbSymbolTableRecord
100
AcDbLinetypeTableRecord
  2

 70
    64
 3

 72
    65
 73
    0
 40
    0
  0
LTYPE
  5
74
100
AcDbSymbolTableRecord
100
AcDbLinetypeTableRecord
  2

 70
    64
 3

 72
    65
 73
    2
 40
    16
 49
    8
 74
    0
 49
    -8
 74
    0
  0
LTYPE
  5
75
100
AcDbSymbolTableRecord
100
AcDbLinetypeTableRecord
  2

 70
    64
 3

 72
    65
 73
    2
 40
    32
 49
    16
 74
    0
 49
    -16
 74
    0
  0
LTYPE
  5
76
100
AcDbSymbolTableRecord
100
AcDbLinetypeTableRecord
  2

 70
    64
 3

 72
    65
 73
    4
 40
    64
 49
    32
 74
    0
 49
    -8
 74
    0
 49
    16
 74
    0
 49
    -8
 74
    0
  0
LTYPE
  5
77
100
AcDbSymbolTableRecord
100
AcDbLinetypeTableRecord
  2

 70
    64
 3

 72
    65
 73
    6
 40
    64
 49
    24
 74
    0
 49
    -8
 74
    0
 49
    8
 74
    0
 49
    -8
 74
    0
 49
    8
 74
    0
 49
    -8
 74
    0
  0
LTYPE
  5
78
100
AcDbSymbolTableRecord
100
AcDbLinetypeTableRecord
  2

 70
    64
 3

 72
    65
 73
    4
 40
    10.5
 49
    6
 74
    0
 49
    -1.5
 74
    0
 49
    1.5
 74
    0
 49
    -1.5
 74
    0
  0
LTYPE
  5
79
100
AcDbSymbolTableRecord
100
AcDbLinetypeTableRecord
  2

 70
    64
 3

 72
    65
 73
    2
 40
    3.5
 49
    0.5
 74
    0
 49
    -3
 74
    0
  0
LTYPE
  5
7A
100
AcDbSymbolTableRecord
100
AcDbLinetypeTableRecord
  2

 70
    64
 3

 72
    65
 73
    4
 40
    2
 49
    1.25
 74
    0
 49
    -0.25
 74
    0
 49
    0.25
 74
    0
 49
    -0.25
 74
    0
  0
LTYPE
  5
7B
100
AcDbSymbolTableRecord
100
AcDbLinetypeTableRecord
  2

 70
    64
 3

 72
    65
 73
    0
 40
    0
  0
LTYPE
  5
7C
100
AcDbSymbolTableRecord
100
AcDbLinetypeTableRecord
  2

 70
    64
 3

 72
    65
 73
    2
 40
    2
 49
    1
 74
    0
 49
    -1
 74
    0
  0
LTYPE
  5
7D
100
AcDbSymbolTableRecord
100
AcDbLinetypeTableRecord
  2

 70
    64
 3

 72
    65
 73
    4
 40
    2
 49
    0.6
 74
    0
 49
    -0.666666666666667
 74
    0
 49
    0.0666666666666667
 74
    0
 49
    -0.666666666666667
 74
    0
  0
LTYPE
  5
7E
100
AcDbSymbolTableRecord
100
AcDbLinetypeTableRecord
  2

 70
    64
 3

 72
    65
 73
    0
 40
    0
  0
LTYPE
  5
7F
100
AcDbSymbolTableRecord
100
AcDbLinetypeTableRecord
  2

 70
    64
 3

 72
    65
 73
    2
 40
    3.5
 49
    2.91666666666667
 74
    0
 49
    -0.583333333333333
 74
    0
  0
LTYPE
  5
80
100
AcDbSymbolTableRecord
100
AcDbLinetypeTableRecord
  2

 70
    64
 3

 72
    65
 73
    4
 40
    36
 49
    24
 74
    0
 49
    -3
 74
    0
 49
    6
 74
    0
 49
    -3
 74
    0
  0
LTYPE
  5
81
100
AcDbSymbolTableRecord
100
AcDbLinetypeTableRecord
  2

 70
    64
 3

 72
    65
 73
    2
 40
    1.5
 49
    1
 74
    0
 49
    -0.5
 74
    0
  0
LTYPE
  5
82
100
AcDbSymbolTableRecord
100
AcDbLinetypeTableRecord
  2

 70
    64
 3

 72
    65
 73
    2
 40
    6
 49
    4
 74
    0
 49
    -2
 74
    0
  0
LTYPE
  5
83
100
AcDbSymbolTableRecord
100
AcDbLinetypeTableRecord
  2

 70
    64
 3

 72
    65
 73
    2
 40
    12
 49
    10
 74
    0
 49
    -2
 74
    0
  0
LTYPE
  5
84
100
AcDbSymbolTableRecord
100
AcDbLinetypeTableRecord
  2

 70
    64
 3

 72
    65
 73
    2
 40
    17
 49
    15
 74
    0
 49
    -2
 74
    0
  0
LTYPE
  5
85
100
AcDbSymbolTableRecord
100
AcDbLinetypeTableRecord
  2

 70
    64
 3

 72
    65
 73
    2
 40
    29
 49
    27
 74
    0
 49
    -2
 74
    0
  0
LTYPE
  5
86
100
AcDbSymbolTableRecord
100
AcDbLinetypeTableRecord
  2

 70
    64
 3

 72
    65
 73
    6
 40
    31
 49
    25
 74
    0
 49
    -1.5
 74
    0
 49
    1
 74
    0
 49
    -1
 74
    0
 49
    1
 74
    0
 49
    -1.5
 74
    0
  0
LTYPE
  5
87
100
AcDbSymbolTableRecord
100
AcDbLinetypeTableRecord
  2

 70
    64
 3

 72
    65
 73
    6
 40
    78
 49
    64
 74
    0
 49
    -2
 74
    0
 49
    4
 74
    0
 49
    -2
 74
    0
 49
    4
 74
    0
 49
    -2
 74
    0
  0
LTYPE
  5
88
100
AcDbSymbolTableRecord
100
AcDbLinetypeTableRecord
  2

 70
    64
 3

 72
    65
 73
    4
 40
    19
 49
    14
 74
    0
 49
    -1
 74
    0
 49
    3
 74
    0
 49
    -1
 74
    0
  0
LTYPE
  5
89
100
AcDbSymbolTableRecord
100
AcDbLinetypeTableRecord
  2

 70
    64
 3

 72
    65
 73
    4
 40
    31.5
 49
    27
 74
    0
 49
    -1
 74
    0
 49
    2.5
 74
    0
 49
    -1
 74
    0
  0
LTYPE
  5
8A
100
AcDbSymbolTableRecord
100
AcDbLinetypeTableRecord
  2

 70
    64
 3

 72
    65
 73
    4
 40
    50
 49
    45
 74
    0
 49
    -1
 74
    0
 49
    3
 74
    0
 49
    -1
 74
    0
  0
LTYPE
  5
8B
100
AcDbSymbolTableRecord
100
AcDbLinetypeTableRecord
  2

 70
    64
 3

 72
    65
 73
    4
 40
    100
 49
    92
 74
    0
 49
    -2
 74
    0
 49
    4
 74
    0
 49
    -2
 74
    0
  0
LTYPE
  5
8C
100
AcDbSymbolTableRecord
100
AcDbLinetypeTableRecord
  2

 70
    64
 3

 72
    65
 73
    2
 40
    6
 49
    4
 74
    0
 49
    -2
 74
    0
  0
ENDTAB
  0
TABLE
  2
LAYER
  5
3
100
AcDbSymbolTable
 70
   257
  0
LAYER
  5
8D
100
AcDbSymbolTableRecord
100
AcDbLayerTableRecord
  2
0-0
 70
    0
 62
250
  6
CONTINUOUS
  0
LAYER
  5
8E
100
AcDbSymbolTableRecord
100
AcDbLayerTableRecord
  2
0-1
 70
    0
 62
250
  6
CONTINUOUS
  0
LAYER
  5
8F
100
AcDbSymbolTableRecord
100
AcDbLayerTableRecord
  2
0-2
 70
    0
 62
9
  6
CONTINUOUS
  0
LAYER
  5
90
100
AcDbSymbolTableRecord
100
AcDbLayerTableRecord
  2
0-3
 70
    0
 62
250
  6
CONTINUOUS
  0
LAYER
  5
91
100
AcDbSymbolTableRecord
100
AcDbLayerTableRecord
  2
0-4
 70
    0
 62
6
  6
CONTINUOUS
  0
LAYER
  5
92
100
AcDbSymbolTableRecord
100
AcDbLayerTableRecord
  2
0-5
 70
    0
 62
1
  6
CONTINUOUS
  0
LAYER
  5
93
100
AcDbSymbolTableRecord
100
AcDbLayerTableRecord
  2
0-6
 70
    0
 62
7
  6
CONTINUOUS
  0
LAYER
  5
94
100
AcDbSymbolTableRecord
100
AcDbLayerTableRecord
  2
0-7
 70
    0
 62
51
  6
CONTINUOUS
  0
LAYER
  5
95
100
AcDbSymbolTableRecord
100
AcDbLayerTableRecord
  2
0-8
 70
    0
 62
61
  6
CONTINUOUS
  0
LAYER
  5
96
100
AcDbSymbolTableRecord
100
AcDbLayerTableRecord
  2
0-9
 70
    0
 62
111
  6
CONTINUOUS
  0
LAYER
  5
97
100
AcDbSymbolTableRecord
100
AcDbLayerTableRecord
  2
0-a
 70
    0
 62
91
  6
CONTINUOUS
  0
LAYER
  5
98
100
AcDbSymbolTableRecord
100
AcDbLayerTableRecord
  2
0-b
 70
    0
 62
131
  6
CONTINUOUS
  0
LAYER
  5
99
100
AcDbSymbolTableRecord
100
AcDbLayerTableRecord
  2
0-c
 70
    0
 62
161
  6
CONTINUOUS
  0
LAYER
  5
9A
100
AcDbSymbolTableRecord
100
AcDbLayerTableRecord
  2
0-d
 70
    0
 62
5
  6
CONTINUOUS
  0
LAYER
  5
9B
100
AcDbSymbolTableRecord
100
AcDbLayerTableRecord
  2
0-e
 70
    0
 62
7
  6
CONTINUOUS
  0
LAYER
  5
9C
100
AcDbSymbolTableRecord
100
AcDbLayerTableRecord
  2
0-f
 70
    0
 62
11
  6
CONTINUOUS
  0
LAYER
  5
9D
100
AcDbSymbolTableRecord
100
AcDbLayerTableRecord
  2
1-0
 70
    0
 62
250
  6
CONTINUOUS
  0
LAYER
  5
9E
100
AcDbSymbolTableRecord
100
AcDbLayerTableRecord
  2
1-1
 70
    0
 62
70
  6
CONTINUOUS
  0
LAYER
  5
9F
100
AcDbSymbolTableRecord
100
AcDbLayerTableRecord
  2
1-2
 70
    0
 62
250
  6
CONTINUOUS
  0
LAYER
  5
A0
100
AcDbSymbolTableRecord
100
AcDbLayerTableRecord
  2
1-3
 70
    0
 62
137
  6
CONTINUOUS
  0
LAYER
  5
A1
100
AcDbSymbolTableRecord
100
AcDbLayerTableRecord
  2
1-4
 70
    0
 62
4
  6
CONTINUOUS
  0
LAYER
  5
A2
100
AcDbSymbolTableRecord
100
AcDbLayerTableRecord
  2
1-5
 70
    0
 62
131
  6
CONTINUOUS
  0
LAYER
  5
A3
100
AcDbSymbolTableRecord
100
AcDbLayerTableRecord
  2
1-6
 70
    0
 62
4
  6
CONTINUOUS
  0
LAYER
  5
A4
100
AcDbSymbolTableRecord
100
AcDbLayerTableRecord
  2
1-7
 70
    0
 62
4
  6
CONTINUOUS
  0
LAYER
  5
A5
100
AcDbSymbolTableRecord
100
AcDbLayerTableRecord
  2
1-8
 70
    0
 62
250
  6
CONTINUOUS
  0
LAYER
  5
A6
100
AcDbSymbolTableRecord
100
AcDbLayerTableRecord
  2
1-9
 70
    0
 62
250
  6
CONTINUOUS
  0
LAYER
  5
A7
100
AcDbSymbolTableRecord
100
AcDbLayerTableRecord
  2
1-a
 70
    0
 62
250
  6
CONTINUOUS
  0
LAYER
  5
A8
100
AcDbSymbolTableRecord
100
AcDbLayerTableRecord
  2
1-b
 70
    0
 62
250
  6
CONTINUOUS
  0
LAYER
  5
A9
100
AcDbSymbolTableRecord
100
AcDbLayerTableRecord
  2
1-c
 70
    0
 62
250
  6
CONTINUOUS
  0
LAYER
  5
AA
100
AcDbSymbolTableRecord
100
AcDbLayerTableRecord
  2
1-d
 70
    0
 62
250
  6
CONTINUOUS
  0
LAYER
  5
AB
100
AcDbSymbolTableRecord
100
AcDbLayerTableRecord
  2
1-e
 70
    0
 62
250
  6
CONTINUOUS
  0
LAYER
  5
AC
100
AcDbSymbolTableRecord
100
AcDbLayerTableRecord
  2
1-f
 70
    0
 62
250
  6
CONTINUOUS
  0
LAYER
  5
AD
100
AcDbSymbolTableRecord
100
AcDbLayerTableRecord
  2
2-0
 70
    0
 62
250
  6
CONTINUOUS
  0
LAYER
  5
AE
100
AcDbSymbolTableRecord
100
AcDbLayerTableRecord
  2
2-1
 70
    0
 62
250
  6
CONTINUOUS
  0
LAYER
  5
AF
100
AcDbSymbolTableRecord
100
AcDbLayerTableRecord
  2
2-2
 70
    0
 62
250
  6
CONTINUOUS
  0
LAYER
  5
B0
100
AcDbSymbolTableRecord
100
AcDbLayerTableRecord
  2
2-3
 70
    0
 62
250
  6
CONTINUOUS
  0
LAYER
  5
B1
100
AcDbSymbolTableRecord
100
AcDbLayerTableRecord
  2
2-4
 70
    0
 62
250
  6
CONTINUOUS
  0
LAYER
  5
B2
100
AcDbSymbolTableRecord
100
AcDbLayerTableRecord
  2
2-5
 70
    0
 62
250
  6
CONTINUOUS
  0
LAYER
  5
B3
100
AcDbSymbolTableRecord
100
AcDbLayerTableRecord
  2
2-6
 70
    0
 62
250
  6
CONTINUOUS
  0
LAYER
  5
B4
100
AcDbSymbolTableRecord
100
AcDbLayerTableRecord
  2
2-7
 70
    0
 62
250
  6
CONTINUOUS
  0
LAYER
  5
B5
100
AcDbSymbolTableRecord
100
AcDbLayerTableRecord
  2
2-8
 70
    0
 62
250
  6
CONTINUOUS
  0
LAYER
  5
B6
100
AcDbSymbolTableRecord
100
AcDbLayerTableRecord
  2
2-9
 70
    0
 62
250
  6
CONTINUOUS
  0
LAYER
  5
B7
100
AcDbSymbolTableRecord
100
AcDbLayerTableRecord
  2
2-a
 70
    0
 62
250
  6
CONTINUOUS
  0
LAYER
  5
B8
100
AcDbSymbolTableRecord
100
AcDbLayerTableRecord
  2
2-b
 70
    0
 62
250
  6
CONTINUOUS
  0
LAYER
  5
B9
100
AcDbSymbolTableRecord
100
AcDbLayerTableRecord
  2
2-c
 70
    0
 62
250
  6
CONTINUOUS
  0
LAYER
  5
BA
100
AcDbSymbolTableRecord
100
AcDbLayerTableRecord
  2
2-d
 70
    0
 62
250
  6
CONTINUOUS
  0
LAYER
  5
BB
100
AcDbSymbolTableRecord
100
AcDbLayerTableRecord
  2
2-e
 70
    0
 62
250
  6
CONTINUOUS
  0
LAYER
  5
BC
100
AcDbSymbolTableRecord
100
AcDbLayerTableRecord
  2
2-f
 70
    0
 62
250
  6
CONTINUOUS
  0
LAYER
  5
BD
100
AcDbSymbolTableRecord
100
AcDbLayerTableRecord
  2
3-0
 70
    0
 62
250
  6
CONTINUOUS
  0
LAYER
  5
BE
100
AcDbSymbolTableRecord
100
AcDbLayerTableRecord
  2
3-1
 70
    0
 62
250
  6
CONTINUOUS
  0
LAYER
  5
BF
100
AcDbSymbolTableRecord
100
AcDbLayerTableRecord
  2
3-2
 70
    0
 62
250
  6
CONTINUOUS
  0
LAYER
  5
C0
100
AcDbSymbolTableRecord
100
AcDbLayerTableRecord
  2
3-3
 70
    0
 62
250
  6
CONTINUOUS
  0
LAYER
  5
C1
100
AcDbSymbolTableRecord
100
AcDbLayerTableRecord
  2
3-4
 70
    0
 62
250
  6
CONTINUOUS
  0
LAYER
  5
C2
100
AcDbSymbolTableRecord
100
AcDbLayerTableRecord
  2
3-5
 70
    0
 62
250
  6
CONTINUOUS
  0
LAYER
  5
C3
100
AcDbSymbolTableRecord
100
AcDbLayerTableRecord
  2
3-6
 70
    0
 62
250
  6
CONTINUOUS
  0
LAYER
  5
C4
100
AcDbSymbolTableRecord
100
AcDbLayerTableRecord
  2
3-7
 70
    0
 62
250
  6
CONTINUOUS
  0
LAYER
  5
C5
100
AcDbSymbolTableRecord
100
AcDbLayerTableRecord
  2
3-8
 70
    0
 62
250
  6
CONTINUOUS
  0
LAYER
  5
C6
100
AcDbSymbolTableRecord
100
AcDbLayerTableRecord
  2
3-9
 70
    0
 62
250
  6
CONTINUOUS
  0
LAYER
  5
C7
100
AcDbSymbolTableRecord
100
AcDbLayerTableRecord
  2
3-a
 70
    0
 62
250
  6
CONTINUOUS
  0
LAYER
  5
C8
100
AcDbSymbolTableRecord
100
AcDbLayerTableRecord
  2
3-b
 70
    0
 62
250
  6
CONTINUOUS
  0
LAYER
  5
C9
100
AcDbSymbolTableRecord
100
AcDbLayerTableRecord
  2
3-c
 70
    0
 62
250
  6
CONTINUOUS
  0
LAYER
  5
CA
100
AcDbSymbolTableRecord
100
AcDbLayerTableRecord
  2
3-d
 70
    0
 62
250
  6
CONTINUOUS
  0
LAYER
  5
CB
100
AcDbSymbolTableRecord
100
AcDbLayerTableRecord
  2
3-e
 70
    0
 62
250
  6
CONTINUOUS
  0
LAYER
  5
CC
100
AcDbSymbolTableRecord
100
AcDbLayerTableRecord
  2
3-f
 70
    0
 62
250
  6
CONTINUOUS
  0
LAYER
  5
CD
100
AcDbSymbolTableRecord
100
AcDbLayerTableRecord
  2
4-0
 70
    0
 62
250
  6
CONTINUOUS
  0
LAYER
  5
CE
100
AcDbSymbolTableRecord
100
AcDbLayerTableRecord
  2
4-1
 70
    0
 62
250
  6
CONTINUOUS
  0
LAYER
  5
CF
100
AcDbSymbolTableRecord
100
AcDbLayerTableRecord
  2
4-2
 70
    0
 62
250
  6
CONTINUOUS
  0
LAYER
  5
D0
100
AcDbSymbolTableRecord
100
AcDbLayerTableRecord
  2
4-3
 70
    0
 62
250
  6
CONTINUOUS
  0
LAYER
  5
D1
100
AcDbSymbolTableRecord
100
AcDbLayerTableRecord
  2
4-4
 70
    0
 62
250
  6
CONTINUOUS
  0
LAYER
  5
D2
100
AcDbSymbolTableRecord
100
AcDbLayerTableRecord
  2
4-5
 70
    0
 62
250
  6
CONTINUOUS
  0
LAYER
  5
D3
100
AcDbSymbolTableRecord
100
AcDbLayerTableRecord
  2
4-6
 70
    0
 62
250
  6
CONTINUOUS
  0
LAYER
  5
D4
100
AcDbSymbolTableRecord
100
AcDbLayerTableRecord
  2
4-7
 70
    0
 62
250
  6
CONTINUOUS
  0
LAYER
  5
D5
100
AcDbSymbolTableRecord
100
AcDbLayerTableRecord
  2
4-8
 70
    0
 62
250
  6
CONTINUOUS
  0
LAYER
  5
D6
100
AcDbSymbolTableRecord
100
AcDbLayerTableRecord
  2
4-9
 70
    0
 62
250
  6
CONTINUOUS
  0
LAYER
  5
D7
100
AcDbSymbolTableRecord
100
AcDbLayerTableRecord
  2
4-a
 70
    0
 62
250
  6
CONTINUOUS
  0
LAYER
  5
D8
100
AcDbSymbolTableRecord
100
AcDbLayerTableRecord
  2
4-b
 70
    0
 62
250
  6
CONTINUOUS
  0
LAYER
  5
D9
100
AcDbSymbolTableRecord
100
AcDbLayerTableRecord
  2
4-c
 70
    0
 62
250
  6
CONTINUOUS
  0
LAYER
  5
DA
100
AcDbSymbolTableRecord
100
AcDbLayerTableRecord
  2
4-d
 70
    0
 62
250
  6
CONTINUOUS
  0
LAYER
  5
DB
100
AcDbSymbolTableRecord
100
AcDbLayerTableRecord
  2
4-e
 70
    0
 62
250
  6
CONTINUOUS
  0
LAYER
  5
DC
100
AcDbSymbolTableRecord
100
AcDbLayerTableRecord
  2
4-f
 70
    0
 62
250
  6
CONTINUOUS
  0
LAYER
  5
DD
100
AcDbSymbolTableRecord
100
AcDbLayerTableRecord
  2
5-0
 70
    0
 62
250
  6
CONTINUOUS
  0
LAYER
  5
DE
100
AcDbSymbolTableRecord
100
AcDbLayerTableRecord
  2
5-1
 70
    0
 62
250
  6
CONTINUOUS
  0
LAYER
  5
DF
100
AcDbSymbolTableRecord
100
AcDbLayerTableRecord
  2
5-2
 70
    0
 62
250
  6
CONTINUOUS
  0
LAYER
  5
E0
100
AcDbSymbolTableRecord
100
AcDbLayerTableRecord
  2
5-3
 70
    0
 62
250
  6
CONTINUOUS
  0
LAYER
  5
E1
100
AcDbSymbolTableRecord
100
AcDbLayerTableRecord
  2
5-4
 70
    0
 62
250
  6
CONTINUOUS
  0
LAYER
  5
E2
100
AcDbSymbolTableRecord
100
AcDbLayerTableRecord
  2
5-5
 70
    0
 62
250
  6
CONTINUOUS
  0
LAYER
  5
E3
100
AcDbSymbolTableRecord
100
AcDbLayerTableRecord
  2
5-6
 70
    0
 62
250
  6
CONTINUOUS
  0
LAYER
  5
E4
100
AcDbSymbolTableRecord
100
AcDbLayerTableRecord
  2
5-7
 70
    0
 62
250
  6
CONTINUOUS
  0
LAYER
  5
E5
100
AcDbSymbolTableRecord
100
AcDbLayerTableRecord
  2
5-8
 70
    0
 62
250
  6
CONTINUOUS
  0
LAYER
  5
E6
100
AcDbSymbolTableRecord
100
AcDbLayerTableRecord
  2
5-9
 70
    0
 62
250
  6
CONTINUOUS
  0
LAYER
  5
E7
100
AcDbSymbolTableRecord
100
AcDbLayerTableRecord
  2
5-a
 70
    0
 62
250
  6
CONTINUOUS
  0
LAYER
  5
E8
100
AcDbSymbolTableRecord
100
AcDbLayerTableRecord
  2
5-b
 70
    0
 62
250
  6
CONTINUOUS
  0
LAYER
  5
E9
100
AcDbSymbolTableRecord
100
AcDbLayerTableRecord
  2
5-c
 70
    0
 62
250
  6
CONTINUOUS
  0
LAYER
  5
EA
100
AcDbSymbolTableRecord
100
AcDbLayerTableRecord
  2
5-d
 70
    0
 62
250
  6
CONTINUOUS
  0
LAYER
  5
EB
100
AcDbSymbolTableRecord
100
AcDbLayerTableRecord
  2
5-e
 70
    0
 62
250
  6
CONTINUOUS
  0
LAYER
  5
EC
100
AcDbSymbolTableRecord
100
AcDbLayerTableRecord
  2
5-f
 70
    0
 62
250
  6
CONTINUOUS
  0
LAYER
  5
ED
100
AcDbSymbolTableRecord
100
AcDbLayerTableRecord
  2
6-0
 70
    0
 62
250
  6
CONTINUOUS
  0
LAYER
  5
EE
100
AcDbSymbolTableRecord
100
AcDbLayerTableRecord
  2
6-1
 70
    0
 62
250
  6
CONTINUOUS
  0
LAYER
  5
EF
100
AcDbSymbolTableRecord
100
AcDbLayerTableRecord
  2
6-2
 70
    0
 62
250
  6
CONTINUOUS
  0
LAYER
  5
F0
100
AcDbSymbolTableRecord
100
AcDbLayerTableRecord
  2
6-3
 70
    0
 62
250
  6
CONTINUOUS
  0
LAYER
  5
F1
100
AcDbSymbolTableRecord
100
AcDbLayerTableRecord
  2
6-4
 70
    0
 62
250
  6
CONTINUOUS
  0
LAYER
  5
F2
100
AcDbSymbolTableRecord
100
AcDbLayerTableRecord
  2
6-5
 70
    0
 62
250
  6
CONTINUOUS
  0
LAYER
  5
F3
100
AcDbSymbolTableRecord
100
AcDbLayerTableRecord
  2
6-6
 70
    0
 62
250
  6
CONTINUOUS
  0
LAYER
  5
F4
100
AcDbSymbolTableRecord
100
AcDbLayerTableRecord
  2
6-7
 70
    0
 62
250
  6
CONTINUOUS
  0
LAYER
  5
F5
100
AcDbSymbolTableRecord
100
AcDbLayerTableRecord
  2
6-8
 70
    0
 62
250
  6
CONTINUOUS
  0
LAYER
  5
F6
100
AcDbSymbolTableRecord
100
AcDbLayerTableRecord
  2
6-9
 70
    0
 62
250
  6
CONTINUOUS
  0
LAYER
  5
F7
100
AcDbSymbolTableRecord
100
AcDbLayerTableRecord
  2
6-a
 70
    0
 62
250
  6
CONTINUOUS
  0
LAYER
  5
F8
100
AcDbSymbolTableRecord
100
AcDbLayerTableRecord
  2
6-b
 70
    0
 62
250
  6
CONTINUOUS
  0
LAYER
  5
F9
100
AcDbSymbolTableRecord
100
AcDbLayerTableRecord
  2
6-c
 70
    0
 62
250
  6
CONTINUOUS
  0
LAYER
  5
FA
100
AcDbSymbolTableRecord
100
AcDbLayerTableRecord
  2
6-d
 70
    0
 62
250
  6
CONTINUOUS
  0
LAYER
  5
FB
100
AcDbSymbolTableRecord
100
AcDbLayerTableRecord
  2
6-e
 70
    0
 62
250
  6
CONTINUOUS
  0
LAYER
  5
FC
100
AcDbSymbolTableRecord
100
AcDbLayerTableRecord
  2
6-f
 70
    0
 62
250
  6
CONTINUOUS
  0
LAYER
  5
FD
100
AcDbSymbolTableRecord
100
AcDbLayerTableRecord
  2
7-0
 70
    0
 62
250
  6
CONTINUOUS
  0
LAYER
  5
FE
100
AcDbSymbolTableRecord
100
AcDbLayerTableRecord
  2
7-1
 70
    0
 62
250
  6
CONTINUOUS
  0
LAYER
  5
FF
100
AcDbSymbolTableRecord
100
AcDbLayerTableRecord
  2
7-2
 70
    0
 62
250
  6
CONTINUOUS
  0
LAYER
  5
100
100
AcDbSymbolTableRecord
100
AcDbLayerTableRecord
  2
7-3
 70
    0
 62
250
  6
CONTINUOUS
  0
LAYER
  5
101
100
AcDbSymbolTableRecord
100
AcDbLayerTableRecord
  2
7-4
 70
    0
 62
250
  6
CONTINUOUS
  0
LAYER
  5
102
100
AcDbSymbolTableRecord
100
AcDbLayerTableRecord
  2
7-5
 70
    0
 62
250
  6
CONTINUOUS
  0
LAYER
  5
103
100
AcDbSymbolTableRecord
100
AcDbLayerTableRecord
  2
7-6
 70
    0
 62
250
  6
CONTINUOUS
  0
LAYER
  5
104
100
AcDbSymbolTableRecord
100
AcDbLayerTableRecord
  2
7-7
 70
    0
 62
250
  6
CONTINUOUS
  0
LAYER
  5
105
100
AcDbSymbolTableRecord
100
AcDbLayerTableRecord
  2
7-8
 70
    0
 62
250
  6
CONTINUOUS
  0
LAYER
  5
106
100
AcDbSymbolTableRecord
100
AcDbLayerTableRecord
  2
7-9
 70
    0
 62
250
  6
CONTINUOUS
  0
LAYER
  5
107
100
AcDbSymbolTableRecord
100
AcDbLayerTableRecord
  2
7-a
 70
    0
 62
250
  6
CONTINUOUS
  0
LAYER
  5
108
100
AcDbSymbolTableRecord
100
AcDbLayerTableRecord
  2
7-b
 70
    0
 62
250
  6
CONTINUOUS
  0
LAYER
  5
109
100
AcDbSymbolTableRecord
100
AcDbLayerTableRecord
  2
7-c
 70
    0
 62
250
  6
CONTINUOUS
  0
LAYER
  5
10A
100
AcDbSymbolTableRecord
100
AcDbLayerTableRecord
  2
7-d
 70
    0
 62
250
  6
CONTINUOUS
  0
LAYER
  5
10B
100
AcDbSymbolTableRecord
100
AcDbLayerTableRecord
  2
7-e
 70
    0
 62
250
  6
CONTINUOUS
  0
LAYER
  5
10C
100
AcDbSymbolTableRecord
100
AcDbLayerTableRecord
  2
7-f
 70
    0
 62
250
  6
CONTINUOUS
  0
LAYER
  5
10D
100
AcDbSymbolTableRecord
100
AcDbLayerTableRecord
  2
8-0
 70
    0
 62
250
  6
CONTINUOUS
  0
LAYER
  5
10E
100
AcDbSymbolTableRecord
100
AcDbLayerTableRecord
  2
8-1
 70
    0
 62
250
  6
CONTINUOUS
  0
LAYER
  5
10F
100
AcDbSymbolTableRecord
100
AcDbLayerTableRecord
  2
8-2
 70
    0
 62
250
  6
CONTINUOUS
  0
LAYER
  5
110
100
AcDbSymbolTableRecord
100
AcDbLayerTableRecord
  2
8-3
 70
    0
 62
250
  6
CONTINUOUS
  0
LAYER
  5
111
100
AcDbSymbolTableRecord
100
AcDbLayerTableRecord
  2
8-4
 70
    0
 62
250
  6
CONTINUOUS
  0
LAYER
  5
112
100
AcDbSymbolTableRecord
100
AcDbLayerTableRecord
  2
8-5
 70
    0
 62
250
  6
CONTINUOUS
  0
LAYER
  5
113
100
AcDbSymbolTableRecord
100
AcDbLayerTableRecord
  2
8-6
 70
    0
 62
250
  6
CONTINUOUS
  0
LAYER
  5
114
100
AcDbSymbolTableRecord
100
AcDbLayerTableRecord
  2
8-7
 70
    0
 62
250
  6
CONTINUOUS
  0
LAYER
  5
115
100
AcDbSymbolTableRecord
100
AcDbLayerTableRecord
  2
8-8
 70
    0
 62
250
  6
CONTINUOUS
  0
LAYER
  5
116
100
AcDbSymbolTableRecord
100
AcDbLayerTableRecord
  2
8-9
 70
    0
 62
250
  6
CONTINUOUS
  0
LAYER
  5
117
100
AcDbSymbolTableRecord
100
AcDbLayerTableRecord
  2
8-a
 70
    0
 62
250
  6
CONTINUOUS
  0
LAYER
  5
118
100
AcDbSymbolTableRecord
100
AcDbLayerTableRecord
  2
8-b
 70
    0
 62
250
  6
CONTINUOUS
  0
LAYER
  5
119
100
AcDbSymbolTableRecord
100
AcDbLayerTableRecord
  2
8-c
 70
    0
 62
250
  6
CONTINUOUS
  0
LAYER
  5
11A
100
AcDbSymbolTableRecord
100
AcDbLayerTableRecord
  2
8-d
 70
    0
 62
250
  6
CONTINUOUS
  0
LAYER
  5
11B
100
AcDbSymbolTableRecord
100
AcDbLayerTableRecord
  2
8-e
 70
    0
 62
250
  6
CONTINUOUS
  0
LAYER
  5
11C
100
AcDbSymbolTableRecord
100
AcDbLayerTableRecord
  2
8-f
 70
    0
 62
250
  6
CONTINUOUS
  0
LAYER
  5
11D
100
AcDbSymbolTableRecord
100
AcDbLayerTableRecord
  2
9-0
 70
    0
 62
250
  6
CONTINUOUS
  0
LAYER
  5
11E
100
AcDbSymbolTableRecord
100
AcDbLayerTableRecord
  2
9-1
 70
    0
 62
250
  6
CONTINUOUS
  0
LAYER
  5
11F
100
AcDbSymbolTableRecord
100
AcDbLayerTableRecord
  2
9-2
 70
    0
 62
250
  6
CONTINUOUS
  0
LAYER
  5
120
100
AcDbSymbolTableRecord
100
AcDbLayerTableRecord
  2
9-3
 70
    0
 62
250
  6
CONTINUOUS
  0
LAYER
  5
121
100
AcDbSymbolTableRecord
100
AcDbLayerTableRecord
  2
9-4
 70
    0
 62
250
  6
CONTINUOUS
  0
LAYER
  5
122
100
AcDbSymbolTableRecord
100
AcDbLayerTableRecord
  2
9-5
 70
    0
 62
250
  6
CONTINUOUS
  0
LAYER
  5
123
100
AcDbSymbolTableRecord
100
AcDbLayerTableRecord
  2
9-6
 70
    0
 62
250
  6
CONTINUOUS
  0
LAYER
  5
124
100
AcDbSymbolTableRecord
100
AcDbLayerTableRecord
  2
9-7
 70
    0
 62
250
  6
CONTINUOUS
  0
LAYER
  5
125
100
AcDbSymbolTableRecord
100
AcDbLayerTableRecord
  2
9-8
 70
    0
 62
250
  6
CONTINUOUS
  0
LAYER
  5
126
100
AcDbSymbolTableRecord
100
AcDbLayerTableRecord
  2
9-9
 70
    0
 62
250
  6
CONTINUOUS
  0
LAYER
  5
127
100
AcDbSymbolTableRecord
100
AcDbLayerTableRecord
  2
9-a
 70
    0
 62
250
  6
CONTINUOUS
  0
LAYER
  5
128
100
AcDbSymbolTableRecord
100
AcDbLayerTableRecord
  2
9-b
 70
    0
 62
250
  6
CONTINUOUS
  0
LAYER
  5
129
100
AcDbSymbolTableRecord
100
AcDbLayerTableRecord
  2
9-c
 70
    0
 62
250
  6
CONTINUOUS
  0
LAYER
  5
12A
100
AcDbSymbolTableRecord
100
AcDbLayerTableRecord
  2
9-d
 70
    0
 62
250
  6
CONTINUOUS
  0
LAYER
  5
12B
100
AcDbSymbolTableRecord
100
AcDbLayerTableRecord
  2
9-e
 70
    0
 62
250
  6
CONTINUOUS
  0
LAYER
  5
12C
100
AcDbSymbolTableRecord
100
AcDbLayerTableRecord
  2
9-f
 70
    0
 62
250
  6
CONTINUOUS
  0
LAYER
  5
12D
100
AcDbSymbolTableRecord
100
AcDbLayerTableRecord
  2
a-0
 70
    0
 62
250
  6
CONTINUOUS
  0
LAYER
  5
12E
100
AcDbSymbolTableRecord
100
AcDbLayerTableRecord
  2
a-1
 70
    0
 62
250
  6
CONTINUOUS
  0
LAYER
  5
12F
100
AcDbSymbolTableRecord
100
AcDbLayerTableRecord
  2
a-2
 70
    0
 62
250
  6
CONTINUOUS
  0
LAYER
  5
130
100
AcDbSymbolTableRecord
100
AcDbLayerTableRecord
  2
a-3
 70
    0
 62
250
  6
CONTINUOUS
  0
LAYER
  5
131
100
AcDbSymbolTableRecord
100
AcDbLayerTableRecord
  2
a-4
 70
    0
 62
250
  6
CONTINUOUS
  0
LAYER
  5
132
100
AcDbSymbolTableRecord
100
AcDbLayerTableRecord
  2
a-5
 70
    0
 62
250
  6
CONTINUOUS
  0
LAYER
  5
133
100
AcDbSymbolTableRecord
100
AcDbLayerTableRecord
  2
a-6
 70
    0
 62
250
  6
CONTINUOUS
  0
LAYER
  5
134
100
AcDbSymbolTableRecord
100
AcDbLayerTableRecord
  2
a-7
 70
    0
 62
250
  6
CONTINUOUS
  0
LAYER
  5
135
100
AcDbSymbolTableRecord
100
AcDbLayerTableRecord
  2
a-8
 70
    0
 62
250
  6
CONTINUOUS
  0
LAYER
  5
136
100
AcDbSymbolTableRecord
100
AcDbLayerTableRecord
  2
a-9
 70
    0
 62
250
  6
CONTINUOUS
  0
LAYER
  5
137
100
AcDbSymbolTableRecord
100
AcDbLayerTableRecord
  2
a-a
 70
    0
 62
250
  6
CONTINUOUS
  0
LAYER
  5
138
100
AcDbSymbolTableRecord
100
AcDbLayerTableRecord
  2
a-b
 70
    0
 62
250
  6
CONTINUOUS
  0
LAYER
  5
139
100
AcDbSymbolTableRecord
100
AcDbLayerTableRecord
  2
a-c
 70
    0
 62
250
  6
CONTINUOUS
  0
LAYER
  5
13A
100
AcDbSymbolTableRecord
100
AcDbLayerTableRecord
  2
a-d
 70
    0
 62
250
  6
CONTINUOUS
  0
LAYER
  5
13B
100
AcDbSymbolTableRecord
100
AcDbLayerTableRecord
  2
a-e
 70
    0
 62
250
  6
CONTINUOUS
  0
LAYER
  5
13C
100
AcDbSymbolTableRecord
100
AcDbLayerTableRecord
  2
a-f
 70
    0
 62
250
  6
CONTINUOUS
  0
LAYER
  5
13D
100
AcDbSymbolTableRecord
100
AcDbLayerTableRecord
  2
b-0
 70
    0
 62
250
  6
CONTINUOUS
  0
LAYER
  5
13E
100
AcDbSymbolTableRecord
100
AcDbLayerTableRecord
  2
b-1
 70
    0
 62
250
  6
CONTINUOUS
  0
LAYER
  5
13F
100
AcDbSymbolTableRecord
100
AcDbLayerTableRecord
  2
b-2
 70
    0
 62
250
  6
CONTINUOUS
  0
LAYER
  5
140
100
AcDbSymbolTableRecord
100
AcDbLayerTableRecord
  2
b-3
 70
    0
 62
250
  6
CONTINUOUS
  0
LAYER
  5
141
100
AcDbSymbolTableRecord
100
AcDbLayerTableRecord
  2
b-4
 70
    0
 62
250
  6
CONTINUOUS
  0
LAYER
  5
142
100
AcDbSymbolTableRecord
100
AcDbLayerTableRecord
  2
b-5
 70
    0
 62
250
  6
CONTINUOUS
  0
LAYER
  5
143
100
AcDbSymbolTableRecord
100
AcDbLayerTableRecord
  2
b-6
 70
    0
 62
250
  6
CONTINUOUS
  0
LAYER
  5
144
100
AcDbSymbolTableRecord
100
AcDbLayerTableRecord
  2
b-7
 70
    0
 62
250
  6
CONTINUOUS
  0
LAYER
  5
145
100
AcDbSymbolTableRecord
100
AcDbLayerTableRecord
  2
b-8
 70
    0
 62
250
  6
CONTINUOUS
  0
LAYER
  5
146
100
AcDbSymbolTableRecord
100
AcDbLayerTableRecord
  2
b-9
 70
    0
 62
250
  6
CONTINUOUS
  0
LAYER
  5
147
100
AcDbSymbolTableRecord
100
AcDbLayerTableRecord
  2
b-a
 70
    0
 62
250
  6
CONTINUOUS
  0
LAYER
  5
148
100
AcDbSymbolTableRecord
100
AcDbLayerTableRecord
  2
b-b
 70
    0
 62
250
  6
CONTINUOUS
  0
LAYER
  5
149
100
AcDbSymbolTableRecord
100
AcDbLayerTableRecord
  2
b-c
 70
    0
 62
250
  6
CONTINUOUS
  0
LAYER
  5
14A
100
AcDbSymbolTableRecord
100
AcDbLayerTableRecord
  2
b-d
 70
    0
 62
250
  6
CONTINUOUS
  0
LAYER
  5
14B
100
AcDbSymbolTableRecord
100
AcDbLayerTableRecord
  2
b-e
 70
    0
 62
250
  6
CONTINUOUS
  0
LAYER
  5
14C
100
AcDbSymbolTableRecord
100
AcDbLayerTableRecord
  2
b-f
 70
    0
 62
250
  6
CONTINUOUS
  0
LAYER
  5
14D
100
AcDbSymbolTableRecord
100
AcDbLayerTableRecord
  2
c-0
 70
    0
 62
250
  6
CONTINUOUS
  0
LAYER
  5
14E
100
AcDbSymbolTableRecord
100
AcDbLayerTableRecord
  2
c-1
 70
    0
 62
250
  6
CONTINUOUS
  0
LAYER
  5
14F
100
AcDbSymbolTableRecord
100
AcDbLayerTableRecord
  2
c-2
 70
    0
 62
250
  6
CONTINUOUS
  0
LAYER
  5
150
100
AcDbSymbolTableRecord
100
AcDbLayerTableRecord
  2
c-3
 70
    0
 62
250
  6
CONTINUOUS
  0
LAYER
  5
151
100
AcDbSymbolTableRecord
100
AcDbLayerTableRecord
  2
c-4
 70
    0
 62
250
  6
CONTINUOUS
  0
LAYER
  5
152
100
AcDbSymbolTableRecord
100
AcDbLayerTableRecord
  2
c-5
 70
    0
 62
250
  6
CONTINUOUS
  0
LAYER
  5
153
100
AcDbSymbolTableRecord
100
AcDbLayerTableRecord
  2
c-6
 70
    0
 62
250
  6
CONTINUOUS
  0
LAYER
  5
154
100
AcDbSymbolTableRecord
100
AcDbLayerTableRecord
  2
c-7
 70
    0
 62
250
  6
CONTINUOUS
  0
LAYER
  5
155
100
AcDbSymbolTableRecord
100
AcDbLayerTableRecord
  2
c-8
 70
    0
 62
250
  6
CONTINUOUS
  0
LAYER
  5
156
100
AcDbSymbolTableRecord
100
AcDbLayerTableRecord
  2
c-9
 70
    0
 62
250
  6
CONTINUOUS
  0
LAYER
  5
157
100
AcDbSymbolTableRecord
100
AcDbLayerTableRecord
  2
c-a
 70
    0
 62
250
  6
CONTINUOUS
  0
LAYER
  5
158
100
AcDbSymbolTableRecord
100
AcDbLayerTableRecord
  2
c-b
 70
    0
 62
250
  6
CONTINUOUS
  0
LAYER
  5
159
100
AcDbSymbolTableRecord
100
AcDbLayerTableRecord
  2
c-c
 70
    0
 62
250
  6
CONTINUOUS
  0
LAYER
  5
15A
100
AcDbSymbolTableRecord
100
AcDbLayerTableRecord
  2
c-d
 70
    0
 62
250
  6
CONTINUOUS
  0
LAYER
  5
15B
100
AcDbSymbolTableRecord
100
AcDbLayerTableRecord
  2
c-e
 70
    0
 62
250
  6
CONTINUOUS
  0
LAYER
  5
15C
100
AcDbSymbolTableRecord
100
AcDbLayerTableRecord
  2
c-f
 70
    0
 62
250
  6
CONTINUOUS
  0
LAYER
  5
15D
100
AcDbSymbolTableRecord
100
AcDbLayerTableRecord
  2
d-0
 70
    0
 62
250
  6
CONTINUOUS
  0
LAYER
  5
15E
100
AcDbSymbolTableRecord
100
AcDbLayerTableRecord
  2
d-1
 70
    0
 62
250
  6
CONTINUOUS
  0
LAYER
  5
15F
100
AcDbSymbolTableRecord
100
AcDbLayerTableRecord
  2
d-2
 70
    0
 62
250
  6
CONTINUOUS
  0
LAYER
  5
160
100
AcDbSymbolTableRecord
100
AcDbLayerTableRecord
  2
d-3
 70
    0
 62
250
  6
CONTINUOUS
  0
LAYER
  5
161
100
AcDbSymbolTableRecord
100
AcDbLayerTableRecord
  2
d-4
 70
    0
 62
250
  6
CONTINUOUS
  0
LAYER
  5
162
100
AcDbSymbolTableRecord
100
AcDbLayerTableRecord
  2
d-5
 70
    0
 62
250
  6
CONTINUOUS
  0
LAYER
  5
163
100
AcDbSymbolTableRecord
100
AcDbLayerTableRecord
  2
d-6
 70
    0
 62
250
  6
CONTINUOUS
  0
LAYER
  5
164
100
AcDbSymbolTableRecord
100
AcDbLayerTableRecord
  2
d-7
 70
    0
 62
250
  6
CONTINUOUS
  0
LAYER
  5
165
100
AcDbSymbolTableRecord
100
AcDbLayerTableRecord
  2
d-8
 70
    0
 62
250
  6
CONTINUOUS
  0
LAYER
  5
166
100
AcDbSymbolTableRecord
100
AcDbLayerTableRecord
  2
d-9
 70
    0
 62
250
  6
CONTINUOUS
  0
LAYER
  5
167
100
AcDbSymbolTableRecord
100
AcDbLayerTableRecord
  2
d-a
 70
    0
 62
250
  6
CONTINUOUS
  0
LAYER
  5
168
100
AcDbSymbolTableRecord
100
AcDbLayerTableRecord
  2
d-b
 70
    0
 62
250
  6
CONTINUOUS
  0
LAYER
  5
169
100
AcDbSymbolTableRecord
100
AcDbLayerTableRecord
  2
d-c
 70
    0
 62
250
  6
CONTINUOUS
  0
LAYER
  5
16A
100
AcDbSymbolTableRecord
100
AcDbLayerTableRecord
  2
d-d
 70
    0
 62
250
  6
CONTINUOUS
  0
LAYER
  5
16B
100
AcDbSymbolTableRecord
100
AcDbLayerTableRecord
  2
d-e
 70
    0
 62
250
  6
CONTINUOUS
  0
LAYER
  5
16C
100
AcDbSymbolTableRecord
100
AcDbLayerTableRecord
  2
d-f
 70
    0
 62
250
  6
CONTINUOUS
  0
LAYER
  5
16D
100
AcDbSymbolTableRecord
100
AcDbLayerTableRecord
  2
e-0
 70
    0
 62
250
  6
CONTINUOUS
  0
LAYER
  5
16E
100
AcDbSymbolTableRecord
100
AcDbLayerTableRecord
  2
e-1
 70
    0
 62
250
  6
CONTINUOUS
  0
LAYER
  5
16F
100
AcDbSymbolTableRecord
100
AcDbLayerTableRecord
  2
e-2
 70
    0
 62
250
  6
CONTINUOUS
  0
LAYER
  5
170
100
AcDbSymbolTableRecord
100
AcDbLayerTableRecord
  2
e-3
 70
    0
 62
250
  6
CONTINUOUS
  0
LAYER
  5
171
100
AcDbSymbolTableRecord
100
AcDbLayerTableRecord
  2
e-4
 70
    0
 62
250
  6
CONTINUOUS
  0
LAYER
  5
172
100
AcDbSymbolTableRecord
100
AcDbLayerTableRecord
  2
e-5
 70
    0
 62
250
  6
CONTINUOUS
  0
LAYER
  5
173
100
AcDbSymbolTableRecord
100
AcDbLayerTableRecord
  2
e-6
 70
    0
 62
250
  6
CONTINUOUS
  0
LAYER
  5
174
100
AcDbSymbolTableRecord
100
AcDbLayerTableRecord
  2
e-7
 70
    0
 62
250
  6
CONTINUOUS
  0
LAYER
  5
175
100
AcDbSymbolTableRecord
100
AcDbLayerTableRecord
  2
e-8
 70
    0
 62
250
  6
CONTINUOUS
  0
LAYER
  5
176
100
AcDbSymbolTableRecord
100
AcDbLayerTableRecord
  2
e-9
 70
    0
 62
250
  6
CONTINUOUS
  0
LAYER
  5
177
100
AcDbSymbolTableRecord
100
AcDbLayerTableRecord
  2
e-a
 70
    0
 62
250
  6
CONTINUOUS
  0
LAYER
  5
178
100
AcDbSymbolTableRecord
100
AcDbLayerTableRecord
  2
e-b
 70
    0
 62
250
  6
CONTINUOUS
  0
LAYER
  5
179
100
AcDbSymbolTableRecord
100
AcDbLayerTableRecord
  2
e-c
 70
    0
 62
250
  6
CONTINUOUS
  0
LAYER
  5
17A
100
AcDbSymbolTableRecord
100
AcDbLayerTableRecord
  2
e-d
 70
    0
 62
250
  6
CONTINUOUS
  0
LAYER
  5
17B
100
AcDbSymbolTableRecord
100
AcDbLayerTableRecord
  2
e-e
 70
    0
 62
250
  6
CONTINUOUS
  0
LAYER
  5
17C
100
AcDbSymbolTableRecord
100
AcDbLayerTableRecord
  2
e-f
 70
    0
 62
250
  6
CONTINUOUS
  0
LAYER
  5
17D
100
AcDbSymbolTableRecord
100
AcDbLayerTableRecord
  2
f-0
 70
    0
 62
250
  6
CONTINUOUS
  0
LAYER
  5
17E
100
AcDbSymbolTableRecord
100
AcDbLayerTableRecord
  2
f-1
 70
    0
 62
250
  6
CONTINUOUS
  0
LAYER
  5
17F
100
AcDbSymbolTableRecord
100
AcDbLayerTableRecord
  2
f-2
 70
    0
 62
250
  6
CONTINUOUS
  0
LAYER
  5
180
100
AcDbSymbolTableRecord
100
AcDbLayerTableRecord
  2
f-3
 70
    0
 62
250
  6
CONTINUOUS
  0
LAYER
  5
181
100
AcDbSymbolTableRecord
100
AcDbLayerTableRecord
  2
f-4
 70
    0
 62
250
  6
CONTINUOUS
  0
LAYER
  5
182
100
AcDbSymbolTableRecord
100
AcDbLayerTableRecord
  2
f-5
 70
    0
 62
250
  6
CONTINUOUS
  0
LAYER
  5
183
100
AcDbSymbolTableRecord
100
AcDbLayerTableRecord
  2
f-6
 70
    0
 62
250
  6
CONTINUOUS
  0
LAYER
  5
184
100
AcDbSymbolTableRecord
100
AcDbLayerTableRecord
  2
f-7
 70
    0
 62
250
  6
CONTINUOUS
  0
LAYER
  5
185
100
AcDbSymbolTableRecord
100
AcDbLayerTableRecord
  2
f-8
 70
    0
 62
250
  6
CONTINUOUS
  0
LAYER
  5
186
100
AcDbSymbolTableRecord
100
AcDbLayerTableRecord
  2
f-9
 70
    0
 62
250
  6
CONTINUOUS
  0
LAYER
  5
187
100
AcDbSymbolTableRecord
100
AcDbLayerTableRecord
  2
f-a
 70
    0
 62
250
  6
CONTINUOUS
  0
LAYER
  5
188
100
AcDbSymbolTableRecord
100
AcDbLayerTableRecord
  2
f-b
 70
    0
 62
250
  6
CONTINUOUS
  0
LAYER
  5
189
100
AcDbSymbolTableRecord
100
AcDbLayerTableRecord
  2
f-c
 70
    0
 62
250
  6
CONTINUOUS
  0
LAYER
  5
18A
100
AcDbSymbolTableRecord
100
AcDbLayerTableRecord
  2
f-d
 70
    0
 62
250
  6
CONTINUOUS
  0
LAYER
  5
18B
100
AcDbSymbolTableRecord
100
AcDbLayerTableRecord
  2
f-e
 70
    0
 62
250
  6
CONTINUOUS
  0
LAYER
  5
18C
100
AcDbSymbolTableRecord
100
AcDbLayerTableRecord
  2
f-f
 70
    0
 62
250
  6
CONTINUOUS
  0
LAYER
  5
18D
100
AcDbSymbolTableRecord
100
AcDbLayerTableRecord
  2
0
 70
   64
 62
    7
  6
CONTINUOUS
  0
ENDTAB
  0
TABLE
  2
STYLE
  5
4
100
AcDbSymbolTable
 70
     1
  0
STYLE
  5
18E
100
AcDbSymbolTableRecord
100
AcDbTextStyleTableRecord
  2
Standard
 70
     0
 40
0.0
 41
1.0
 50
0.0
 71
     0
 42
3.2
  3
TXT
  4
BIGFONT
  0
STYLE
  5
18F
100
AcDbSymbolTableRecord
100
AcDbTextStyleTableRecord
  2
Font_0
 70
     0
 40
0.0
 41
1.0
 50
0.0
 71
     0
 42
3.2
  3
MS Gothic.ttf
  4

1001
ACAD
1000
MS Gothic
1071
  32817
  0
ENDTAB
  0
TABLE
  2
VIEW
  5
5
100
AcDbSymbolTable
 70
     0
  0
ENDTAB
  0
TABLE
  2
UCS
  5
6
100
AcDbSymbolTable
 70
     0
  0
ENDTAB
  0
TABLE
  2
APPID
  5
7
100
AcDbSymbolTable
 70
     1
  0
APPID
  5
190
100
AcDbSymbolTableRecord
100
AcDbRegAppTableRecord
  2
ACAD
 70
     0
  0
ENDTAB
  0
TABLE
  2
DIMSTYLE
  5
8
100
AcDbSymbolTable
 70
     1
  0
DIMSTYLE
105
2A
100
AcDbSymbolTableRecord
100
AcDbDimStyleTableRecord
  2
STANDARD
 70
     0
  3

  4

  5

  6

  7

 40
1.0
 41
2.5
 42
2.0
 43
7.0
 44
1.25
 45
0.0
 46
0.0
 47
0.0
 48
0.0
 71
     0
 72
     0
 73
     0
 74
     0
 75
     0
 76
     0
 77
     1
 78
     0
140
2.5
141
2.5
142
0.0
143
0.0394
144
1.0
145
0.0
146
1.0
147
1.0
170
     0
171
     2
172
     0
173
     0
174
     1
175
     0
176
     0
177
     0
178
     0
270
     2
271
     2
272
     4
273
     2
274
     2
275
     0
280
     0
281
     0
282
     0
283
     1
284
     0
285
     0
286
     0
287
     3
288
     0
  0
ENDTAB
  0
TABLE
  2
BLOCK_RECORD
  5
9
100
AcDbSymbolTable
 70
     0
  0
BLOCK_RECORD
  5
191
100
AcDbSymbolTableRecord
100
AcDbBlockTableRecord
  2
*MODEL_SPACE
  0
BLOCK_RECORD
  5
192
100
AcDbSymbolTableRecord
100
AcDbBlockTableRecord
  2
*PAPER_SPACE
  0
ENDTAB
  0
ENDSEC
  0
SECTION
  2
BLOCKS
  0
BLOCK
  5
194
100
AcDbEntity
  8
0
100
AcDbBlockBegin
2
*MODEL_SPACE
 70
     0
 10
0.0
 20
0.0
 30
0.0
  3
*MODEL_SPACE
  1

  0
ENDBLK
  5
195
100
AcDbEntity
  8
0-0
100
AcDbBlockEnd
  0
BLOCK
  5
196
100
AcDbEntity
 67
     1
  8
0-0
100
AcDbBlockBegin
  2
*PAPER_SPACE
 70
     0
 10
0.0
 20
0.0
 30
0.0
  3
*PAPER_SPACE
  1

  0
ENDBLK
  5
197
100
AcDbEntity
 67
     1
  8
0-0
100
AcDbBlockEnd
  0
ENDSEC
  0
SECTION
  2
ENTITIES
  0
LINE
  5
198
100
AcDbEntity
  8
0-0
100
AcDbLine
  6
CONTINUOUS
 62
7
370
30
 10
383.529896207257
 20
7.92566014571743
 11
581.727435079532
 21
7.92566014571743
  0
LINE
  5
199
100
AcDbEntity
  8
0-0
100
AcDbLine
  6
CONTINUOUS
 62
7
370
30
 10
383.529896207257
 20
30.9256601457174
 11
383.529896207257
 21
7.92566014571743
  0
LINE
  5
19A
100
AcDbEntity
  8
0-0
100
AcDbLine
  6
CONTINUOUS
 62
7
370
30
 10
383.529896207257
 20
25.9256601457174
 11
581.727435079532
 21
25.9256601457174
  0
LINE
  5
19B
100
AcDbEntity
  8
0-0
100
AcDbLine
  6
CONTINUOUS
 62
7
370
50
 10
383.529896207257
 20
30.9256601457174
 11
581.727435079532
 21
30.9256601457174
  0
LINE
  5
19C
100
AcDbEntity
  8
0-0
100
AcDbLine
  6
CONTINUOUS
 62
7
370
30
 10
392.529896207257
 20
30.9256601457174
 11
392.529896207257
 21
25.9256601457174
  0
LINE
  5
19D
100
AcDbEntity
  8
0-0
100
AcDbLine
  6
CONTINUOUS
 62
7
370
30
 10
397.529896207257
 20
25.9256601457174
 11
397.529896207257
 21
7.92566014571743
  0
LINE
  5
19E
100
AcDbEntity
  8
0-0
100
AcDbLine
  6
CONTINUOUS
 62
7
370
30
 10
411.529896207257
 20
25.9256601457174
 11
411.529896207257
 21
7.92566014571743
  0
LINE
  5
19F
100
AcDbEntity
  8
0-0
100
AcDbLine
  6
CONTINUOUS
 62
7
370
30
 10
425.529896207257
 20
25.9256601457174
 11
425.529896207257
 21
7.92566014571743
  0
LINE
  5
1A0
100
AcDbEntity
  8
0-0
100
AcDbLine
  6
CONTINUOUS
 62
7
370
30
 10
439.529896207257
 20
25.9256601457174
 11
439.529896207257
 21
7.92566014571743
  0
LINE
  5
1A1
100
AcDbEntity
  8
0-0
100
AcDbLine
  6
CONTINUOUS
 62
7
370
30
 10
453.529896207257
 20
30.9256601457174
 11
453.529896207257
 21
7.92566014571743
  0
LINE
  5
1A2
100
AcDbEntity
  8
0-0
100
AcDbLine
  6
CONTINUOUS
 62
7
370
30
 10
527.529896207257
 20
25.9256601457174
 11
527.529896207257
 21
7.92566014571743
  0
LINE
  5
1A3
100
AcDbEntity
  8
0-0
100
AcDbLine
  6
CONTINUOUS
 62
7
370
30
 10
522.265295207257
 20
9.92566014571743
 11
458.368795207257
 21
9.92566014571743
  0
TEXT
  5
1A4
100
AcDbEntity
  8
0-0
 62
7
100
AcDbText
  6
BYLAYER
 62
7
 10
397.689575859105
 20
26.4256591457174
 40
4
  1
年月日
  7
Font_0
100
AcDbText
  0
TEXT
  5
1A5
100
AcDbEntity
  8
0-0
 62
7
100
AcDbText
  6
BYLAYER
 62
7
 10
428.453567668639
 20
26.4256591457174
 40
4
  1
記  事
  7
Font_0
100
AcDbText
  0
TEXT
  5
1A6
100
AcDbEntity
  8
0-0
 62
7
100
AcDbText
  6
BYLAYER
 62
7
 10
384.736792207257
 20
26.8739351457174
 40
3.103449
  1
来歴
  7
Font_0
100
AcDbText
  0
TEXT
  5
1A7
100
AcDbEntity
  8
0-0
 62
7
100
AcDbText
  6
BYLAYER
 62
7
 10
443.512469862769
 20
21.9256601457174
 40
3
  1
製図
  7
Font_0
100
AcDbText
  0
TEXT
  5
1A8
100
AcDbEntity
  8
0-0
 62
7
100
AcDbText
  6
BYLAYER
 62
7
 10
415.628844999491
 20
21.9256601457174
 40
3
  1
検図
  7
Font_0
100
AcDbText
  0
TEXT
  5
1A9
100
AcDbEntity
  8
0-0
 62
7
100
AcDbText
  6
BYLAYER
 62
7
 10
401.772073278715
 20
21.9256601457174
 40
3
  1
承認
  7
Font_0
100
AcDbText
  0
TEXT
  5
1AA
100
AcDbEntity
  8
0-0
 62
7
100
AcDbText
  6
BYLAYER
 62
7
 10
458.529896207257
 20
20.9256601457174
 40
3
  1
品名
  7
Font_0
100
AcDbText
  0
POINT
  5
1AB
100
AcDbEntity
  8
0-0
100
AcDbPoint
 62
7
 10
468.529896207257
 20
20.6392201457174
  0
POINT
  5
1AC
100
AcDbEntity
  8
0-0
100
AcDbPoint
 62
7
 10
468.529896207257
 20
12.1905501457174
  0
TEXT
  5
1AD
100
AcDbEntity
  8
0-0
 62
7
100
AcDbText
  6
BYLAYER
 62
7
 10
386.921996207257
 20
21.6934901457174
 40
3
  1
尺度
  7
Font_0
100
AcDbText
  0
LINE
  5
1AE
100
AcDbEntity
  8
0-0
100
AcDbLine
  6
CONTINUOUS
 62
7
370
30
 10
387.417800207257
 20
10.6411700727094
 11
394.065395207257
 21
17.2888220727094
  0
POINT
  5
1AF
100
AcDbEntity
  8
0-0
100
AcDbPoint
 62
7
 10
404.529896207257
 20
14.9256601457174
  0
POINT
  5
1B0
100
AcDbEntity
  8
0-0
100
AcDbPoint
 62
7
 10
432.529896207257
 20
14.9256601457174
  0
POINT
  5
1B1
100
AcDbEntity
  8
0-0
100
AcDbPoint
 62
7
 10
446.529896207257
 20
14.9256601457174
  0
POINT
  5
1B2
100
AcDbEntity
  8
0-0
100
AcDbPoint
 62
7
 10
418.529896207257
 20
14.9256601457174
  0
TEXT
  5
1B3
100
AcDbEntity
  8
0-0
 62
7
100
AcDbText
  6
BYLAYER
 62
7
 10
455.717963077024
 20
26.8756591457174
 40
3.1
  1
品番
  7
Font_0
 11
455.717963077024
 21
29.9756591457174
100
AcDbText
 73
3
  0
TEXT
  5
1B4
100
AcDbEntity
  8
0-0
 62
7
100
AcDbText
  6
BYLAYER
 62
7
 10
479.108282771536
 20
26.8756591457174
 40
3.1
  1
部品名
  7
Font_0
 11
479.108282771536
 21
29.9756591457174
100
AcDbText
 73
3
  0
TEXT
  5
1B5
100
AcDbEntity
  8
0-0
 62
7
100
AcDbText
  6
BYLAYER
 62
7
 10
512.879015963222
 20
26.8756591457174
 40
3.1
  1
材　質
  7
Font_0
 11
512.879015963222
 21
29.9756591457174
100
AcDbText
 73
3
  0
TEXT
  5
1B6
100
AcDbEntity
  8
0-0
 62
7
100
AcDbText
  6
BYLAYER
 62
7
 10
534.634672891351
 20
26.8756591457174
 40
3.1
  1
数量
  7
Font_0
 11
534.634672891351
 21
29.9756591457174
100
AcDbText
 73
3
  0
TEXT
  5
1B7
100
AcDbEntity
  8
0-0
 62
7
100
AcDbText
  6
BYLAYER
 62
7
 10
557.856814435183
 20
26.8756591457174
 40
3.1
  1
備　考
  7
Font_0
 11
557.856814435183
 21
29.9756591457174
100
AcDbText
 73
3
  0
TEXT
  5
1B8
100
AcDbEntity
  8
0-0
 62
7
100
AcDbText
  6
BYLAYER
 62
7
 10
429.462899144666
 20
21.9256601457174
 40
3
  1
検図
  7
Font_0
100
AcDbText
  0
TEXT
  5
1B9
100
AcDbEntity
  8
0-0
100
AcDbText
  6
CONTINUOUS
 10
384.735632593103
 20
12.6221994123031
 40
5
  1
１
  7
Font_0
 11
384.735632593103
 21
17.6221994123031
100
AcDbText
 73
3
  0
TEXT
  5
1BA
100
AcDbEntity
  8
0-0
100
AcDbText
  6
CONTINUOUS
 10
391.388279368477
 20
10.6183901426122
 40
5
  1
１
  7
Font_0
 11
391.388279368477
 21
15.6183901426122
100
AcDbText
 73
3
  0
LINE
  5
1BB
100
AcDbEntity
  8
0-0
100
AcDbLine
  6
CONTINUOUS
 62
7
370
30
 10
414.529006612092
 20
30.9256601457174
 11
414.529006612092
 21
25.9256601457174
  0
LINE
  5
1BC
100
AcDbEntity
  8
0-0
100
AcDbLine
  6
DOT
 62
7
370
30
 10
383.529896207257
 20
20.9256601457174
 11
453.529896207257
 21
20.9256601457174
  0
LINE
  5
1BD
100
AcDbEntity
  8
0-0
100
AcDbLine
  6
CONTINUOUS
 62
7
370
30
 10
463.529441870872
 20
30.9256601457174
 11
463.529441870872
 21
25.9256601457174
  0
LINE
  5
1BE
100
AcDbEntity
  8
0-0
100
AcDbLine
  6
CONTINUOUS
 62
7
370
30
 10
502.532603249565
 20
30.9256601457174
 11
502.532603249565
 21
25.9256601457174
  0
LINE
  5
1BF
100
AcDbEntity
  8
0-0
100
AcDbLine
  6
CONTINUOUS
 62
7
370
30
 10
532.533235120947
 20
30.9256601457174
 11
532.533235120947
 21
25.9256601457174
  0
LINE
  5
1C0
100
AcDbEntity
  8
0-0
100
AcDbLine
  6
CONTINUOUS
 62
7
370
30
 10
542.531652329788
 20
30.9256601457174
 11
542.531652329788
 21
25.9256601457174
  0
MTEXT
  5
1C1
100
AcDbEntity
  8
0-0
100
AcDbMText
 10
252.080338259495
 20
6.77389257289355
 40
6
 41
  0.0
  1
{\fMS Gothic|b1;MinatoConcept,Inc.}
  7
Font_0
  0
LINE
  5
1C2
100
AcDbEntity
  8
0-0
100
AcDbLine
  6
CONTINUOUS
 62
7
370
30
 10
5.3492237535991
 20
7.92375554031949
 11
574.727435079532
 21
7.92375554031949
  0
LINE
  5
1C3
100
AcDbEntity
  8
0-0
100
AcDbLine
  6
CONTINUOUS
 62
7
370
30
 10
581.727435079532
 20
408.838358386814
 11
581.727435079532
 21
7.92566014571743
  0
LINE
  5
1C4
100
AcDbEntity
  8
0-0
100
AcDbLine
  6
CONTINUOUS
 62
7
370
30
 10
5.3492237535991
 20
408.838358386814
 11
5.3492237535991
 21
7.92375554031949
  0
LINE
  5
1C5
100
AcDbEntity
  8
0-0
100
AcDbLine
  6
CONTINUOUS
 62
7
370
30
 10
5.3492237535991
 20
408.838358386814
 11
581.727435079532
 21
408.838358386814
  0
TEXT
  5
1C6
100
AcDbEntity
  8
0-0
100
AcDbText
  6
CONTINUOUS
 10
466.230524095125
 20
20.0228968346577
 40
4.2
  1
シリンジポンプ用コントローラ
  7
Font_0
100
AcDbText
  0
TEXT
  5
1C7
100
AcDbEntity
  8
0-0
100
AcDbText
  6
CONTINUOUS
 10
470.653448710026
 20
10.7372397710655
 40
4.2
  1
ＤＰＣＯ－Ⅰ外観図
  7
Font_0
100
AcDbText
  0
LINE
  5
1C8
100
AcDbEntity
  8
0-0
100
AcDbLine
  6
CONTINUOUS
370
50
 10
508.837577481533
 20
134.572764480851
 11
408.837577481533
 21
134.572764480851
  0
LINE
  5
1C9
100
AcDbEntity
  8
0-0
100
AcDbLine
  6
CONTINUOUS
370
50
 10
328.837577481533
 20
48.5727644808513
 11
508.837577481533
 21
48.5727644808513
  0
LINE
  5
1CA
100
AcDbEntity
  8
0-0
100
AcDbLine
  6
CONTINUOUS
370
50
 10
226.065070556351
 20
134.572764480851
 11
66.0650705563507
 21
134.572764480851
  0
LINE
  5
1CB
100
AcDbEntity
  8
0-0
100
AcDbLine
  6
CONTINUOUS
370
50
 10
66.0650705563507
 20
48.5727644808513
 11
226.065070556351
 21
48.5727644808513
  0
LINE
  5
1CC
100
AcDbEntity
  8
0-0
100
AcDbLine
  6
CONTINUOUS
370
50
 10
226.065070556351
 20
48.5727644808513
 11
226.065070556351
 21
134.572764480851
  0
LINE
  5
1CD
100
AcDbEntity
  8
0-0
100
AcDbLine
  6
CONTINUOUS
370
50
 10
66.0650705563507
 20
212.757960517488
 11
226.065070556351
 21
212.757960517488
  0
LINE
  5
1CE
100
AcDbEntity
  8
0-0
100
AcDbLine
  6
CONTINUOUS
370
50
 10
226.065070556351
 20
212.757960517488
 11
226.065070556351
 21
392.757960517488
  0
LINE
  5
1CF
100
AcDbEntity
  8
0-0
100
AcDbLine
  6
CONTINUOUS
370
50
 10
66.0650705563507
 20
392.757960517488
 11
226.065070556351
 21
392.757960517488
  0
LINE
  5
1D0
100
AcDbEntity
  8
0-0
100
AcDbLine
  6
CONTINUOUS
370
50
 10
326.525724728341
 20
237.765032444169
 11
344.025724728341
 21
207.454143311713
  0
LINE
  5
1D1
100
AcDbEntity
  8
0-0
100
AcDbLine
  6
CONTINUOUS
370
50
 10
316.999445286712
 20
232.265032444168
 11
334.499445286712
 21
201.954143311713
  0
LINE
  5
1D2
100
AcDbEntity
  8
0-0
100
AcDbLine
  6
CONTINUOUS
370
50
 10
316.999445286712
 20
232.265032444168
 11
326.525724728341
 21
237.765032444169
  0
LINE
  5
1D3
100
AcDbEntity
  8
0-0
100
AcDbLine
  6
CONTINUOUS
370
50
 10
334.499445286712
 20
201.954143311713
 11
344.025724728341
 21
207.454143311713
  0
CIRCLE
  5
1D4
100
AcDbEntity
  8
0-0
100
AcDbCircle
  6
CONTINUOUS
370
50
 10
311.106178546975
 20
221.472469859948
 40
3
  0
CIRCLE
  5
1D5
100
AcDbEntity
  8
0-0
100
AcDbCircle
  6
CONTINUOUS
370
50
 10
322.106178546976
 20
202.41991097669
 40
3
  0
LWPOLYLINE
  5
1D6
100
AcDbEntity
  8
0-0
100
AcDbPolyline
  6
CONTINUOUS
370
50
 90
     4
 70
     1
 10
354.302330969682
  20
158.654539172331
 10
348.302330969682
  20
169.046844017744
 10
337.910026124269
  20
163.046844017744
 10
343.910026124269
  20
152.654539172331
  0
LWPOLYLINE
  5
1D7
100
AcDbEntity
  8
0-0
100
AcDbPolyline
  6
CONTINUOUS
370
50
 90
     4
 70
     1
 10
340.445924509131
  20
150.65453917233
 10
334.445924509131
  20
161.046844017744
 10
324.053619663718
  20
155.046844017744
 10
330.053619663718
  20
144.65453917233
  0
LINE
  5
1D8
100
AcDbEntity
  8
0-0
100
AcDbLine
  6
CONTINUOUS
370
50
 10
351.017069405844
 20
102.344779117051
 11
351.517069405844
 21
101.478753713266
  0
LINE
  5
1D9
100
AcDbEntity
  8
0-0
100
AcDbLine
  6
CONTINUOUS
370
50
 10
361.409374251257
 20
108.34477911705
 11
361.909374251257
 21
107.478753713266
  0
LINE
  5
1DA
100
AcDbEntity
  8
0-0
100
AcDbLine
  6
CONTINUOUS
370
50
 10
364.873475866395
 20
110.344779117051
 11
365.373475866395
 21
109.478753713266
  0
LINE
  5
1DB
100
AcDbEntity
  8
0-0
100
AcDbLine
  6
CONTINUOUS
370
50
 10
375.265780711808
 20
116.34477911705
 11
375.765780711808
 21
115.478753713266
  0
LINE
  5
1DC
100
AcDbEntity
  8
0-0
100
AcDbLine
  6
CONTINUOUS
370
50
 10
364.873475866395
 20
110.344779117051
 11
375.265780711808
 21
116.34477911705
  0
LINE
  5
1DD
100
AcDbEntity
  8
0-0
100
AcDbLine
  6
CONTINUOUS
370
50
 10
351.017069405844
 20
102.344779117051
 11
361.409374251257
 21
108.34477911705
  0
LINE
  5
1DE
100
AcDbEntity
  8
0-0
100
AcDbLine
  6
CONTINUOUS
370
50
 10
66.0650705563507
 20
392.757960517488
 11
66.0650705563507
 21
212.757960517488
  0
LINE
  5
1DF
100
AcDbEntity
  8
0-0
100
AcDbLine
  6
CONTINUOUS
370
50
 10
66.0650705563507
 20
134.572764480851
 11
66.0650705563507
 21
48.5727644808513
  0
LINE
  5
1E0
100
AcDbEntity
  8
0-0
100
AcDbLine
  6
CONTINUOUS
370
50
 10
508.837577481533
 20
48.5727644808513
 11
508.837577481533
 21
134.572764480851
  0
LINE
  5
1E1
100
AcDbEntity
  8
0-0
100
AcDbLine
  6
CONTINUOUS
370
50
 10
464.72956180847
 20
336.257660328081
 11
476.549561808469
 21
336.257660328081
  0
LINE
  5
1E2
100
AcDbEntity
  8
0-0
100
AcDbLine
  6
CONTINUOUS
370
50
 10
464.489561808469
 20
336.857660328081
 11
476.789561808469
 21
336.857660328081
  0
LINE
  5
1E3
100
AcDbEntity
  8
0-0
100
AcDbLine
  6
CONTINUOUS
370
50
 10
478.519177314493
 20
333.910363972747
 11
478.04309446658
 21
331.210363972747
  0
LINE
  5
1E4
100
AcDbEntity
  8
0-0
100
AcDbLine
  6
CONTINUOUS
370
50
 10
478.759177314494
 20
334.510363972747
 11
478.071502089731
 21
330.610363972747
  0
CIRCLE
  5
1E5
100
AcDbEntity
  8
0-0
100
AcDbCircle
  6
CONTINUOUS
370
50
 10
483.139561808469
 20
332.907660328081
 40
1.55
  0
CIRCLE
  5
1E6
100
AcDbEntity
  8
0-0
100
AcDbCircle
  6
CONTINUOUS
370
50
 10
476.179561808469
 20
334.580610213275
 40
0.5
  0
ARC
  5
1E7
100
AcDbEntity
  8
0-0
100
AcDbCircle
  6
CONTINUOUS
370
50
 10
476.101886583706
 20
330.957660328081
 40
2
100
AcDbArc
 50
270
 51
350.000000000001
  0
ARC
  5
1E8
100
AcDbEntity
  8
0-0
100
AcDbCircle
  6
CONTINUOUS
370
50
 10
476.073478960556
 20
331.557660328081
 40
2
100
AcDbArc
 50
270
 51
350.000000000001
  0
LINE
  5
1E9
100
AcDbEntity
  8
0-0
100
AcDbLine
  6
CONTINUOUS
370
50
 10
462.519946302445
 20
334.510363972747
 11
463.207621527208
 21
330.610363972747
  0
LINE
  5
1EA
100
AcDbEntity
  8
0-0
100
AcDbLine
  6
CONTINUOUS
370
50
 10
462.759946302445
 20
333.910363972747
 11
463.236029150358
 21
331.210363972747
  0
CIRCLE
  5
1EB
100
AcDbEntity
  8
0-0
100
AcDbCircle
  6
CONTINUOUS
370
50
 10
472.024561808469
 20
331.584555025124
 40
0.5
  0
CIRCLE
  5
1EC
100
AcDbEntity
  8
0-0
100
AcDbCircle
  6
CONTINUOUS
370
50
 10
466.484561808469
 20
331.584555025124
 40
0.5
  0
CIRCLE
  5
1ED
100
AcDbEntity
  8
0-0
100
AcDbCircle
  6
CONTINUOUS
370
50
 10
469.254561808469
 20
331.584555025124
 40
0.5
  0
CIRCLE
  5
1EE
100
AcDbEntity
  8
0-0
100
AcDbCircle
  6
CONTINUOUS
370
50
 10
473.409561808469
 20
334.580610213275
 40
0.5
  0
CIRCLE
  5
1EF
100
AcDbEntity
  8
0-0
100
AcDbCircle
  6
CONTINUOUS
370
50
 10
470.639561808469
 20
334.580610213275
 40
0.5
  0
CIRCLE
  5
1F0
100
AcDbEntity
  8
0-0
100
AcDbCircle
  6
CONTINUOUS
370
50
 10
467.869561808469
 20
334.580610213275
 40
0.5
  0
CIRCLE
  5
1F1
100
AcDbEntity
  8
0-0
100
AcDbCircle
  6
CONTINUOUS
370
50
 10
465.099561808469
 20
334.580610213275
 40
0.5
  0
ARC
  5
1F2
100
AcDbEntity
  8
0-0
100
AcDbCircle
  6
CONTINUOUS
370
50
 10
465.205644656382
 20
331.557660328081
 40
2
100
AcDbArc
 50
189.999999999999
 51
270
  0
ARC
  5
1F3
100
AcDbEntity
  8
0-0
100
AcDbCircle
  6
CONTINUOUS
370
50
 10
465.177237033232
 20
330.957660328081
 40
2
100
AcDbArc
 50
189.999999999999
 51
270
  0
LINE
  5
1F4
100
AcDbEntity
  8
0-0
100
AcDbLine
  6
CONTINUOUS
370
50
 10
465.177237033232
 20
328.957660328081
 11
476.101886583706
 21
328.957660328081
  0
LINE
  5
1F5
100
AcDbEntity
  8
0-0
100
AcDbLine
  6
CONTINUOUS
370
50
 10
465.205644656382
 20
329.557660328081
 11
476.073478960556
 21
329.557660328081
  0
CIRCLE
  5
1F6
100
AcDbEntity
  8
0-0
100
AcDbCircle
  6
CONTINUOUS
370
50
 10
474.794561808469
 20
331.584555025124
 40
0.5
  0
ARC
  5
1F7
100
AcDbEntity
  8
0-0
100
AcDbCircle
  6
CONTINUOUS
370
50
 10
464.72956180847
 20
334.257660328081
 40
2
100
AcDbArc
 50
90
 51
189.999999999999
  0
ARC
  5
1F8
100
AcDbEntity
  8
0-0
100
AcDbCircle
  6
CONTINUOUS
370
50
 10
464.489561808469
 20
334.857660328081
 40
2
100
AcDbArc
 50
90
 51
189.999999999999
  0
ARC
  5
1F9
100
AcDbEntity
  8
0-0
100
AcDbCircle
  6
CONTINUOUS
370
50
 10
476.549561808469
 20
334.257660328081
 40
2
100
AcDbArc
 50
350.000000000001
 51
90
  0
ARC
  5
1FA
100
AcDbEntity
  8
0-0
100
AcDbCircle
  6
CONTINUOUS
370
50
 10
476.789561808469
 20
334.857660328081
 40
2
100
AcDbArc
 50
350.000000000001
 51
90
  0
CIRCLE
  5
1FB
100
AcDbEntity
  8
0-0
100
AcDbCircle
  6
CONTINUOUS
370
50
 10
458.139561808469
 20
332.907660328081
 40
1.55
  0
LINE
  5
1FC
100
AcDbEntity
  8
0-0
100
AcDbLine
  6
CONTINUOUS
370
50
 10
492.700527062375
 20
387.707660328081
 11
332.700527062375
 21
387.707660328081
  0
LINE
  5
1FD
100
AcDbEntity
  8
0-0
100
AcDbLine
  6
CONTINUOUS
370
50
 10
492.700527062375
 20
301.707660328081
 11
492.700527062375
 21
387.707660328081
  0
LINE
  5
1FE
100
AcDbEntity
  8
0-0
100
AcDbLine
  6
CONTINUOUS
370
50
 10
332.700527062375
 20
387.707660328081
 11
332.700527062375
 21
301.707660328081
  0
LINE
  5
1FF
100
AcDbEntity
  8
0-0
100
AcDbLine
  6
DASHED
370
50
 10
333.900527062375
 20
302.907660328081
 11
491.500527062375
 21
302.907660328081
  0
LINE
  5
200
100
AcDbEntity
  8
0-0
100
AcDbLine
  6
CONTINUOUS
370
50
 10
334.200527062375
 20
302.907660328081
 11
491.200527062375
 21
302.907660328081
  0
LINE
  5
201
100
AcDbEntity
  8
0-0
100
AcDbLine
  6
CONTINUOUS
370
50
 10
490.200527062375
 20
386.307660328081
 11
335.200527062375
 21
386.307660328081
  0
LINE
  5
202
100
AcDbEntity
  8
0-0
100
AcDbLine
  6
DASHED
370
50
 10
340.700527062375
 20
302.907660328081
 11
340.700527062375
 21
301.707660328081
  0
LINE
  5
203
100
AcDbEntity
  8
0-0
100
AcDbLine
  6
DASHED
370
50
 10
484.700527062375
 20
301.707660328081
 11
484.700527062375
 21
302.907660328081
  0
LINE
  5
204
100
AcDbEntity
  8
0-0
100
AcDbLine
  6
CONTINUOUS
370
50
 10
335.200527062375
 20
386.307660328081
 11
334.200527062375
 21
385.307660328081
  0
LINE
  5
205
100
AcDbEntity
  8
0-0
100
AcDbLine
  6
CONTINUOUS
370
50
 10
491.200527062375
 20
385.307660328081
 11
490.200527062375
 21
386.307660328081
  0
CIRCLE
  5
206
100
AcDbEntity
  8
0-0
100
AcDbCircle
  6
CONTINUOUS
370
50
 10
458.260975808469
 20
332.907660328081
 40
1.55
  0
CIRCLE
  5
207
100
AcDbEntity
  8
0-0
100
AcDbCircle
  6
CONTINUOUS
370
50
 10
483.139561808469
 20
332.907660328081
 40
1.55
  0
LINE
  5
208
100
AcDbEntity
  8
0-0
100
AcDbLine
  6
CONTINUOUS
370
50
 10
461.200527062375
 20
337.907660328081
 11
461.200527062375
 21
327.907660328081
  0
LINE
  5
209
100
AcDbEntity
  8
0-0
100
AcDbLine
  6
CONTINUOUS
370
50
 10
480.200527062375
 20
337.907660328081
 11
480.200527062375
 21
327.907660328081
  0
LINE
  5
20A
100
AcDbEntity
  8
0-0
100
AcDbLine
  6
CONTINUOUS
370
50
 10
480.200527062375
 20
337.907660328081
 11
461.200527062375
 21
337.907660328081
  0
LINE
  5
20B
100
AcDbEntity
  8
0-0
100
AcDbLine
  6
CONTINUOUS
370
50
 10
480.200527062375
 20
327.907660328081
 11
461.200527062375
 21
327.907660328081
  0
CIRCLE
  5
20C
100
AcDbEntity
  8
0-0
100
AcDbCircle
  6
CONTINUOUS
370
50
 10
458.260975808469
 20
312.907660328081
 40
1.55
  0
CIRCLE
  5
20D
100
AcDbEntity
  8
0-0
100
AcDbCircle
  6
CONTINUOUS
370
50
 10
483.139561808469
 20
312.907660328081
 40
1.55
  0
LINE
  5
20E
100
AcDbEntity
  8
0-0
100
AcDbLine
  6
CONTINUOUS
370
50
 10
461.200527062375
 20
317.907660328081
 11
461.200527062375
 21
307.907660328081
  0
LINE
  5
20F
100
AcDbEntity
  8
0-0
100
AcDbLine
  6
CONTINUOUS
370
50
 10
480.200527062375
 20
317.907660328081
 11
480.200527062375
 21
307.907660328081
  0
LINE
  5
210
100
AcDbEntity
  8
0-0
100
AcDbLine
  6
CONTINUOUS
370
50
 10
480.200527062375
 20
317.907660328081
 11
461.200527062375
 21
317.907660328081
  0
LINE
  5
211
100
AcDbEntity
  8
0-0
100
AcDbLine
  6
CONTINUOUS
370
50
 10
480.200527062375
 20
307.907660328081
 11
461.200527062375
 21
307.907660328081
  0
LINE
  5
212
100
AcDbEntity
  8
0-0
100
AcDbLine
  6
CONTINUOUS
370
50
 10
359.200527062375
 20
307.057660328081
 11
359.200527062375
 21
322.757660328081
  0
LINE
  5
213
100
AcDbEntity
  8
0-0
100
AcDbLine
  6
CONTINUOUS
370
50
 10
359.200527062375
 20
322.757660328081
 11
346.200527062375
 21
322.757660328081
  0
LINE
  5
214
100
AcDbEntity
  8
0-0
100
AcDbLine
  6
CONTINUOUS
370
50
 10
346.200527062375
 20
322.757660328081
 11
346.200527062375
 21
307.057660328081
  0
LINE
  5
215
100
AcDbEntity
  8
0-0
100
AcDbLine
  6
CONTINUOUS
370
50
 10
346.200527062375
 20
307.057660328081
 11
359.200527062375
 21
307.057660328081
  0
LINE
  5
216
100
AcDbEntity
  8
0-0
100
AcDbLine
  6
CONTINUOUS
370
50
 10
360.100527062375
 20
362.907660328081
 11
360.100527062375
 21
372.807660328081
  0
LINE
  5
217
100
AcDbEntity
  8
0-0
100
AcDbLine
  6
CONTINUOUS
370
50
 10
345.300527062375
 20
372.807660328081
 11
345.300527062375
 21
362.907660328081
  0
ARC
  5
218
100
AcDbEntity
  8
0-0
100
AcDbCircle
  6
CONTINUOUS
370
50
 10
382.247842062375
 20
362.557660328081
 40
34.497351
100
AcDbArc
 50
168.600605000002
 51
180.083043999997
  0
ARC
  5
219
100
AcDbEntity
  8
0-0
100
AcDbCircle
  6
CONTINUOUS
370
50
 10
383.156777062375
 20
362.907660328081
 40
35.55625
100
AcDbArc
 50
167.822944000001
 51
180
  0
LINE
  5
21A
100
AcDbEntity
  8
0-0
100
AcDbLine
  6
CONTINUOUS
370
50
 10
348.693235062375
 20
368.328677328081
 11
348.592278062375
 21
369.575927328081
  0
LINE
  5
21B
100
AcDbEntity
  8
0-0
100
AcDbLine
  6
CONTINUOUS
370
50
 10
356.808777062375
 20
369.575927328081
 11
356.707820062375
 21
368.328677328081
  0
ARC
  5
21C
100
AcDbEntity
  8
0-0
100
AcDbCircle
  6
CONTINUOUS
370
50
 10
323.153212062375
 20
362.557660328081
 40
34.497351
100
AcDbArc
 50
359.91695599999
 51
11.3993949999984
  0
ARC
  5
21D
100
AcDbEntity
  8
0-0
100
AcDbCircle
  6
CONTINUOUS
370
50
 10
322.244277062375
 20
362.907660328081
 40
35.5562500000001
100
AcDbArc
 50
0
 51
12.1770559999991
  0
LINE
  5
21E
100
AcDbEntity
  8
0-0
100
AcDbLine
  6
CONTINUOUS
370
50
 10
352.700527062375
 20
368.238580328081
 11
356.500527062375
 21
368.238580328081
  0
ARC
  5
21F
100
AcDbEntity
  8
0-0
100
AcDbCircle
  6
CONTINUOUS
370
50
 10
352.700527062375
 20
395.157660328081
 40
40
100
AcDbArc
 50
270
 51
275.490697000005
  0
ARC
  5
220
100
AcDbEntity
  8
0-0
100
AcDbCircle
  6
CONTINUOUS
370
50
 10
352.700527062375
 20
392.262660328081
 40
37.105
100
AcDbArc
 50
270
 51
276.654807999993
  0
LINE
  5
221
100
AcDbEntity
  8
0-0
100
AcDbLine
  6
CONTINUOUS
370
50
 10
352.700527062375
 20
352.507660328081
 11
359.600527062375
 21
352.507660328081
  0
ARC
  5
222
100
AcDbEntity
  8
0-0
100
AcDbCircle
  6
CONTINUOUS
370
50
 10
359.600527062375
 20
353.007660328081
 40
0.5
100
AcDbArc
 50
270
 51
0
  0
ARC
  5
223
100
AcDbEntity
  8
0-0
100
AcDbCircle
  6
CONTINUOUS
370
50
 10
323.650527062375
 20
362.507660328081
 40
34
100
AcDbArc
 50
348.517560999999
 51
0
  0
ARC
  5
224
100
AcDbEntity
  8
0-0
100
AcDbCircle
  6
CONTINUOUS
370
50
 10
332.911178062375
 20
361.611302328081
 40
24.589349
100
AcDbArc
 50
345.344735999997
 51
0
  0
ARC
  5
225
100
AcDbEntity
  8
0-0
100
AcDbCircle
  6
CONTINUOUS
370
50
 10
322.244277062375
 20
362.907660328081
 40
35.5562500000001
100
AcDbArc
 50
347.822944000001
 51
0
  0
LINE
  5
226
100
AcDbEntity
  8
0-0
100
AcDbLine
  6
CONTINUOUS
370
50
 10
360.100527062375
 20
353.007660328081
 11
360.100527062375
 21
362.907660328081
  0
ARC
  5
227
100
AcDbEntity
  8
0-0
100
AcDbCircle
  6
CONTINUOUS
370
50
 10
356.480051062375
 20
355.838896328081
 40
0.5
100
AcDbArc
 50
275.490697000005
 51
348.517560999999
  0
ARC
  5
228
100
AcDbEntity
  8
0-0
100
AcDbCircle
  6
CONTINUOUS
370
50
 10
331.332136062375
 20
361.814356328081
 40
26.16918
100
AcDbArc
 50
359.555420999996
 51
13.7594210000001
  0
ARC
  5
229
100
AcDbEntity
  8
0-0
100
AcDbCircle
  6
CONTINUOUS
370
50
 10
345.800527062375
 20
353.007660328081
 40
0.5
100
AcDbArc
 50
180
 51
270
  0
LINE
  5
22A
100
AcDbEntity
  8
0-0
100
AcDbLine
  6
CONTINUOUS
370
50
 10
345.800527062375
 20
352.507660328081
 11
352.700527062375
 21
352.507660328081
  0
ARC
  5
22B
100
AcDbEntity
  8
0-0
100
AcDbCircle
  6
CONTINUOUS
370
50
 10
372.489877062375
 20
361.611302328081
 40
24.589349
100
AcDbArc
 50
180
 51
194.655264000003
  0
ARC
  5
22C
100
AcDbEntity
  8
0-0
100
AcDbCircle
  6
CONTINUOUS
370
50
 10
381.750527062375
 20
362.507660328081
 40
34
100
AcDbArc
 50
180
 51
191.482439000001
  0
ARC
  5
22D
100
AcDbEntity
  8
0-0
100
AcDbCircle
  6
CONTINUOUS
370
50
 10
383.156777062375
 20
362.907660328081
 40
35.55625
100
AcDbArc
 50
180
 51
192.177055999999
  0
LINE
  5
22E
100
AcDbEntity
  8
0-0
100
AcDbLine
  6
CONTINUOUS
370
50
 10
345.300527062375
 20
362.907660328081
 11
345.300527062375
 21
353.007660328081
  0
ARC
  5
22F
100
AcDbEntity
  8
0-0
100
AcDbCircle
  6
CONTINUOUS
370
50
 10
348.921004062375
 20
355.838896328081
 40
0.5
100
AcDbArc
 50
191.482439000001
 51
264.509302999995
  0
ARC
  5
230
100
AcDbEntity
  8
0-0
100
AcDbCircle
  6
CONTINUOUS
370
50
 10
352.700527062375
 20
395.157660328081
 40
40
100
AcDbArc
 50
264.509302999995
 51
270
  0
ARC
  5
231
100
AcDbEntity
  8
0-0
100
AcDbCircle
  6
CONTINUOUS
370
50
 10
352.700527062375
 20
392.262660328081
 40
37.105
100
AcDbArc
 50
263.345192000007
 51
270
  0
ARC
  5
232
100
AcDbEntity
  8
0-0
100
AcDbCircle
  6
CONTINUOUS
370
50
 10
374.068919062375
 20
361.814356328081
 40
26.16918
100
AcDbArc
 50
166.240579
 51
180.444578999991
  0
LINE
  5
233
100
AcDbEntity
  8
0-0
100
AcDbLine
  6
CONTINUOUS
370
50
 10
348.900527062375
 20
368.238580328081
 11
352.700527062375
 21
368.238580328081
  0
LINE
  5
234
100
AcDbEntity
  8
0-0
100
AcDbLine
  6
CONTINUOUS
370
50
 10
359.600527062375
 20
373.307660328081
 11
352.700527062375
 21
373.307660328081
  0
ARC
  5
235
100
AcDbEntity
  8
0-0
100
AcDbCircle
  6
CONTINUOUS
370
50
 10
352.700527062375
 20
329.957660328081
 40
40
100
AcDbArc
 50
84.5093030000079
 51
90
  0
ARC
  5
236
100
AcDbEntity
  8
0-0
100
AcDbCircle
  6
CONTINUOUS
370
50
 10
352.700527062375
 20
333.552660328081
 40
37.105
100
AcDbArc
 50
83.3451920000075
 51
90
  0
ARC
  5
237
100
AcDbEntity
  8
0-0
100
AcDbCircle
  6
CONTINUOUS
370
50
 10
359.600527062375
 20
372.807660328081
 40
0.5
100
AcDbArc
 50
0
 51
90
  0
ARC
  5
238
100
AcDbEntity
  8
0-0
100
AcDbCircle
  6
CONTINUOUS
370
50
 10
356.480051062375
 20
369.276424328081
 40
0.5
100
AcDbArc
 50
11.4824390000011
 51
84.5093030000079
  0
ARC
  5
239
100
AcDbEntity
  8
0-0
100
AcDbCircle
  6
CONTINUOUS
370
50
 10
345.800527062375
 20
372.807660328081
 40
0.5
100
AcDbArc
 50
90
 51
180
  0
ARC
  5
23A
100
AcDbEntity
  8
0-0
100
AcDbCircle
  6
CONTINUOUS
370
50
 10
348.921004062375
 20
369.276424328081
 40
0.5
100
AcDbArc
 50
95.4906969999921
 51
168.517560999999
  0
LINE
  5
23B
100
AcDbEntity
  8
0-0
100
AcDbLine
  6
CONTINUOUS
370
50
 10
352.700527062375
 20
373.307660328081
 11
345.800527062375
 21
373.307660328081
  0
ARC
  5
23C
100
AcDbEntity
  8
0-0
100
AcDbCircle
  6
CONTINUOUS
370
50
 10
352.700527062375
 20
329.957660328081
 40
40
100
AcDbArc
 50
90
 51
95.4906969999921
  0
ARC
  5
23D
100
AcDbEntity
  8
0-0
100
AcDbCircle
  6
CONTINUOUS
370
50
 10
352.700527062375
 20
333.552660328081
 40
37.105
100
AcDbArc
 50
90
 51
96.6548079999925
  0
CIRCLE
  5
23E
100
AcDbEntity
  8
0-0
100
AcDbCircle
  6
CONTINUOUS
370
50
 10
432.700527062375
 20
312.907660328081
 40
4.75
  0
CIRCLE
  5
23F
100
AcDbEntity
  8
0-0
100
AcDbCircle
  6
CONTINUOUS
370
50
 10
432.700527062375
 20
312.907660328081
 40
6
  0
CIRCLE
  5
240
100
AcDbEntity
  8
0-0
100
AcDbCircle
  6
CONTINUOUS
370
50
 10
432.700527062375
 20
312.907660328081
 40
4
  0
CIRCLE
  5
241
100
AcDbEntity
  8
0-0
100
AcDbCircle
  6
CONTINUOUS
370
50
 10
432.700527062375
 20
312.907660328081
 40
3.5
  0
CIRCLE
  5
242
100
AcDbEntity
  8
0-0
100
AcDbCircle
  6
CONTINUOUS
370
50
 10
433.876097566959
 20
311.289626339331
 40
0.350000000000023
  0
CIRCLE
  5
243
100
AcDbEntity
  8
0-0
100
AcDbCircle
  6
CONTINUOUS
370
50
 10
431.52495655779
 20
311.289626339331
 40
0.350000000000023
  0
LINE
  5
244
100
AcDbEntity
  8
0-0
100
AcDbLine
  6
BYLAYER
370
50
 10
510.282806250273
 20
55.3252188787221
 11
509.647883791827
 21
54.5227644808514
  0
LINE
  5
245
100
AcDbEntity
  8
0-0
100
AcDbLine
  6
BYLAYER
370
50
 10
511.247547559814
 20
55.3252188787221
 11
510.282806250273
 21
55.3252188787221
  0
LINE
  5
246
100
AcDbEntity
  8
0-0
100
AcDbLine
  6
BYLAYER
370
50
 10
510.048310679867
 20
55.0288488271508
 11
508.837577481533
 21
55.0288488271508
  0
LINE
  5
247
100
AcDbEntity
  8
0-0
100
AcDbLine
  6
BYLAYER
370
50
 10
509.647883791827
 20
54.5227644808514
 11
508.837577481533
 21
54.5227644808514
  0
LINE
  5
248
100
AcDbEntity
  8
0-0
100
AcDbLine
  6
BYLAYER
370
50
 10
510.282806250273
 20
55.3252188787221
 11
510.282806250273
 21
58.9227644808513
  0
LINE
  5
249
100
AcDbEntity
  8
0-0
100
AcDbLine
  6
BYLAYER
370
50
 10
509.647883791827
 20
54.5227644808514
 11
509.647883791827
 21
58.9227644808513
  0
LINE
  5
24A
100
AcDbEntity
  8
0-0
100
AcDbLine
  6
BYLAYER
370
50
 10
511.247547559814
 20
55.3252188787221
 11
511.247547559814
 21
58.9227644808513
  0
LINE
  5
24B
100
AcDbEntity
  8
0-0
100
AcDbLine
  6
CONTINUOUS
370
50
 10
346.200527062375
 20
307.057660328081
 11
359.200527062375
 21
307.057660328081
  0
LINE
  5
24C
100
AcDbEntity
  8
0-0
100
AcDbLine
  6
CONTINUOUS
370
50
 10
346.200527062375
 20
322.757660328081
 11
359.200527062375
 21
322.757660328081
  0
LINE
  5
24D
100
AcDbEntity
  8
0-0
100
AcDbLine
  6
CONTINUOUS
370
50
 10
359.200527062375
 20
307.057660328081
 11
359.200527062375
 21
322.757660328081
  0
LINE
  5
24E
100
AcDbEntity
  8
0-0
100
AcDbLine
  6
CONTINUOUS
370
50
 10
346.200527062375
 20
307.057660328081
 11
346.200527062375
 21
322.757660328081
  0
LINE
  5
24F
100
AcDbEntity
  8
0-0
100
AcDbLine
  6
BYLAYER
370
50
 10
345.281686498596
 20
97.8787537132663
 11
331.771690199559
 21
90.0787537132662
  0
LINE
  5
250
100
AcDbEntity
  8
0-0
100
AcDbLine
  6
BYLAYER
370
50
 10
344.281686498596
 20
99.6108045208351
 11
330.771690199559
 21
91.8108045208349
  0
LINE
  5
251
100
AcDbEntity
  8
0-0
100
AcDbLine
  6
BYLAYER
370
50
 10
345.281686498596
 20
97.8787537132663
 11
344.281686498596
 21
99.6108045208351
  0
LINE
  5
252
100
AcDbEntity
  8
0-0
100
AcDbLine
  6
BYLAYER
370
50
 10
331.771690199559
 20
90.0787537132662
 11
330.771690199559
 21
91.8108045208349
  0
LINE
  5
253
100
AcDbEntity
  8
0-0
100
AcDbLine
  6
BYLAYER
370
50
 10
331.009352017751
 20
95.5691621767076
 11
340.908022383007
 21
101.284162176708
  0
LINE
  5
254
100
AcDbEntity
  8
0-0
100
AcDbLine
  6
BYLAYER
370
50
 10
340.908022383007
 20
101.284162176708
 11
342.476023531706
 21
98.5683045208351
  0
LINE
  5
255
100
AcDbEntity
  8
0-0
100
AcDbLine
  6
BYLAYER
370
50
 10
331.009352017751
 20
95.5691621767076
 11
332.57735316645
 21
92.8533045208352
  0
LINE
  5
256
100
AcDbEntity
  8
0-0
100
AcDbLine
  6
BYLAYER
370
50
 10
322.090134932513
 20
110.247699332077
 11
316.090134932513
 21
120.64000417749
  0
LINE
  5
257
100
AcDbEntity
  8
0-0
100
AcDbLine
  6
BYLAYER
370
50
 10
326.655644858683
 20
126.74000417749
 11
332.655644858683
 21
116.347699332077
  0
LINE
  5
258
100
AcDbEntity
  8
0-0
100
AcDbLine
  6
BYLAYER
370
50
 10
325.852609835955
 20
126.160901637112
 11
316.99316995524
 21
121.045901637112
  0
LINE
  5
259
100
AcDbEntity
  8
0-0
100
AcDbLine
  6
BYLAYER
370
50
 10
316.77355471297
 20
120.226286394841
 11
322.07355471297
 21
111.046417114726
  0
LINE
  5
25A
100
AcDbEntity
  8
0-0
100
AcDbLine
  6
BYLAYER
370
50
 10
322.893169955241
 20
110.826801872455
 11
331.752609835955
 21
115.941801872455
  0
LINE
  5
25B
100
AcDbEntity
  8
0-0
100
AcDbLine
  6
BYLAYER
370
50
 10
331.972225078226
 20
116.761417114726
 11
326.672225078226
 21
125.941286394841
  0
LINE
  5
25C
100
AcDbEntity
  8
0-0
100
AcDbLine
  6
BYLAYER
370
50
 10
326.975734078226
 20
125.415593386286
 11
317.07706371297
 21
119.700593386286
  0
LINE
  5
25D
100
AcDbEntity
  8
0-0
100
AcDbLine
  6
BYLAYER
370
50
 10
328.127763578226
 20
123.420219760468
 11
318.22909321297
 21
117.705219760468
  0
LINE
  5
25E
100
AcDbEntity
  8
0-0
100
AcDbLine
  6
BYLAYER
370
50
 10
329.414497578226
 20
121.191531096642
 11
319.51582721297
 21
115.476531096642
  0
ARC
  5
25F
100
AcDbEntity
  8
0-0
100
AcDbCircle
  6
BYLAYER
370
50
 10
326.152609835955
 20
125.641286394841
 40
0.600000000000023
100
AcDbArc
 50
390
 51
120
  0
ARC
  5
260
100
AcDbEntity
  8
0-0
100
AcDbCircle
  6
BYLAYER
370
50
 10
331.452609835955
 20
116.461417114726
 40
0.600000000000023
100
AcDbArc
 50
300
 51
390
  0
ARC
  5
261
100
AcDbEntity
  8
0-0
100
AcDbCircle
  6
BYLAYER
370
50
 10
322.59316995524
 20
111.346417114726
 40
0.600000000000023
100
AcDbArc
 50
210
 51
300
  0
ARC
  5
262
100
AcDbEntity
  8
0-0
100
AcDbCircle
  6
BYLAYER
370
50
 10
317.293169955241
 20
120.526286394841
 40
0.600000000000023
100
AcDbArc
 50
120
 51
210
  0
LINE
  5
263
100
AcDbEntity
  8
0-0
100
AcDbLine
  6
BYLAYER
370
50
 10
325.752888045116
 20
131.703624845466
 11
312.242891746079
 21
123.903624845466
  0
LINE
  5
264
100
AcDbEntity
  8
0-0
100
AcDbLine
  6
BYLAYER
370
50
 10
336.502888045116
 20
113.0840786641
 11
322.992891746079
 21
105.284078664101
  0
LINE
  5
265
100
AcDbEntity
  8
0-0
100
AcDbLine
  6
BYLAYER
370
50
 10
316.090134932513
 20
120.64000417749
 11
326.655644858683
 21
126.74000417749
  0
LINE
  5
266
100
AcDbEntity
  8
0-0
100
AcDbLine
  6
BYLAYER
370
50
 10
322.090134932513
 20
110.247699332077
 11
332.655644858683
 21
116.347699332077
  0
LINE
  5
267
100
AcDbEntity
  8
0-0
100
AcDbLine
  6
BYLAYER
370
50
 10
312.242891746079
 20
123.903624845466
 11
322.992891746079
 21
105.284078664101
  0
LINE
  5
268
100
AcDbEntity
  8
0-0
100
AcDbLine
  6
BYLAYER
370
50
 10
325.752888045116
 20
131.703624845466
 11
336.502888045116
 21
113.0840786641
  0
LINE
  5
269
100
AcDbEntity
  8
0-0
100
AcDbLine
  6
HIDDEN
 62
6
370
50
 10
314.936545094027
 20
123.438080388843
 11
324.809234697169
 21
129.138080388843
  0
LINE
  5
26A
100
AcDbEntity
  8
0-0
100
AcDbLine
  6
HIDDEN
 62
6
370
50
 10
333.809234697169
 20
113.549623120723
 11
323.936545094027
 21
107.849623120723
  0
LINE
  5
26B
100
AcDbEntity
  8
0-0
100
AcDbLine
  6
HIDDEN
 62
6
370
50
 10
323.390134932513
 20
107.996033282237
 11
314.790134932513
 21
122.891670227329
  0
LINE
  5
26C
100
AcDbEntity
  8
0-0
100
AcDbLine
  6
HIDDEN
 62
6
370
50
 10
333.955644858683
 20
114.096033282237
 11
325.355644858683
 21
128.991670227329
  0
ARC
  5
26D
100
AcDbEntity
  8
0-0
100
AcDbCircle
  6
HIDDEN
 62
6
370
50
 10
315.136545094027
 20
123.091670227329
 40
0.399999999999977
100
AcDbArc
 50
120
 51
210
  0
ARC
  5
26E
100
AcDbEntity
  8
0-0
100
AcDbCircle
  6
HIDDEN
 62
6
370
50
 10
325.009234697169
 20
128.791670227329
 40
0.399999999999977
100
AcDbArc
 50
390
 51
120
  0
ARC
  5
26F
100
AcDbEntity
  8
0-0
100
AcDbCircle
  6
HIDDEN
 62
6
370
50
 10
333.609234697169
 20
113.896033282237
 40
0.399999999999977
100
AcDbArc
 50
300
 51
390
  0
ARC
  5
270
100
AcDbEntity
  8
0-0
100
AcDbCircle
  6
HIDDEN
 62
6
370
50
 10
323.736545094027
 20
108.196033282237
 40
0.399999999999977
100
AcDbArc
 50
210
 51
300
  0
LINE
  5
271
100
AcDbEntity
  8
0-0
100
AcDbLine
  6
CONTINUOUS
370
50
 10
334.200527062375
 20
385.307660328081
 11
334.200527062375
 21
302.907660328081
  0
LINE
  5
272
100
AcDbEntity
  8
0-0
100
AcDbLine
  6
CONTINUOUS
370
50
 10
491.200527062375
 20
385.307660328081
 11
491.200527062375
 21
302.907660328081
  0
LINE
  5
273
100
AcDbEntity
  8
0-0
100
AcDbLine
  6
CONTINUOUS
370
50
 10
89.8150705563507
 20
44.2727644808513
 11
90.0887069199872
 21
48.5727644808513
  0
LINE
  5
274
100
AcDbEntity
  8
0-0
100
AcDbLine
  6
CONTINUOUS
370
50
 10
76.0414341927144
 20
48.5727644808513
 11
76.3150705563507
 21
44.2727644808513
  0
LINE
  5
275
100
AcDbEntity
  8
0-0
100
AcDbLine
  6
CONTINUOUS
370
50
 10
76.3150705563507
 20
44.2727644808513
 11
89.8150705563507
 21
44.2727644808513
  0
LINE
  5
276
100
AcDbEntity
  8
0-0
100
AcDbLine
  6
CONTINUOUS
370
50
 10
215.815070556351
 20
44.2727644808513
 11
216.088706919987
 21
48.5727644808513
  0
LINE
  5
277
100
AcDbEntity
  8
0-0
100
AcDbLine
  6
CONTINUOUS
370
50
 10
202.041434192714
 20
48.5727644808513
 11
202.315070556351
 21
44.2727644808513
  0
LINE
  5
278
100
AcDbEntity
  8
0-0
100
AcDbLine
  6
CONTINUOUS
370
50
 10
202.315070556351
 20
44.2727644808513
 11
215.815070556351
 21
44.2727644808513
  0
LINE
  5
279
100
AcDbEntity
  8
0-0
100
AcDbLine
  6
CONTINUOUS
370
50
 10
352.587577481533
 20
44.2727644808514
 11
352.861213845169
 21
48.5727644808513
  0
LINE
  5
27A
100
AcDbEntity
  8
0-0
100
AcDbLine
  6
CONTINUOUS
370
50
 10
338.813941117897
 20
48.5727644808513
 11
339.087577481533
 21
44.2727644808514
  0
LINE
  5
27B
100
AcDbEntity
  8
0-0
100
AcDbLine
  6
CONTINUOUS
370
50
 10
339.087577481533
 20
44.2727644808514
 11
352.587577481533
 21
44.2727644808514
  0
LINE
  5
27C
100
AcDbEntity
  8
0-0
100
AcDbLine
  6
HIDDEN
370
50
 10
346.600527062376
 20
298.407660328081
 11
347.159544062376
 21
298.407660328081
  0
LINE
  5
27D
100
AcDbEntity
  8
0-0
100
AcDbLine
  6
HIDDEN
370
50
 10
347.159544062376
 20
298.407660328081
 11
347.509544062376
 21
297.707660328081
  0
LINE
  5
27E
100
AcDbEntity
  8
0-0
100
AcDbLine
  6
HIDDEN
370
50
 10
347.509544062376
 20
297.707660328081
 11
348.700527062376
 21
297.707660328081
  0
LINE
  5
27F
100
AcDbEntity
  8
0-0
100
AcDbLine
  6
HIDDEN
370
50
 10
347.450527062376
 20
300.907660328081
 11
347.700527062376
 21
300.107660328081
  0
LINE
  5
280
100
AcDbEntity
  8
0-0
100
AcDbLine
  6
HIDDEN
370
50
 10
347.700527062376
 20
300.107660328081
 11
348.700527062376
 21
300.107660328081
  0
LINE
  5
281
100
AcDbEntity
  8
0-0
100
AcDbLine
  6
HIDDEN
370
50
 10
351.950527062376
 20
300.907660328081
 11
350.700527062376
 21
300.907660328081
  0
LINE
  5
282
100
AcDbEntity
  8
0-0
100
AcDbLine
  6
CONTINUOUS
370
50
 10
347.200527062376
 20
297.207660328081
 11
352.200527062376
 21
297.207660328081
  0
LINE
  5
283
100
AcDbEntity
  8
0-0
100
AcDbLine
  6
CONTINUOUS
370
50
 10
356.450527062376
 20
297.407660328081
 11
356.800527062376
 21
302.907660328081
  0
LINE
  5
284
100
AcDbEntity
  8
0-0
100
AcDbLine
  6
CONTINUOUS
370
50
 10
356.800527062376
 20
302.907660328081
 11
342.600527062376
 21
302.907660328081
  0
LINE
  5
285
100
AcDbEntity
  8
0-0
100
AcDbLine
  6
HIDDEN
370
50
 10
348.200527062376
 20
300.907660328081
 11
348.200527062376
 21
302.907660328081
  0
LINE
  5
286
100
AcDbEntity
  8
0-0
100
AcDbLine
  6
CONTINUOUS
370
50
 10
352.200527062376
 20
297.207660328081
 11
352.300527062376
 21
297.407660328081
  0
LINE
  5
287
100
AcDbEntity
  8
0-0
100
AcDbLine
  6
HIDDEN
370
50
 10
346.600527062376
 20
298.407660328081
 11
347.100527062376
 21
297.407660328081
  0
LINE
  5
288
100
AcDbEntity
  8
0-0
100
AcDbLine
  6
HIDDEN
370
50
 10
348.150527062376
 20
301.007660328081
 11
346.300527062376
 21
301.007660328081
  0
LINE
  5
289
100
AcDbEntity
  8
0-0
100
AcDbLine
  6
HIDDEN
370
50
 10
351.700527062376
 20
300.107660328081
 11
351.950527062376
 21
300.907660328081
  0
LINE
  5
28A
100
AcDbEntity
  8
0-0
100
AcDbLine
  6
HIDDEN
370
50
 10
348.150527062376
 20
302.907660328081
 11
348.150527062376
 21
301.007660328081
  0
LINE
  5
28B
100
AcDbEntity
  8
0-0
100
AcDbLine
  6
HIDDEN
370
50
 10
351.250527062375
 20
302.907660328081
 11
351.250527062375
 21
301.007660328081
  0
LINE
  5
28C
100
AcDbEntity
  8
0-0
100
AcDbLine
  6
HIDDEN
370
50
 10
353.100527062376
 20
297.407660328081
 11
353.100527062376
 21
301.007660328081
  0
LINE
  5
28D
100
AcDbEntity
  8
0-0
100
AcDbLine
  6
HIDDEN
370
50
 10
353.100527062376
 20
301.007660328081
 11
351.250527062375
 21
301.007660328081
  0
LINE
  5
28E
100
AcDbEntity
  8
0-0
100
AcDbLine
  6
HIDDEN
370
50
 10
346.300527062376
 20
301.007660328081
 11
346.300527062376
 21
297.407660328081
  0
LINE
  5
28F
100
AcDbEntity
  8
0-0
100
AcDbLine
  6
CONTINUOUS
370
50
 10
348.300527062376
 20
306.407660328081
 11
349.450527062376
 21
306.407660328081
  0
LINE
  5
290
100
AcDbEntity
  8
0-0
100
AcDbLine
  6
CONTINUOUS
370
50
 10
342.600527062376
 20
302.907660328081
 11
342.950527062376
 21
297.407660328081
  0
LINE
  5
291
100
AcDbEntity
  8
0-0
100
AcDbLine
  6
HIDDEN
370
50
 10
352.300527062376
 20
297.407660328081
 11
352.800527062376
 21
298.407660328081
  0
LINE
  5
292
100
AcDbEntity
  8
0-0
100
AcDbLine
  6
HIDDEN
370
50
 10
350.700527062376
 20
300.107660328081
 11
351.700527062376
 21
300.107660328081
  0
LINE
  5
293
100
AcDbEntity
  8
0-0
100
AcDbLine
  6
HIDDEN
370
50
 10
348.700527062376
 20
300.907660328081
 11
347.450527062376
 21
300.907660328081
  0
LINE
  5
294
100
AcDbEntity
  8
0-0
100
AcDbLine
  6
HIDDEN
370
50
 10
350.700527062376
 20
297.707660328081
 11
351.891510062375
 21
297.707660328081
  0
LINE
  5
295
100
AcDbEntity
  8
0-0
100
AcDbLine
  6
CONTINUOUS
370
50
 10
342.950527062376
 20
297.407660328081
 11
356.450527062376
 21
297.407660328081
  0
ARC
  5
296
100
AcDbEntity
  8
0-0
100
AcDbCircle
  6
CONTINUOUS
370
50
 10
348.800527062376
 20
304.307660328081
 40
0.1
100
AcDbArc
 50
90
 51
180
  0
ARC
  5
297
100
AcDbEntity
  8
0-0
100
AcDbCircle
  6
CONTINUOUS
370
50
 10
350.600527062376
 20
304.307660328081
 40
0.1
100
AcDbArc
 50
0
 51
90
  0
LINE
  5
298
100
AcDbEntity
  8
0-0
100
AcDbLine
  6
CONTINUOUS
370
50
 10
349.950527062376
 20
306.407660328081
 11
349.950527062376
 21
305.007660328081
  0
LINE
  5
299
100
AcDbEntity
  8
0-0
100
AcDbLine
  6
CONTINUOUS
370
50
 10
349.950527062376
 20
306.407660328081
 11
351.100527062376
 21
306.407660328081
  0
LINE
  5
29A
100
AcDbEntity
  8
0-0
100
AcDbLine
  6
CONTINUOUS
370
50
 10
348.200527062376
 20
302.907660328081
 11
348.200527062376
 21
306.307660328081
  0
LINE
  5
29B
100
AcDbEntity
  8
0-0
100
AcDbLine
  6
CONTINUOUS
370
50
 10
349.450527062376
 20
305.007660328081
 11
348.700527062376
 21
305.007660328081
  0
LINE
  5
29C
100
AcDbEntity
  8
0-0
100
AcDbLine
  6
HIDDEN
370
50
 10
350.700527062376
 20
302.907660328081
 11
350.700527062376
 21
297.707660328081
  0
LINE
  5
29D
100
AcDbEntity
  8
0-0
100
AcDbLine
  6
CONTINUOUS
370
50
 10
348.800527062376
 20
304.407660328081
 11
350.600527062376
 21
304.407660328081
  0
LINE
  5
29E
100
AcDbEntity
  8
0-0
100
AcDbLine
  6
CONTINUOUS
370
50
 10
349.450527062376
 20
306.407660328081
 11
349.450527062376
 21
305.007660328081
  0
LINE
  5
29F
100
AcDbEntity
  8
0-0
100
AcDbLine
  6
CONTINUOUS
370
50
 10
348.700527062376
 20
302.907660328081
 11
348.700527062376
 21
305.007660328081
  0
LINE
  5
2A0
100
AcDbEntity
  8
0-0
100
AcDbLine
  6
HIDDEN
370
50
 10
351.200527062376
 20
302.907660328081
 11
351.200527062376
 21
300.907660328081
  0
LINE
  5
2A1
100
AcDbEntity
  8
0-0
100
AcDbLine
  6
CONTINUOUS
370
50
 10
349.950527062376
 20
305.007660328081
 11
350.700527062376
 21
305.007660328081
  0
LINE
  5
2A2
100
AcDbEntity
  8
0-0
100
AcDbLine
  6
CONTINUOUS
370
50
 10
347.100527062376
 20
297.407660328081
 11
347.200527062376
 21
297.207660328081
  0
LINE
  5
2A3
100
AcDbEntity
  8
0-0
100
AcDbLine
  6
HIDDEN
370
50
 10
352.241510062376
 20
298.407660328081
 11
352.800527062376
 21
298.407660328081
  0
LINE
  5
2A4
100
AcDbEntity
  8
0-0
100
AcDbLine
  6
HIDDEN
370
50
 10
351.891510062375
 20
297.707660328081
 11
352.241510062376
 21
298.407660328081
  0
LINE
  5
2A5
100
AcDbEntity
  8
0-0
100
AcDbLine
  6
HIDDEN
370
50
 10
351.889067062376
 20
297.707660328081
 11
351.891510062375
 21
297.707660328081
  0
LINE
  5
2A6
100
AcDbEntity
  8
0-0
100
AcDbLine
  6
CONTINUOUS
370
50
 10
350.700527062376
 20
305.007660328081
 11
350.700527062376
 21
302.907660328081
  0
LINE
  5
2A7
100
AcDbEntity
  8
0-0
100
AcDbLine
  6
HIDDEN
370
50
 10
348.700527062376
 20
297.707660328081
 11
348.700527062376
 21
302.907660328081
  0
ARC
  5
2A8
100
AcDbEntity
  8
0-0
100
AcDbCircle
  6
CONTINUOUS
370
50
 10
351.100527062376
 20
306.307660328081
 40
0.1
100
AcDbArc
 50
0
 51
90
  0
ARC
  5
2A9
100
AcDbEntity
  8
0-0
100
AcDbCircle
  6
CONTINUOUS
370
50
 10
348.300527062376
 20
306.307660328081
 40
0.1
100
AcDbArc
 50
90
 51
180
  0
LINE
  5
2AA
100
AcDbEntity
  8
0-0
100
AcDbLine
  6
CONTINUOUS
370
50
 10
351.200527062376
 20
306.307660328081
 11
351.200527062376
 21
302.907660328081
  0
LINE
  5
2AB
100
AcDbEntity
  8
0-0
100
AcDbLine
  6
HIDDEN
370
50
 10
472.600527062375
 20
298.407660328081
 11
473.159544062375
 21
298.407660328081
  0
LINE
  5
2AC
100
AcDbEntity
  8
0-0
100
AcDbLine
  6
HIDDEN
370
50
 10
473.159544062375
 20
298.407660328081
 11
473.509544062375
 21
297.707660328081
  0
LINE
  5
2AD
100
AcDbEntity
  8
0-0
100
AcDbLine
  6
HIDDEN
370
50
 10
473.509544062375
 20
297.707660328081
 11
474.700527062375
 21
297.707660328081
  0
LINE
  5
2AE
100
AcDbEntity
  8
0-0
100
AcDbLine
  6
HIDDEN
370
50
 10
473.450527062375
 20
300.907660328081
 11
473.700527062375
 21
300.107660328081
  0
LINE
  5
2AF
100
AcDbEntity
  8
0-0
100
AcDbLine
  6
HIDDEN
370
50
 10
473.700527062375
 20
300.107660328081
 11
474.700527062375
 21
300.107660328081
  0
LINE
  5
2B0
100
AcDbEntity
  8
0-0
100
AcDbLine
  6
HIDDEN
370
50
 10
477.950527062375
 20
300.907660328081
 11
476.700527062375
 21
300.907660328081
  0
LINE
  5
2B1
100
AcDbEntity
  8
0-0
100
AcDbLine
  6
CONTINUOUS
370
50
 10
473.200527062375
 20
297.207660328081
 11
478.200527062375
 21
297.207660328081
  0
LINE
  5
2B2
100
AcDbEntity
  8
0-0
100
AcDbLine
  6
CONTINUOUS
370
50
 10
482.450527062375
 20
297.407660328081
 11
482.800527062375
 21
302.907660328081
  0
LINE
  5
2B3
100
AcDbEntity
  8
0-0
100
AcDbLine
  6
CONTINUOUS
370
50
 10
482.800527062375
 20
302.907660328081
 11
468.600527062375
 21
302.907660328081
  0
LINE
  5
2B4
100
AcDbEntity
  8
0-0
100
AcDbLine
  6
HIDDEN
370
50
 10
474.200527062375
 20
300.907660328081
 11
474.200527062375
 21
302.907660328081
  0
LINE
  5
2B5
100
AcDbEntity
  8
0-0
100
AcDbLine
  6
CONTINUOUS
370
50
 10
478.200527062375
 20
297.207660328081
 11
478.300527062375
 21
297.407660328081
  0
LINE
  5
2B6
100
AcDbEntity
  8
0-0
100
AcDbLine
  6
HIDDEN
370
50
 10
472.600527062375
 20
298.407660328081
 11
473.100527062375
 21
297.407660328081
  0
LINE
  5
2B7
100
AcDbEntity
  8
0-0
100
AcDbLine
  6
HIDDEN
370
50
 10
474.150527062376
 20
301.007660328081
 11
472.300527062375
 21
301.007660328081
  0
LINE
  5
2B8
100
AcDbEntity
  8
0-0
100
AcDbLine
  6
HIDDEN
370
50
 10
477.700527062375
 20
300.107660328081
 11
477.950527062375
 21
300.907660328081
  0
LINE
  5
2B9
100
AcDbEntity
  8
0-0
100
AcDbLine
  6
HIDDEN
370
50
 10
474.150527062376
 20
302.907660328081
 11
474.150527062376
 21
301.007660328081
  0
LINE
  5
2BA
100
AcDbEntity
  8
0-0
100
AcDbLine
  6
HIDDEN
370
50
 10
477.250527062375
 20
302.907660328081
 11
477.250527062375
 21
301.007660328081
  0
LINE
  5
2BB
100
AcDbEntity
  8
0-0
100
AcDbLine
  6
HIDDEN
370
50
 10
479.100527062375
 20
297.407660328081
 11
479.100527062375
 21
301.007660328081
  0
LINE
  5
2BC
100
AcDbEntity
  8
0-0
100
AcDbLine
  6
HIDDEN
370
50
 10
479.100527062375
 20
301.007660328081
 11
477.250527062375
 21
301.007660328081
  0
LINE
  5
2BD
100
AcDbEntity
  8
0-0
100
AcDbLine
  6
HIDDEN
370
50
 10
472.300527062375
 20
301.007660328081
 11
472.300527062375
 21
297.407660328081
  0
LINE
  5
2BE
100
AcDbEntity
  8
0-0
100
AcDbLine
  6
CONTINUOUS
370
50
 10
474.300527062375
 20
306.407660328081
 11
475.450527062375
 21
306.407660328081
  0
LINE
  5
2BF
100
AcDbEntity
  8
0-0
100
AcDbLine
  6
CONTINUOUS
370
50
 10
468.600527062375
 20
302.907660328081
 11
468.950527062375
 21
297.407660328081
  0
LINE
  5
2C0
100
AcDbEntity
  8
0-0
100
AcDbLine
  6
HIDDEN
370
50
 10
478.300527062375
 20
297.407660328081
 11
478.800527062375
 21
298.407660328081
  0
LINE
  5
2C1
100
AcDbEntity
  8
0-0
100
AcDbLine
  6
HIDDEN
370
50
 10
476.700527062375
 20
300.107660328081
 11
477.700527062375
 21
300.107660328081
  0
LINE
  5
2C2
100
AcDbEntity
  8
0-0
100
AcDbLine
  6
HIDDEN
370
50
 10
474.700527062375
 20
300.907660328081
 11
473.450527062375
 21
300.907660328081
  0
LINE
  5
2C3
100
AcDbEntity
  8
0-0
100
AcDbLine
  6
HIDDEN
370
50
 10
476.700527062375
 20
297.707660328081
 11
477.891510062375
 21
297.707660328081
  0
LINE
  5
2C4
100
AcDbEntity
  8
0-0
100
AcDbLine
  6
CONTINUOUS
370
50
 10
468.950527062375
 20
297.407660328081
 11
482.450527062375
 21
297.407660328081
  0
ARC
  5
2C5
100
AcDbEntity
  8
0-0
100
AcDbCircle
  6
CONTINUOUS
370
50
 10
474.800527062375
 20
304.307660328081
 40
0.1
100
AcDbArc
 50
90
 51
180
  0
ARC
  5
2C6
100
AcDbEntity
  8
0-0
100
AcDbCircle
  6
CONTINUOUS
370
50
 10
476.600527062375
 20
304.307660328081
 40
0.1
100
AcDbArc
 50
0
 51
90
  0
LINE
  5
2C7
100
AcDbEntity
  8
0-0
100
AcDbLine
  6
CONTINUOUS
370
50
 10
475.950527062375
 20
306.407660328081
 11
475.950527062375
 21
305.007660328081
  0
LINE
  5
2C8
100
AcDbEntity
  8
0-0
100
AcDbLine
  6
CONTINUOUS
370
50
 10
475.950527062375
 20
306.407660328081
 11
477.100527062375
 21
306.407660328081
  0
LINE
  5
2C9
100
AcDbEntity
  8
0-0
100
AcDbLine
  6
CONTINUOUS
370
50
 10
474.200527062375
 20
302.907660328081
 11
474.200527062375
 21
306.307660328081
  0
LINE
  5
2CA
100
AcDbEntity
  8
0-0
100
AcDbLine
  6
CONTINUOUS
370
50
 10
475.450527062375
 20
305.007660328081
 11
474.700527062375
 21
305.007660328081
  0
LINE
  5
2CB
100
AcDbEntity
  8
0-0
100
AcDbLine
  6
HIDDEN
370
50
 10
476.700527062375
 20
302.907660328081
 11
476.700527062375
 21
297.707660328081
  0
LINE
  5
2CC
100
AcDbEntity
  8
0-0
100
AcDbLine
  6
CONTINUOUS
370
50
 10
474.800527062375
 20
304.407660328081
 11
476.600527062375
 21
304.407660328081
  0
LINE
  5
2CD
100
AcDbEntity
  8
0-0
100
AcDbLine
  6
CONTINUOUS
370
50
 10
475.450527062375
 20
306.407660328081
 11
475.450527062375
 21
305.007660328081
  0
LINE
  5
2CE
100
AcDbEntity
  8
0-0
100
AcDbLine
  6
CONTINUOUS
370
50
 10
474.700527062375
 20
302.907660328081
 11
474.700527062375
 21
305.007660328081
  0
LINE
  5
2CF
100
AcDbEntity
  8
0-0
100
AcDbLine
  6
HIDDEN
370
50
 10
477.200527062375
 20
302.907660328081
 11
477.200527062375
 21
300.907660328081
  0
LINE
  5
2D0
100
AcDbEntity
  8
0-0
100
AcDbLine
  6
CONTINUOUS
370
50
 10
475.950527062375
 20
305.007660328081
 11
476.700527062375
 21
305.007660328081
  0
LINE
  5
2D1
100
AcDbEntity
  8
0-0
100
AcDbLine
  6
CONTINUOUS
370
50
 10
473.100527062375
 20
297.407660328081
 11
473.200527062375
 21
297.207660328081
  0
LINE
  5
2D2
100
AcDbEntity
  8
0-0
100
AcDbLine
  6
HIDDEN
370
50
 10
478.241510062375
 20
298.407660328081
 11
478.800527062375
 21
298.407660328081
  0
LINE
  5
2D3
100
AcDbEntity
  8
0-0
100
AcDbLine
  6
HIDDEN
370
50
 10
477.891510062375
 20
297.707660328081
 11
478.241510062375
 21
298.407660328081
  0
LINE
  5
2D4
100
AcDbEntity
  8
0-0
100
AcDbLine
  6
HIDDEN
370
50
 10
477.889067062375
 20
297.707660328081
 11
477.891510062375
 21
297.707660328081
  0
LINE
  5
2D5
100
AcDbEntity
  8
0-0
100
AcDbLine
  6
CONTINUOUS
370
50
 10
476.700527062375
 20
305.007660328081
 11
476.700527062375
 21
302.907660328081
  0
LINE
  5
2D6
100
AcDbEntity
  8
0-0
100
AcDbLine
  6
HIDDEN
370
50
 10
474.700527062375
 20
297.707660328081
 11
474.700527062375
 21
302.907660328081
  0
ARC
  5
2D7
100
AcDbEntity
  8
0-0
100
AcDbCircle
  6
CONTINUOUS
370
50
 10
477.100527062375
 20
306.307660328081
 40
0.1
100
AcDbArc
 50
0
 51
90
  0
ARC
  5
2D8
100
AcDbEntity
  8
0-0
100
AcDbCircle
  6
CONTINUOUS
370
50
 10
474.300527062375
 20
306.307660328081
 40
0.1
100
AcDbArc
 50
90
 51
180
  0
LINE
  5
2D9
100
AcDbEntity
  8
0-0
100
AcDbLine
  6
CONTINUOUS
370
50
 10
477.200527062375
 20
306.307660328081
 11
477.200527062375
 21
302.907660328081
  0
LINE
  5
2DA
100
AcDbEntity
  8
0-0
100
AcDbLine
  6
BYLAYER
370
50
 10
348.375536050439
 20
169.320049098501
 11
337.636821043512
 21
163.120049098501
  0
LINE
  5
2DB
100
AcDbEntity
  8
0-0
100
AcDbLine
  6
BYLAYER
370
50
 10
337.636821043512
 20
163.120049098501
 11
343.836821043512
 21
152.381334091574
  0
LINE
  5
2DC
100
AcDbEntity
  8
0-0
100
AcDbLine
  6
BYLAYER
370
50
 10
343.836821043512
 20
152.381334091574
 11
354.575536050439
 21
158.581334091574
  0
LINE
  5
2DD
100
AcDbEntity
  8
0-0
100
AcDbLine
  6
BYLAYER
370
50
 10
354.575536050439
 20
158.581334091574
 11
348.375536050439
 21
169.320049098501
  0
LINE
  5
2DE
100
AcDbEntity
  8
0-0
100
AcDbLine
  6
BYLAYER
370
50
 10
334.519129589888
 20
161.320049098501
 11
323.780414582961
 21
155.120049098501
  0
LINE
  5
2DF
100
AcDbEntity
  8
0-0
100
AcDbLine
  6
BYLAYER
370
50
 10
323.780414582961
 20
155.120049098501
 11
329.980414582961
 21
144.381334091574
  0
LINE
  5
2E0
100
AcDbEntity
  8
0-0
100
AcDbLine
  6
BYLAYER
370
50
 10
329.980414582961
 20
144.381334091574
 11
340.719129589888
 21
150.581334091574
  0
LINE
  5
2E1
100
AcDbEntity
  8
0-0
100
AcDbLine
  6
BYLAYER
370
50
 10
340.719129589888
 20
150.581334091574
 11
334.519129589888
 21
161.320049098501
  0
LINE
  5
2E2
100
AcDbEntity
  8
0-0
100
AcDbLine
  6
BYLAYER
370
50
 10
326.585532349476
 20
238.261442605682
 11
344.385532349476
 21
207.430938230956
  0
LINE
  5
2E3
100
AcDbEntity
  8
0-0
100
AcDbLine
  6
BYLAYER
370
50
 10
344.385532349476
 20
207.430938230956
 11
334.339637665576
 21
201.630938230956
  0
LINE
  5
2E4
100
AcDbEntity
  8
0-0
100
AcDbLine
  6
BYLAYER
370
50
 10
334.339637665576
 20
201.630938230956
 11
316.539637665576
 21
232.461442605682
  0
LINE
  5
2E5
100
AcDbEntity
  8
0-0
100
AcDbLine
  6
BYLAYER
370
50
 10
316.539637665576
 20
232.461442605682
 11
326.585532349476
 21
238.261442605682
  0
CIRCLE
  5
2E6
100
AcDbEntity
  8
0-0
100
AcDbCircle
  6
BYLAYER
370
50
 10
319.962585007526
 20
238.132723897793
 40
1.60000000000002
  0
CIRCLE
  5
2E7
100
AcDbEntity
  8
0-0
100
AcDbCircle
  6
BYLAYER
370
50
 10
350.122839045371
 20
205.893631535062
 40
1.60000000000002
  0
CIRCLE
  5
2E8
100
AcDbEntity
  8
0-0
100
AcDbCircle
  6
BYLAYER
370
50
 10
345.792712026448
 20
203.393631535062
 40
1.60000000000002
  0
CIRCLE
  5
2E9
100
AcDbEntity
  8
0-0
100
AcDbCircle
  6
BYLAYER
370
50
 10
341.462585007526
 20
200.893631535062
 40
1.60000000000002
  0
CIRCLE
  5
2EA
100
AcDbEntity
  8
0-0
100
AcDbCircle
  6
BYLAYER
370
50
 10
337.132457988604
 20
198.393631535062
 40
1.60000000000002
  0
LINE
  5
2EB
100
AcDbEntity
  8
0-0
100
AcDbLine
  6
BYLAYER
370
50
 10
130.512616158479
 20
394.203189286228
 11
131.315070556349
 21
393.568266827782
  0
LINE
  5
2EC
100
AcDbEntity
  8
0-0
100
AcDbLine
  6
BYLAYER
370
50
 10
130.512616158479
 20
395.167930595769
 11
130.512616158479
 21
394.203189286228
  0
LINE
  5
2ED
100
AcDbEntity
  8
0-0
100
AcDbLine
  6
BYLAYER
370
50
 10
130.80898621005
 20
393.968693715822
 11
130.80898621005
 21
392.757960517488
  0
LINE
  5
2EE
100
AcDbEntity
  8
0-0
100
AcDbLine
  6
BYLAYER
370
50
 10
131.315070556349
 20
393.568266827782
 11
131.315070556349
 21
392.757960517488
  0
LINE
  5
2EF
100
AcDbEntity
  8
0-0
100
AcDbLine
  6
BYLAYER
370
50
 10
121.61752495422
 20
394.203189286228
 11
120.815070556349
 21
393.568266827781
  0
LINE
  5
2F0
100
AcDbEntity
  8
0-0
100
AcDbLine
  6
BYLAYER
370
50
 10
121.61752495422
 20
395.167930595769
 11
121.61752495422
 21
394.203189286228
  0
LINE
  5
2F1
100
AcDbEntity
  8
0-0
100
AcDbLine
  6
BYLAYER
370
50
 10
121.321154902649
 20
393.968693715822
 11
121.321154902649
 21
392.757960517488
  0
LINE
  5
2F2
100
AcDbEntity
  8
0-0
100
AcDbLine
  6
BYLAYER
370
50
 10
120.815070556349
 20
393.568266827781
 11
120.815070556349
 21
392.757960517488
  0
LINE
  5
2F3
100
AcDbEntity
  8
0-0
100
AcDbLine
  6
BYLAYER
370
50
 10
130.512616158479
 20
394.203189286228
 11
121.61752495422
 21
394.203189286228
  0
LINE
  5
2F4
100
AcDbEntity
  8
0-0
100
AcDbLine
  6
BYLAYER
370
50
 10
131.315070556349
 20
393.568266827782
 11
120.815070556349
 21
393.568266827781
  0
LINE
  5
2F5
100
AcDbEntity
  8
0-0
100
AcDbLine
  6
BYLAYER
370
50
 10
130.512616158479
 20
395.167930595769
 11
121.61752495422
 21
395.167930595769
  0
LINE
  5
2F6
100
AcDbEntity
  8
0-0
100
AcDbLine
  6
CONTINUOUS
370
50
 10
226.065070556351
 20
292.757960517488
 11
66.0650705563507
 21
292.757960517488
  0
CIRCLE
  5
2F7
100
AcDbEntity
  8
0-0
100
AcDbCircle
  6
CONTINUOUS
370
50
 10
487.500527062375
 20
366.507660328081
 40
3
  0
CIRCLE
  5
2F8
100
AcDbEntity
  8
0-0
100
AcDbCircle
  6
CONTINUOUS
370
50
 10
461.500527062375
 20
382.507660328081
 40
3
  0
CIRCLE
  5
2F9
100
AcDbEntity
  8
0-0
100
AcDbCircle
  6
CONTINUOUS
370
50
 10
363.900527062375
 20
382.507660328081
 40
3
  0
CIRCLE
  5
2FA
100
AcDbEntity
  8
0-0
100
AcDbCircle
  6
CONTINUOUS
370
50
 10
337.900527062375
 20
366.507660328081
 40
3
  0
CIRCLE
  5
2FB
100
AcDbEntity
  8
0-0
100
AcDbCircle
  6
BYLAYER
370
50
 10
362.200527062375
 20
314.907660328081
 40
2.24999999999997
  0
ARC
  5
2FC
100
AcDbEntity
  8
0-0
100
AcDbCircle
  6
BYLAYER
370
50
 10
362.200527062375
 20
314.907660328081
 40
1.3
100
AcDbArc
 50
90
 51
98.2927372852379
  0
ARC
  5
2FD
100
AcDbEntity
  8
0-0
100
AcDbCircle
  6
BYLAYER
370
50
 10
362.200527062375
 20
314.907660328081
 40
1.3
100
AcDbArc
 50
81.7072627147621
 51
90
  0
ARC
  5
2FE
100
AcDbEntity
  8
0-0
100
AcDbCircle
  6
BYLAYER
370
50
 10
362.200527062375
 20
314.907660328081
 40
1.3
100
AcDbArc
 50
261.707262714762
 51
270
  0
ARC
  5
2FF
100
AcDbEntity
  8
0-0
100
AcDbCircle
  6
BYLAYER
370
50
 10
363.486927062375
 20
313.621260328081
 40
1.0989
100
AcDbArc
 50
89.9996192115473
 51
180.000380788451
  0
ARC
  5
300
100
AcDbEntity
  8
0-0
100
AcDbCircle
  6
BYLAYER
370
50
 10
362.200527062375
 20
314.907660328081
 40
1.3
100
AcDbArc
 50
0
 51
8.29273728524299
  0
ARC
  5
301
100
AcDbEntity
  8
0-0
100
AcDbCircle
  6
BYLAYER
370
50
 10
362.200527062375
 20
314.907660328081
 40
1.3
100
AcDbArc
 50
351.707262714757
 51
0
  0
ARC
  5
302
100
AcDbEntity
  8
0-0
100
AcDbCircle
  6
BYLAYER
370
50
 10
362.200527062375
 20
314.907660328081
 40
1.3
100
AcDbArc
 50
270
 51
278.292737285238
  0
ARC
  5
303
100
AcDbEntity
  8
0-0
100
AcDbCircle
  6
BYLAYER
370
50
 10
362.200527062375
 20
314.907660328081
 40
1.3
100
AcDbArc
 50
180
 51
188.292737285243
  0
ARC
  5
304
100
AcDbEntity
  8
0-0
100
AcDbCircle
  6
BYLAYER
370
50
 10
362.200527062375
 20
314.907660328081
 40
1.3
100
AcDbArc
 50
171.707262714757
 51
180
  0
ARC
  5
305
100
AcDbEntity
  8
0-0
100
AcDbCircle
  6
BYLAYER
370
50
 10
360.914127062375
 20
313.621260328081
 40
1.0989
100
AcDbArc
 50
359.999619211549
 51
90.0003807884527
  0
ARC
  5
306
100
AcDbEntity
  8
0-0
100
AcDbCircle
  6
BYLAYER
370
50
 10
360.914127062375
 20
316.194060328081
 40
1.0989
100
AcDbArc
 50
269.999619211547
 51
0.0003807884510366
  0
ARC
  5
307
100
AcDbEntity
  8
0-0
100
AcDbCircle
  6
BYLAYER
370
50
 10
363.486927062375
 20
316.194060328081
 40
1.0989
100
AcDbArc
 50
179.999619211549
 51
270.000380788453
  0
CIRCLE
  5
308
100
AcDbEntity
  8
0-0
100
AcDbCircle
  6
BYLAYER
370
50
 10
343.200527062375
 20
314.907660328081
 40
2.24999999999997
  0
ARC
  5
309
100
AcDbEntity
  8
0-0
100
AcDbCircle
  6
BYLAYER
370
50
 10
343.200527062375
 20
314.907660328081
 40
1.3
100
AcDbArc
 50
90
 51
98.2927372852379
  0
ARC
  5
30A
100
AcDbEntity
  8
0-0
100
AcDbCircle
  6
BYLAYER
370
50
 10
343.200527062375
 20
314.907660328081
 40
1.3
100
AcDbArc
 50
81.7072627147621
 51
90
  0
ARC
  5
30B
100
AcDbEntity
  8
0-0
100
AcDbCircle
  6
BYLAYER
370
50
 10
343.200527062375
 20
314.907660328081
 40
1.3
100
AcDbArc
 50
261.707262714762
 51
270
  0
ARC
  5
30C
100
AcDbEntity
  8
0-0
100
AcDbCircle
  6
BYLAYER
370
50
 10
344.486927062375
 20
313.621260328081
 40
1.0989
100
AcDbArc
 50
89.9996192115473
 51
180.000380788451
  0
ARC
  5
30D
100
AcDbEntity
  8
0-0
100
AcDbCircle
  6
BYLAYER
370
50
 10
343.200527062375
 20
314.907660328081
 40
1.3
100
AcDbArc
 50
0
 51
8.29273728524299
  0
ARC
  5
30E
100
AcDbEntity
  8
0-0
100
AcDbCircle
  6
BYLAYER
370
50
 10
343.200527062375
 20
314.907660328081
 40
1.3
100
AcDbArc
 50
351.707262714757
 51
0
  0
ARC
  5
30F
100
AcDbEntity
  8
0-0
100
AcDbCircle
  6
BYLAYER
370
50
 10
343.200527062375
 20
314.907660328081
 40
1.3
100
AcDbArc
 50
270
 51
278.292737285238
  0
ARC
  5
310
100
AcDbEntity
  8
0-0
100
AcDbCircle
  6
BYLAYER
370
50
 10
343.200527062375
 20
314.907660328081
 40
1.3
100
AcDbArc
 50
180
 51
188.292737285243
  0
ARC
  5
311
100
AcDbEntity
  8
0-0
100
AcDbCircle
  6
BYLAYER
370
50
 10
343.200527062375
 20
314.907660328081
 40
1.3
100
AcDbArc
 50
171.707262714757
 51
180
  0
ARC
  5
312
100
AcDbEntity
  8
0-0
100
AcDbCircle
  6
BYLAYER
370
50
 10
341.914127062375
 20
313.621260328081
 40
1.0989
100
AcDbArc
 50
359.999619211549
 51
90.0003807884527
  0
ARC
  5
313
100
AcDbEntity
  8
0-0
100
AcDbCircle
  6
BYLAYER
370
50
 10
341.914127062375
 20
316.194060328081
 40
1.0989
100
AcDbArc
 50
269.999619211547
 51
0.0003807884510366
  0
ARC
  5
314
100
AcDbEntity
  8
0-0
100
AcDbCircle
  6
BYLAYER
370
50
 10
344.486927062375
 20
316.194060328081
 40
1.0989
100
AcDbArc
 50
179.999619211549
 51
270.000380788453
  0
ARC
  5
315
100
AcDbEntity
  8
0-0
100
AcDbCircle
  6
BYLAYER
370
50
 10
487.500527062375
 20
366.507660328081
 40
1.3
100
AcDbArc
 50
90
 51
98.2927372852379
  0
ARC
  5
316
100
AcDbEntity
  8
0-0
100
AcDbCircle
  6
BYLAYER
370
50
 10
487.500527062375
 20
366.507660328081
 40
1.3
100
AcDbArc
 50
81.7072627147621
 51
90
  0
ARC
  5
317
100
AcDbEntity
  8
0-0
100
AcDbCircle
  6
BYLAYER
370
50
 10
487.500527062375
 20
366.507660328081
 40
1.3
100
AcDbArc
 50
261.707262714762
 51
270
  0
ARC
  5
318
100
AcDbEntity
  8
0-0
100
AcDbCircle
  6
BYLAYER
370
50
 10
488.786927062375
 20
365.221260328081
 40
1.0989
100
AcDbArc
 50
89.9996192115473
 51
180.000380788451
  0
ARC
  5
319
100
AcDbEntity
  8
0-0
100
AcDbCircle
  6
BYLAYER
370
50
 10
487.500527062375
 20
366.507660328081
 40
1.3
100
AcDbArc
 50
0
 51
8.29273728524299
  0
ARC
  5
31A
100
AcDbEntity
  8
0-0
100
AcDbCircle
  6
BYLAYER
370
50
 10
487.500527062375
 20
366.507660328081
 40
1.3
100
AcDbArc
 50
351.707262714757
 51
0
  0
ARC
  5
31B
100
AcDbEntity
  8
0-0
100
AcDbCircle
  6
BYLAYER
370
50
 10
487.500527062375
 20
366.507660328081
 40
1.3
100
AcDbArc
 50
270
 51
278.292737285238
  0
ARC
  5
31C
100
AcDbEntity
  8
0-0
100
AcDbCircle
  6
BYLAYER
370
50
 10
487.500527062375
 20
366.507660328081
 40
1.3
100
AcDbArc
 50
180
 51
188.292737285243
  0
ARC
  5
31D
100
AcDbEntity
  8
0-0
100
AcDbCircle
  6
BYLAYER
370
50
 10
487.500527062375
 20
366.507660328081
 40
1.3
100
AcDbArc
 50
171.707262714757
 51
180
  0
ARC
  5
31E
100
AcDbEntity
  8
0-0
100
AcDbCircle
  6
BYLAYER
370
50
 10
486.214127062375
 20
365.221260328081
 40
1.0989
100
AcDbArc
 50
359.999619211549
 51
90.0003807884527
  0
ARC
  5
31F
100
AcDbEntity
  8
0-0
100
AcDbCircle
  6
BYLAYER
370
50
 10
486.214127062375
 20
367.794060328081
 40
1.0989
100
AcDbArc
 50
269.999619211547
 51
0.0003807884510366
  0
ARC
  5
320
100
AcDbEntity
  8
0-0
100
AcDbCircle
  6
BYLAYER
370
50
 10
488.786927062375
 20
367.794060328081
 40
1.0989
100
AcDbArc
 50
179.999619211549
 51
270.000380788453
  0
ARC
  5
321
100
AcDbEntity
  8
0-0
100
AcDbCircle
  6
BYLAYER
370
50
 10
461.500527062375
 20
382.507660328081
 40
1.3
100
AcDbArc
 50
90
 51
98.2927372852379
  0
ARC
  5
322
100
AcDbEntity
  8
0-0
100
AcDbCircle
  6
BYLAYER
370
50
 10
461.500527062375
 20
382.507660328081
 40
1.3
100
AcDbArc
 50
81.7072627147621
 51
90
  0
ARC
  5
323
100
AcDbEntity
  8
0-0
100
AcDbCircle
  6
BYLAYER
370
50
 10
461.500527062375
 20
382.507660328081
 40
1.3
100
AcDbArc
 50
261.707262714762
 51
270
  0
ARC
  5
324
100
AcDbEntity
  8
0-0
100
AcDbCircle
  6
BYLAYER
370
50
 10
462.786927062375
 20
381.221260328081
 40
1.0989
100
AcDbArc
 50
89.9996192115473
 51
180.000380788451
  0
ARC
  5
325
100
AcDbEntity
  8
0-0
100
AcDbCircle
  6
BYLAYER
370
50
 10
461.500527062375
 20
382.507660328081
 40
1.3
100
AcDbArc
 50
0
 51
8.29273728524299
  0
ARC
  5
326
100
AcDbEntity
  8
0-0
100
AcDbCircle
  6
BYLAYER
370
50
 10
461.500527062375
 20
382.507660328081
 40
1.3
100
AcDbArc
 50
351.707262714757
 51
0
  0
ARC
  5
327
100
AcDbEntity
  8
0-0
100
AcDbCircle
  6
BYLAYER
370
50
 10
461.500527062375
 20
382.507660328081
 40
1.3
100
AcDbArc
 50
270
 51
278.292737285238
  0
ARC
  5
328
100
AcDbEntity
  8
0-0
100
AcDbCircle
  6
BYLAYER
370
50
 10
461.500527062375
 20
382.507660328081
 40
1.3
100
AcDbArc
 50
180
 51
188.292737285243
  0
ARC
  5
329
100
AcDbEntity
  8
0-0
100
AcDbCircle
  6
BYLAYER
370
50
 10
461.500527062375
 20
382.507660328081
 40
1.3
100
AcDbArc
 50
171.707262714757
 51
180
  0
ARC
  5
32A
100
AcDbEntity
  8
0-0
100
AcDbCircle
  6
BYLAYER
370
50
 10
460.214127062375
 20
381.221260328081
 40
1.0989
100
AcDbArc
 50
359.999619211549
 51
90.0003807884527
  0
ARC
  5
32B
100
AcDbEntity
  8
0-0
100
AcDbCircle
  6
BYLAYER
370
50
 10
460.214127062375
 20
383.794060328081
 40
1.0989
100
AcDbArc
 50
269.999619211547
 51
0.0003807884510366
  0
ARC
  5
32C
100
AcDbEntity
  8
0-0
100
AcDbCircle
  6
BYLAYER
370
50
 10
462.786927062375
 20
383.794060328081
 40
1.0989
100
AcDbArc
 50
179.999619211549
 51
270.000380788453
  0
ARC
  5
32D
100
AcDbEntity
  8
0-0
100
AcDbCircle
  6
BYLAYER
370
50
 10
363.900527062375
 20
382.507660328081
 40
1.3
100
AcDbArc
 50
90
 51
98.2927372852379
  0
ARC
  5
32E
100
AcDbEntity
  8
0-0
100
AcDbCircle
  6
BYLAYER
370
50
 10
363.900527062375
 20
382.507660328081
 40
1.3
100
AcDbArc
 50
81.7072627147621
 51
90
  0
ARC
  5
32F
100
AcDbEntity
  8
0-0
100
AcDbCircle
  6
BYLAYER
370
50
 10
363.900527062375
 20
382.507660328081
 40
1.3
100
AcDbArc
 50
261.707262714762
 51
270
  0
ARC
  5
330
100
AcDbEntity
  8
0-0
100
AcDbCircle
  6
BYLAYER
370
50
 10
365.186927062375
 20
381.221260328081
 40
1.0989
100
AcDbArc
 50
89.9996192115473
 51
180.000380788451
  0
ARC
  5
331
100
AcDbEntity
  8
0-0
100
AcDbCircle
  6
BYLAYER
370
50
 10
363.900527062375
 20
382.507660328081
 40
1.3
100
AcDbArc
 50
0
 51
8.29273728524299
  0
ARC
  5
332
100
AcDbEntity
  8
0-0
100
AcDbCircle
  6
BYLAYER
370
50
 10
363.900527062375
 20
382.507660328081
 40
1.3
100
AcDbArc
 50
351.707262714757
 51
0
  0
ARC
  5
333
100
AcDbEntity
  8
0-0
100
AcDbCircle
  6
BYLAYER
370
50
 10
363.900527062375
 20
382.507660328081
 40
1.3
100
AcDbArc
 50
270
 51
278.292737285238
  0
ARC
  5
334
100
AcDbEntity
  8
0-0
100
AcDbCircle
  6
BYLAYER
370
50
 10
363.900527062375
 20
382.507660328081
 40
1.3
100
AcDbArc
 50
180
 51
188.292737285243
  0
ARC
  5
335
100
AcDbEntity
  8
0-0
100
AcDbCircle
  6
BYLAYER
370
50
 10
363.900527062375
 20
382.507660328081
 40
1.3
100
AcDbArc
 50
171.707262714757
 51
180
  0
ARC
  5
336
100
AcDbEntity
  8
0-0
100
AcDbCircle
  6
BYLAYER
370
50
 10
362.614127062376
 20
381.221260328081
 40
1.0989
100
AcDbArc
 50
359.999619211549
 51
90.0003807884527
  0
ARC
  5
337
100
AcDbEntity
  8
0-0
100
AcDbCircle
  6
BYLAYER
370
50
 10
362.614127062376
 20
383.794060328081
 40
1.0989
100
AcDbArc
 50
269.999619211547
 51
0.0003807884510366
  0
ARC
  5
338
100
AcDbEntity
  8
0-0
100
AcDbCircle
  6
BYLAYER
370
50
 10
365.186927062375
 20
383.794060328081
 40
1.0989
100
AcDbArc
 50
179.999619211549
 51
270.000380788453
  0
ARC
  5
339
100
AcDbEntity
  8
0-0
100
AcDbCircle
  6
BYLAYER
370
50
 10
337.900527062375
 20
366.507660328081
 40
1.3
100
AcDbArc
 50
90
 51
98.2927372852379
  0
ARC
  5
33A
100
AcDbEntity
  8
0-0
100
AcDbCircle
  6
BYLAYER
370
50
 10
337.900527062375
 20
366.507660328081
 40
1.3
100
AcDbArc
 50
81.7072627147621
 51
90
  0
ARC
  5
33B
100
AcDbEntity
  8
0-0
100
AcDbCircle
  6
BYLAYER
370
50
 10
337.900527062375
 20
366.507660328081
 40
1.3
100
AcDbArc
 50
261.707262714762
 51
270
  0
ARC
  5
33C
100
AcDbEntity
  8
0-0
100
AcDbCircle
  6
BYLAYER
370
50
 10
339.186927062375
 20
365.221260328081
 40
1.0989
100
AcDbArc
 50
89.9996192115473
 51
180.000380788451
  0
ARC
  5
33D
100
AcDbEntity
  8
0-0
100
AcDbCircle
  6
BYLAYER
370
50
 10
337.900527062375
 20
366.507660328081
 40
1.3
100
AcDbArc
 50
0
 51
8.29273728524299
  0
ARC
  5
33E
100
AcDbEntity
  8
0-0
100
AcDbCircle
  6
BYLAYER
370
50
 10
337.900527062375
 20
366.507660328081
 40
1.3
100
AcDbArc
 50
351.707262714757
 51
0
  0
ARC
  5
33F
100
AcDbEntity
  8
0-0
100
AcDbCircle
  6
BYLAYER
370
50
 10
337.900527062375
 20
366.507660328081
 40
1.3
100
AcDbArc
 50
270
 51
278.292737285238
  0
ARC
  5
340
100
AcDbEntity
  8
0-0
100
AcDbCircle
  6
BYLAYER
370
50
 10
337.900527062375
 20
366.507660328081
 40
1.3
100
AcDbArc
 50
180
 51
188.292737285243
  0
ARC
  5
341
100
AcDbEntity
  8
0-0
100
AcDbCircle
  6
BYLAYER
370
50
 10
337.900527062375
 20
366.507660328081
 40
1.3
100
AcDbArc
 50
171.707262714757
 51
180
  0
ARC
  5
342
100
AcDbEntity
  8
0-0
100
AcDbCircle
  6
BYLAYER
370
50
 10
336.614127062376
 20
365.221260328081
 40
1.0989
100
AcDbArc
 50
359.999619211549
 51
90.0003807884527
  0
ARC
  5
343
100
AcDbEntity
  8
0-0
100
AcDbCircle
  6
BYLAYER
370
50
 10
336.614127062376
 20
367.794060328081
 40
1.0989
100
AcDbArc
 50
269.999619211547
 51
0.0003807884510366
  0
ARC
  5
344
100
AcDbEntity
  8
0-0
100
AcDbCircle
  6
BYLAYER
370
50
 10
339.186927062375
 20
367.794060328081
 40
1.0989
100
AcDbArc
 50
179.999619211549
 51
270.000380788453
  0
LINE
  5
345
100
AcDbEntity
  8
0-0
100
AcDbLine
  6
CONTINUOUS
370
50
 10
408.837577481533
 20
134.572764480851
 11
328.837577481533
 21
88.3847429456812
  0
LINE
  5
346
100
AcDbEntity
  8
0-0
100
AcDbLine
  6
CONTINUOUS
370
50
 10
328.837577481533
 20
88.3847429456812
 11
328.837577481533
 21
48.5727644808513
  0
LINE
  5
347
100
AcDbEntity
  8
0-0
100
AcDbLine
  6
CONTINUOUS
370
50
 10
359.200527062375
 20
307.057660328081
 11
359.200527062375
 21
322.757660328081
  0
LINE
  5
348
100
AcDbEntity
  8
0-0
100
AcDbLine
  6
CONTINUOUS
370
50
 10
359.200527062375
 20
322.757660328081
 11
346.200527062375
 21
322.757660328081
  0
LINE
  5
349
100
AcDbEntity
  8
0-0
100
AcDbLine
  6
CONTINUOUS
370
50
 10
346.200527062375
 20
322.757660328081
 11
346.200527062375
 21
307.057660328081
  0
LINE
  5
34A
100
AcDbEntity
  8
0-0
100
AcDbLine
  6
CONTINUOUS
370
50
 10
346.200527062375
 20
307.057660328081
 11
359.200527062375
 21
307.057660328081
  0
LINE
  5
34B
100
AcDbEntity
  8
0-0
100
AcDbLine
  6
CONTINUOUS
370
50
 10
346.200527062375
 20
307.057660328081
 11
359.200527062375
 21
307.057660328081
  0
LINE
  5
34C
100
AcDbEntity
  8
0-0
100
AcDbLine
  6
CONTINUOUS
370
50
 10
346.200527062375
 20
322.757660328081
 11
359.200527062375
 21
322.757660328081
  0
LINE
  5
34D
100
AcDbEntity
  8
0-0
100
AcDbLine
  6
CONTINUOUS
370
50
 10
359.200527062375
 20
307.057660328081
 11
359.200527062375
 21
322.757660328081
  0
LINE
  5
34E
100
AcDbEntity
  8
0-0
100
AcDbLine
  6
CONTINUOUS
370
50
 10
346.200527062375
 20
307.057660328081
 11
346.200527062375
 21
322.757660328081
  0
LINE
  5
34F
100
AcDbEntity
  8
0-0
100
AcDbLine
  6
BYLAYER
370
50
 10
346.200527062375
 20
307.057660328081
 11
359.200527062375
 21
307.057660328081
  0
LINE
  5
350
100
AcDbEntity
  8
0-0
100
AcDbLine
  6
BYLAYER
370
50
 10
346.200527062375
 20
322.757660328081
 11
359.200527062375
 21
322.757660328081
  0
LINE
  5
351
100
AcDbEntity
  8
0-0
100
AcDbLine
  6
BYLAYER
370
50
 10
359.200527062375
 20
307.057660328081
 11
359.200527062375
 21
322.757660328081
  0
LINE
  5
352
100
AcDbEntity
  8
0-0
100
AcDbLine
  6
BYLAYER
370
50
 10
346.200527062375
 20
307.057660328081
 11
346.200527062375
 21
322.757660328081
  0
CIRCLE
  5
353
100
AcDbEntity
  8
0-0
100
AcDbCircle
  6
BYLAYER
370
50
 10
352.700527062375
 20
312.757660328081
 40
1.05000000000001
  0
CIRCLE
  5
354
100
AcDbEntity
  8
0-0
100
AcDbCircle
  6
BYLAYER
370
50
 10
352.700527062375
 20
312.757660328081
 40
3.30000000000001
  0
MTEXT
  5
355
100
AcDbEntity
  8
0-0
100
AcDbMText
 10
345.542440418545
 20
327.644254781554
 40
3.5
 41
  0.0
  1
{\fMS Gothic|b1;DC24V IN}
  7
Font_0
  0
LINE
  5
356
100
AcDbEntity
  8
0-0
100
AcDbLine
  6
CONTINUOUS
370
50
 10
405.99740187141
 20
323.135406685263
 11
406.999472086065
 21
323.047736901423
  0
LINE
  5
357
100
AcDbEntity
  8
0-0
100
AcDbLine
  6
CONTINUOUS
370
50
 10
399.300527062376
 20
331.05198350438
 11
399.300527062376
 21
332.068992108996
  0
LINE
  5
358
100
AcDbEntity
  8
0-0
100
AcDbLine
  6
CONTINUOUS
370
50
 10
396.100527062375
 20
331.05198350438
 11
396.100527062375
 21
332.068992108996
  0
ARC
  5
359
100
AcDbEntity
  8
0-0
100
AcDbCircle
  6
CONTINUOUS
370
50
 10
397.700527062375
 20
322.907660328081
 40
9.29999999999999
100
AcDbArc
 50
80.0933760556743
 51
99.9066270147962
  0
ARC
  5
35A
100
AcDbEntity
  8
0-0
100
AcDbCircle
  6
CONTINUOUS
370
50
 10
386.200527062375
 20
334.407660328081
 40
3
100
AcDbArc
 50
90.0000015352351
 51
180.000003070469
  0
LINE
  5
35B
100
AcDbEntity
  8
0-0
100
AcDbLine
  6
CONTINUOUS
370
50
 10
409.200527062375
 20
337.407660328081
 11
386.200527062375
 21
337.407660328081
  0
ARC
  5
35C
100
AcDbEntity
  8
0-0
100
AcDbCircle
  6
CONTINUOUS
370
50
 10
409.200527062375
 20
334.407660328081
 40
3
100
AcDbArc
 50
0
 51
90.0000015352351
  0
LINE
  5
35D
100
AcDbEntity
  8
0-0
100
AcDbLine
  6
CONTINUOUS
370
50
 10
405.831805960189
 20
321.242636758888
 11
406.833876174845
 21
321.154966975049
  0
LINE
  5
35E
100
AcDbEntity
  8
0-0
100
AcDbLine
  6
CONTINUOUS
370
50
 10
403.208119220103
 20
316.698278021914
 11
403.78507858738
 21
315.874294651567
  0
LINE
  5
35F
100
AcDbEntity
  8
0-0
100
AcDbLine
  6
CONTINUOUS
370
50
 10
401.651730335954
 20
315.608482792847
 11
402.22868970323
 21
314.7844994225
  0
ARC
  5
360
100
AcDbEntity
  8
0-0
100
AcDbCircle
  6
CONTINUOUS
370
50
 10
397.700527062375
 20
322.907660328081
 40
9.29999999999999
100
AcDbArc
 50
299.136977461515
 51
310.863020662088
  0
LINE
  5
361
100
AcDbEntity
  8
0-0
100
AcDbLine
  6
CONTINUOUS
370
50
 10
393.128194070624
 20
315.980628423106
 11
392.481615325274
 21
315.210065880441
  0
ARC
  5
362
100
AcDbEntity
  8
0-0
100
AcDbCircle
  6
CONTINUOUS
370
50
 10
397.700527062375
 20
322.907660328081
 40
9.29999999999999
100
AcDbArc
 50
189.136975585116
 51
200.863018785691
  0
LINE
  5
363
100
AcDbEntity
  8
0-0
100
AcDbLine
  6
CONTINUOUS
370
50
 10
389.981908870466
 20
319.855950445485
 11
389.010286052212
 21
319.595604895986
  0
LINE
  5
364
100
AcDbEntity
  8
0-0
100
AcDbLine
  6
CONTINUOUS
370
50
 10
389.490152684772
 20
321.691209515434
 11
388.518529866517
 21
321.430863965935
  0
LINE
  5
365
100
AcDbEntity
  8
0-0
100
AcDbLine
  6
CONTINUOUS
370
50
 10
391.672709628698
 20
317.201924881511
 11
391.026130883348
 21
316.431362338845
  0
ARC
  5
366
100
AcDbEntity
  8
0-0
100
AcDbCircle
  6
CONTINUOUS
370
50
 10
397.700527062375
 20
322.907660328081
 40
9.29999999999999
100
AcDbArc
 50
224.136976182151
 51
235.863019382726
  0
ARC
  5
367
100
AcDbEntity
  8
0-0
100
AcDbCircle
  6
CONTINUOUS
370
50
 10
386.200527062375
 20
311.407660328081
 40
3
100
AcDbArc
 50
180.000003070469
 51
269.999998464765
  0
LINE
  5
368
100
AcDbEntity
  8
0-0
100
AcDbLine
  6
CONTINUOUS
370
50
 10
386.200527062375
 20
308.407660328081
 11
409.200527062375
 21
308.407660328081
  0
ARC
  5
369
100
AcDbEntity
  8
0-0
100
AcDbCircle
  6
CONTINUOUS
370
50
 10
409.200527062375
 20
311.407660328081
 40
3
100
AcDbArc
 50
269.999998464765
 51
0
  0
LINE
  5
36A
100
AcDbEntity
  8
0-0
100
AcDbLine
  6
CONTINUOUS
370
50
 10
412.200527062375
 20
311.407660328081
 11
412.200527062375
 21
334.407660328081
  0
LINE
  5
36B
100
AcDbEntity
  8
0-0
100
AcDbLine
  6
CONTINUOUS
370
50
 10
383.200527062375
 20
334.407660328081
 11
383.200527062375
 21
311.407660328081
  0
CIRCLE
  5
36C
100
AcDbEntity
  8
0-0
100
AcDbCircle
  6
CONTINUOUS
370
50
 10
397.700527062375
 20
322.907660328081
 40
10.85
  0
CIRCLE
  5
36D
100
AcDbEntity
  8
0-0
100
AcDbCircle
  6
CONTINUOUS
370
50
 10
397.700527062375
 20
322.907660328081
 40
8.29999999999999
  0
ARC
  5
36E
100
AcDbEntity
  8
0-0
100
AcDbCircle
  6
CONTINUOUS
370
50
 10
397.700527062375
 20
322.907660328081
 40
9.29999999999999
100
AcDbArc
 50
349.136978314422
 51
0.863021514996544
  0
CIRCLE
  5
36F
100
AcDbEntity
  8
0-0
100
AcDbCircle
  6
CONTINUOUS
370
50
 10
397.700527062375
 20
322.907660328081
 40
7.15
  0
ARC
  5
370
100
AcDbEntity
  8
0-0
100
AcDbCircle
  6
CONTINUOUS
370
50
 10
397.700527062375
 20
322.907660328081
 40
10.3076923076923
100
AcDbArc
 50
180
 51
90
  0
CIRCLE
  5
371
100
AcDbEntity
  8
0-0
100
AcDbCircle
  6
CONTINUOUS
370
50
 10
397.700527062375
 20
322.907660328081
 40
10.0499999999999
  0
CIRCLE
  5
372
100
AcDbEntity
  8
0-0
100
AcDbCircle
  6
CONTINUOUS
370
50
 10
397.700527062375
 20
322.907660328081
 40
7.10000000000142
  0
CIRCLE
  5
373
100
AcDbEntity
  8
0-0
100
AcDbCircle
  6
BYLAYER
370
50
 10
386.200527062375
 20
334.407660328081
 40
2.75
  0
ARC
  5
374
100
AcDbEntity
  8
0-0
100
AcDbCircle
  6
BYLAYER
370
50
 10
384.460627062375
 20
336.147560328081
 40
1.5524
100
AcDbArc
 50
269.99902698449
 51
0.0009730155102177
  0
ARC
  5
375
100
AcDbEntity
  8
0-0
100
AcDbCircle
  6
BYLAYER
370
50
 10
384.460627062375
 20
332.667760328081
 40
1.5524
100
AcDbArc
 50
359.99902698449
 51
90.0009730155102
  0
ARC
  5
376
100
AcDbEntity
  8
0-0
100
AcDbCircle
  6
BYLAYER
370
50
 10
386.200527062375
 20
334.407660328081
 40
1.75
100
AcDbArc
 50
263.84936016469
 51
270
  0
ARC
  5
377
100
AcDbEntity
  8
0-0
100
AcDbCircle
  6
BYLAYER
370
50
 10
386.200527062375
 20
334.407660328081
 40
1.75
100
AcDbArc
 50
90
 51
96.1506398353101
  0
ARC
  5
378
100
AcDbEntity
  8
0-0
100
AcDbCircle
  6
BYLAYER
370
50
 10
387.940427062375
 20
336.147560328081
 40
1.5524
100
AcDbArc
 50
179.99902698449
 51
270.00097301551
  0
ARC
  5
379
100
AcDbEntity
  8
0-0
100
AcDbCircle
  6
BYLAYER
370
50
 10
387.940427062375
 20
332.667760328081
 40
1.5524
100
AcDbArc
 50
89.9990269844898
 51
180.00097301551
  0
ARC
  5
37A
100
AcDbEntity
  8
0-0
100
AcDbCircle
  6
BYLAYER
370
50
 10
386.200527062375
 20
334.407660328081
 40
1.75
100
AcDbArc
 50
180
 51
186.150639835312
  0
ARC
  5
37B
100
AcDbEntity
  8
0-0
100
AcDbCircle
  6
BYLAYER
370
50
 10
386.200527062375
 20
334.407660328081
 40
1.75
100
AcDbArc
 50
173.849360164688
 51
180
  0
ARC
  5
37C
100
AcDbEntity
  8
0-0
100
AcDbCircle
  6
BYLAYER
370
50
 10
386.200527062375
 20
334.407660328081
 40
1.75
100
AcDbArc
 50
353.849360164688
 51
0
  0
ARC
  5
37D
100
AcDbEntity
  8
0-0
100
AcDbCircle
  6
BYLAYER
370
50
 10
386.200527062375
 20
334.407660328081
 40
1.75
100
AcDbArc
 50
0
 51
6.15063983531177
  0
ARC
  5
37E
100
AcDbEntity
  8
0-0
100
AcDbCircle
  6
BYLAYER
370
50
 10
386.200527062375
 20
334.407660328081
 40
1.75
100
AcDbArc
 50
270
 51
276.15063983531
  0
ARC
  5
37F
100
AcDbEntity
  8
0-0
100
AcDbCircle
  6
BYLAYER
370
50
 10
386.200527062375
 20
334.407660328081
 40
1.75
100
AcDbArc
 50
83.8493601646898
 51
90
  0
CIRCLE
  5
380
100
AcDbEntity
  8
0-0
100
AcDbCircle
  6
BYLAYER
370
50
 10
409.200527062375
 20
334.407660328081
 40
2.75
  0
ARC
  5
381
100
AcDbEntity
  8
0-0
100
AcDbCircle
  6
BYLAYER
370
50
 10
407.460627062375
 20
336.147560328081
 40
1.5524
100
AcDbArc
 50
269.99902698449
 51
0.0009730155102177
  0
ARC
  5
382
100
AcDbEntity
  8
0-0
100
AcDbCircle
  6
BYLAYER
370
50
 10
407.460627062375
 20
332.667760328081
 40
1.5524
100
AcDbArc
 50
359.99902698449
 51
90.0009730155102
  0
ARC
  5
383
100
AcDbEntity
  8
0-0
100
AcDbCircle
  6
BYLAYER
370
50
 10
409.200527062375
 20
334.407660328081
 40
1.75
100
AcDbArc
 50
263.84936016469
 51
270
  0
ARC
  5
384
100
AcDbEntity
  8
0-0
100
AcDbCircle
  6
BYLAYER
370
50
 10
409.200527062375
 20
334.407660328081
 40
1.75
100
AcDbArc
 50
90
 51
96.1506398353101
  0
ARC
  5
385
100
AcDbEntity
  8
0-0
100
AcDbCircle
  6
BYLAYER
370
50
 10
410.940427062375
 20
336.147560328081
 40
1.5524
100
AcDbArc
 50
179.99902698449
 51
270.00097301551
  0
ARC
  5
386
100
AcDbEntity
  8
0-0
100
AcDbCircle
  6
BYLAYER
370
50
 10
410.940427062375
 20
332.667760328081
 40
1.5524
100
AcDbArc
 50
89.9990269844898
 51
180.00097301551
  0
ARC
  5
387
100
AcDbEntity
  8
0-0
100
AcDbCircle
  6
BYLAYER
370
50
 10
409.200527062375
 20
334.407660328081
 40
1.75
100
AcDbArc
 50
180
 51
186.150639835312
  0
ARC
  5
388
100
AcDbEntity
  8
0-0
100
AcDbCircle
  6
BYLAYER
370
50
 10
409.200527062375
 20
334.407660328081
 40
1.75
100
AcDbArc
 50
173.849360164688
 51
180
  0
ARC
  5
389
100
AcDbEntity
  8
0-0
100
AcDbCircle
  6
BYLAYER
370
50
 10
409.200527062375
 20
334.407660328081
 40
1.75
100
AcDbArc
 50
353.849360164688
 51
0
  0
ARC
  5
38A
100
AcDbEntity
  8
0-0
100
AcDbCircle
  6
BYLAYER
370
50
 10
409.200527062375
 20
334.407660328081
 40
1.75
100
AcDbArc
 50
0
 51
6.15063983531177
  0
ARC
  5
38B
100
AcDbEntity
  8
0-0
100
AcDbCircle
  6
BYLAYER
370
50
 10
409.200527062375
 20
334.407660328081
 40
1.75
100
AcDbArc
 50
270
 51
276.15063983531
  0
ARC
  5
38C
100
AcDbEntity
  8
0-0
100
AcDbCircle
  6
BYLAYER
370
50
 10
409.200527062375
 20
334.407660328081
 40
1.75
100
AcDbArc
 50
83.8493601646898
 51
90
  0
CIRCLE
  5
38D
100
AcDbEntity
  8
0-0
100
AcDbCircle
  6
BYLAYER
370
50
 10
409.200527062375
 20
311.407660328081
 40
2.75
  0
ARC
  5
38E
100
AcDbEntity
  8
0-0
100
AcDbCircle
  6
BYLAYER
370
50
 10
407.460627062375
 20
313.147560328081
 40
1.5524
100
AcDbArc
 50
269.99902698449
 51
0.0009730155102177
  0
ARC
  5
38F
100
AcDbEntity
  8
0-0
100
AcDbCircle
  6
BYLAYER
370
50
 10
407.460627062375
 20
309.667760328081
 40
1.5524
100
AcDbArc
 50
359.99902698449
 51
90.0009730155102
  0
ARC
  5
390
100
AcDbEntity
  8
0-0
100
AcDbCircle
  6
BYLAYER
370
50
 10
409.200527062375
 20
311.407660328081
 40
1.75
100
AcDbArc
 50
263.84936016469
 51
270
  0
ARC
  5
391
100
AcDbEntity
  8
0-0
100
AcDbCircle
  6
BYLAYER
370
50
 10
409.200527062375
 20
311.407660328081
 40
1.75
100
AcDbArc
 50
90
 51
96.1506398353101
  0
ARC
  5
392
100
AcDbEntity
  8
0-0
100
AcDbCircle
  6
BYLAYER
370
50
 10
410.940427062375
 20
313.147560328081
 40
1.5524
100
AcDbArc
 50
179.99902698449
 51
270.00097301551
  0
ARC
  5
393
100
AcDbEntity
  8
0-0
100
AcDbCircle
  6
BYLAYER
370
50
 10
410.940427062375
 20
309.667760328081
 40
1.5524
100
AcDbArc
 50
89.9990269844898
 51
180.00097301551
  0
ARC
  5
394
100
AcDbEntity
  8
0-0
100
AcDbCircle
  6
BYLAYER
370
50
 10
409.200527062375
 20
311.407660328081
 40
1.75
100
AcDbArc
 50
180
 51
186.150639835312
  0
ARC
  5
395
100
AcDbEntity
  8
0-0
100
AcDbCircle
  6
BYLAYER
370
50
 10
409.200527062375
 20
311.407660328081
 40
1.75
100
AcDbArc
 50
173.849360164688
 51
180
  0
ARC
  5
396
100
AcDbEntity
  8
0-0
100
AcDbCircle
  6
BYLAYER
370
50
 10
409.200527062375
 20
311.407660328081
 40
1.75
100
AcDbArc
 50
353.849360164688
 51
0
  0
ARC
  5
397
100
AcDbEntity
  8
0-0
100
AcDbCircle
  6
BYLAYER
370
50
 10
409.200527062375
 20
311.407660328081
 40
1.75
100
AcDbArc
 50
0
 51
6.15063983531177
  0
ARC
  5
398
100
AcDbEntity
  8
0-0
100
AcDbCircle
  6
BYLAYER
370
50
 10
409.200527062375
 20
311.407660328081
 40
1.75
100
AcDbArc
 50
270
 51
276.15063983531
  0
ARC
  5
399
100
AcDbEntity
  8
0-0
100
AcDbCircle
  6
BYLAYER
370
50
 10
409.200527062375
 20
311.407660328081
 40
1.75
100
AcDbArc
 50
83.8493601646898
 51
90
  0
CIRCLE
  5
39A
100
AcDbEntity
  8
0-0
100
AcDbCircle
  6
BYLAYER
370
50
 10
386.200527062375
 20
311.407660328081
 40
2.75
  0
ARC
  5
39B
100
AcDbEntity
  8
0-0
100
AcDbCircle
  6
BYLAYER
370
50
 10
384.460627062375
 20
313.147560328081
 40
1.5524
100
AcDbArc
 50
269.99902698449
 51
0.0009730155102177
  0
ARC
  5
39C
100
AcDbEntity
  8
0-0
100
AcDbCircle
  6
BYLAYER
370
50
 10
384.460627062375
 20
309.667760328081
 40
1.5524
100
AcDbArc
 50
359.99902698449
 51
90.0009730155102
  0
ARC
  5
39D
100
AcDbEntity
  8
0-0
100
AcDbCircle
  6
BYLAYER
370
50
 10
386.200527062375
 20
311.407660328081
 40
1.75
100
AcDbArc
 50
263.84936016469
 51
270
  0
ARC
  5
39E
100
AcDbEntity
  8
0-0
100
AcDbCircle
  6
BYLAYER
370
50
 10
386.200527062375
 20
311.407660328081
 40
1.75
100
AcDbArc
 50
90
 51
96.1506398353101
  0
ARC
  5
39F
100
AcDbEntity
  8
0-0
100
AcDbCircle
  6
BYLAYER
370
50
 10
387.940427062375
 20
313.147560328081
 40
1.5524
100
AcDbArc
 50
179.99902698449
 51
270.00097301551
  0
ARC
  5
3A0
100
AcDbEntity
  8
0-0
100
AcDbCircle
  6
BYLAYER
370
50
 10
387.940427062375
 20
309.667760328081
 40
1.5524
100
AcDbArc
 50
89.9990269844898
 51
180.00097301551
  0
ARC
  5
3A1
100
AcDbEntity
  8
0-0
100
AcDbCircle
  6
BYLAYER
370
50
 10
386.200527062375
 20
311.407660328081
 40
1.75
100
AcDbArc
 50
180
 51
186.150639835312
  0
ARC
  5
3A2
100
AcDbEntity
  8
0-0
100
AcDbCircle
  6
BYLAYER
370
50
 10
386.200527062375
 20
311.407660328081
 40
1.75
100
AcDbArc
 50
173.849360164688
 51
180
  0
ARC
  5
3A3
100
AcDbEntity
  8
0-0
100
AcDbCircle
  6
BYLAYER
370
50
 10
386.200527062375
 20
311.407660328081
 40
1.75
100
AcDbArc
 50
353.849360164688
 51
0
  0
ARC
  5
3A4
100
AcDbEntity
  8
0-0
100
AcDbCircle
  6
BYLAYER
370
50
 10
386.200527062375
 20
311.407660328081
 40
1.75
100
AcDbArc
 50
0
 51
6.15063983531177
  0
ARC
  5
3A5
100
AcDbEntity
  8
0-0
100
AcDbCircle
  6
BYLAYER
370
50
 10
386.200527062375
 20
311.407660328081
 40
1.75
100
AcDbArc
 50
270
 51
276.15063983531
  0
ARC
  5
3A6
100
AcDbEntity
  8
0-0
100
AcDbCircle
  6
BYLAYER
370
50
 10
386.200527062375
 20
311.407660328081
 40
1.75
100
AcDbArc
 50
83.8493601646898
 51
90
  0
CIRCLE
  5
3A7
100
AcDbEntity
  8
0-0
100
AcDbCircle
  6
CONTINUOUS
370
50
 10
397.700527062375
 20
362.907660328081
 40
19
  0
CIRCLE
  5
3A8
100
AcDbEntity
  8
0-0
100
AcDbCircle
  6
BYLAYER
370
50
 10
413.700527062375
 20
378.907660328081
 40
2.75
  0
ARC
  5
3A9
100
AcDbEntity
  8
0-0
100
AcDbCircle
  6
BYLAYER
370
50
 10
415.440427062375
 20
377.167760328081
 40
1.5524
100
AcDbArc
 50
89.999026984493
 51
180.00097301551
  0
ARC
  5
3AA
100
AcDbEntity
  8
0-0
100
AcDbCircle
  6
BYLAYER
370
50
 10
415.440427062375
 20
380.647560328081
 40
1.5524
100
AcDbArc
 50
179.99902698449
 51
270.000973015507
  0
ARC
  5
3AB
100
AcDbEntity
  8
0-0
100
AcDbCircle
  6
BYLAYER
370
50
 10
413.700527062375
 20
378.907660328081
 40
1.75
100
AcDbArc
 50
90
 51
96.1506398353134
  0
ARC
  5
3AC
100
AcDbEntity
  8
0-0
100
AcDbCircle
  6
BYLAYER
370
50
 10
413.700527062375
 20
378.907660328081
 40
1.75
100
AcDbArc
 50
173.849360164688
 51
180
  0
ARC
  5
3AD
100
AcDbEntity
  8
0-0
100
AcDbCircle
  6
BYLAYER
370
50
 10
413.700527062375
 20
378.907660328081
 40
1.75
100
AcDbArc
 50
83.8493601646866
 51
90
  0
ARC
  5
3AE
100
AcDbEntity
  8
0-0
100
AcDbCircle
  6
BYLAYER
370
50
 10
413.700527062375
 20
378.907660328081
 40
1.75
100
AcDbArc
 50
263.849360164687
 51
270
  0
ARC
  5
3AF
100
AcDbEntity
  8
0-0
100
AcDbCircle
  6
BYLAYER
370
50
 10
413.700527062375
 20
378.907660328081
 40
1.75
100
AcDbArc
 50
270
 51
276.150639835313
  0
ARC
  5
3B0
100
AcDbEntity
  8
0-0
100
AcDbCircle
  6
BYLAYER
370
50
 10
411.960627062375
 20
377.167760328081
 40
1.5524
100
AcDbArc
 50
359.99902698449
 51
90.0009730155069
  0
ARC
  5
3B1
100
AcDbEntity
  8
0-0
100
AcDbCircle
  6
BYLAYER
370
50
 10
413.700527062375
 20
378.907660328081
 40
1.75
100
AcDbArc
 50
180
 51
186.150639835312
  0
ARC
  5
3B2
100
AcDbEntity
  8
0-0
100
AcDbCircle
  6
BYLAYER
370
50
 10
411.960627062375
 20
380.647560328081
 40
1.5524
100
AcDbArc
 50
269.999026984486
 51
0.0009730155102176
  0
ARC
  5
3B3
100
AcDbEntity
  8
0-0
100
AcDbCircle
  6
BYLAYER
370
50
 10
413.700527062375
 20
378.907660328081
 40
1.75
100
AcDbArc
 50
0
 51
6.15063983531177
  0
ARC
  5
3B4
100
AcDbEntity
  8
0-0
100
AcDbCircle
  6
BYLAYER
370
50
 10
413.700527062375
 20
378.907660328081
 40
1.75
100
AcDbArc
 50
353.849360164688
 51
0
  0
CIRCLE
  5
3B5
100
AcDbEntity
  8
0-0
100
AcDbCircle
  6
BYLAYER
370
50
 10
413.700527062375
 20
346.907660328081
 40
2.75
  0
ARC
  5
3B6
100
AcDbEntity
  8
0-0
100
AcDbCircle
  6
BYLAYER
370
50
 10
415.440427062375
 20
345.167760328081
 40
1.5524
100
AcDbArc
 50
89.999026984493
 51
180.00097301551
  0
ARC
  5
3B7
100
AcDbEntity
  8
0-0
100
AcDbCircle
  6
BYLAYER
370
50
 10
415.440427062375
 20
348.647560328081
 40
1.5524
100
AcDbArc
 50
179.99902698449
 51
270.000973015507
  0
ARC
  5
3B8
100
AcDbEntity
  8
0-0
100
AcDbCircle
  6
BYLAYER
370
50
 10
413.700527062375
 20
346.907660328081
 40
1.75
100
AcDbArc
 50
90
 51
96.1506398353134
  0
ARC
  5
3B9
100
AcDbEntity
  8
0-0
100
AcDbCircle
  6
BYLAYER
370
50
 10
413.700527062375
 20
346.907660328081
 40
1.75
100
AcDbArc
 50
173.849360164688
 51
180
  0
ARC
  5
3BA
100
AcDbEntity
  8
0-0
100
AcDbCircle
  6
BYLAYER
370
50
 10
413.700527062375
 20
346.907660328081
 40
1.75
100
AcDbArc
 50
83.8493601646866
 51
90
  0
ARC
  5
3BB
100
AcDbEntity
  8
0-0
100
AcDbCircle
  6
BYLAYER
370
50
 10
413.700527062375
 20
346.907660328081
 40
1.75
100
AcDbArc
 50
263.849360164687
 51
270
  0
ARC
  5
3BC
100
AcDbEntity
  8
0-0
100
AcDbCircle
  6
BYLAYER
370
50
 10
413.700527062375
 20
346.907660328081
 40
1.75
100
AcDbArc
 50
270
 51
276.150639835313
  0
ARC
  5
3BD
100
AcDbEntity
  8
0-0
100
AcDbCircle
  6
BYLAYER
370
50
 10
411.960627062375
 20
345.167760328081
 40
1.5524
100
AcDbArc
 50
359.99902698449
 51
90.0009730155069
  0
ARC
  5
3BE
100
AcDbEntity
  8
0-0
100
AcDbCircle
  6
BYLAYER
370
50
 10
413.700527062375
 20
346.907660328081
 40
1.75
100
AcDbArc
 50
180
 51
186.150639835312
  0
ARC
  5
3BF
100
AcDbEntity
  8
0-0
100
AcDbCircle
  6
BYLAYER
370
50
 10
411.960627062375
 20
348.647560328081
 40
1.5524
100
AcDbArc
 50
269.999026984486
 51
0.0009730155102176
  0
ARC
  5
3C0
100
AcDbEntity
  8
0-0
100
AcDbCircle
  6
BYLAYER
370
50
 10
413.700527062375
 20
346.907660328081
 40
1.75
100
AcDbArc
 50
0
 51
6.15063983531177
  0
ARC
  5
3C1
100
AcDbEntity
  8
0-0
100
AcDbCircle
  6
BYLAYER
370
50
 10
413.700527062375
 20
346.907660328081
 40
1.75
100
AcDbArc
 50
353.849360164688
 51
0
  0
CIRCLE
  5
3C2
100
AcDbEntity
  8
0-0
100
AcDbCircle
  6
BYLAYER
370
50
 10
381.700527062375
 20
346.907660328081
 40
2.75
  0
ARC
  5
3C3
100
AcDbEntity
  8
0-0
100
AcDbCircle
  6
BYLAYER
370
50
 10
383.440427062375
 20
345.167760328081
 40
1.5524
100
AcDbArc
 50
89.999026984493
 51
180.00097301551
  0
ARC
  5
3C4
100
AcDbEntity
  8
0-0
100
AcDbCircle
  6
BYLAYER
370
50
 10
383.440427062375
 20
348.647560328081
 40
1.5524
100
AcDbArc
 50
179.99902698449
 51
270.000973015507
  0
ARC
  5
3C5
100
AcDbEntity
  8
0-0
100
AcDbCircle
  6
BYLAYER
370
50
 10
381.700527062375
 20
346.907660328081
 40
1.75
100
AcDbArc
 50
90
 51
96.1506398353134
  0
ARC
  5
3C6
100
AcDbEntity
  8
0-0
100
AcDbCircle
  6
BYLAYER
370
50
 10
381.700527062375
 20
346.907660328081
 40
1.75
100
AcDbArc
 50
173.849360164688
 51
180
  0
ARC
  5
3C7
100
AcDbEntity
  8
0-0
100
AcDbCircle
  6
BYLAYER
370
50
 10
381.700527062375
 20
346.907660328081
 40
1.75
100
AcDbArc
 50
83.8493601646866
 51
90
  0
ARC
  5
3C8
100
AcDbEntity
  8
0-0
100
AcDbCircle
  6
BYLAYER
370
50
 10
381.700527062375
 20
346.907660328081
 40
1.75
100
AcDbArc
 50
263.849360164687
 51
270
  0
ARC
  5
3C9
100
AcDbEntity
  8
0-0
100
AcDbCircle
  6
BYLAYER
370
50
 10
381.700527062375
 20
346.907660328081
 40
1.75
100
AcDbArc
 50
270
 51
276.150639835313
  0
ARC
  5
3CA
100
AcDbEntity
  8
0-0
100
AcDbCircle
  6
BYLAYER
370
50
 10
379.960627062375
 20
345.167760328081
 40
1.5524
100
AcDbArc
 50
359.99902698449
 51
90.0009730155069
  0
ARC
  5
3CB
100
AcDbEntity
  8
0-0
100
AcDbCircle
  6
BYLAYER
370
50
 10
381.700527062375
 20
346.907660328081
 40
1.75
100
AcDbArc
 50
180
 51
186.150639835312
  0
ARC
  5
3CC
100
AcDbEntity
  8
0-0
100
AcDbCircle
  6
BYLAYER
370
50
 10
379.960627062375
 20
348.647560328081
 40
1.5524
100
AcDbArc
 50
269.999026984486
 51
0.0009730155102176
  0
ARC
  5
3CD
100
AcDbEntity
  8
0-0
100
AcDbCircle
  6
BYLAYER
370
50
 10
381.700527062375
 20
346.907660328081
 40
1.75
100
AcDbArc
 50
0
 51
6.15063983531177
  0
ARC
  5
3CE
100
AcDbEntity
  8
0-0
100
AcDbCircle
  6
BYLAYER
370
50
 10
381.700527062375
 20
346.907660328081
 40
1.75
100
AcDbArc
 50
353.849360164688
 51
0
  0
CIRCLE
  5
3CF
100
AcDbEntity
  8
0-0
100
AcDbCircle
  6
BYLAYER
370
50
 10
381.700527062375
 20
378.907660328081
 40
2.75
  0
ARC
  5
3D0
100
AcDbEntity
  8
0-0
100
AcDbCircle
  6
BYLAYER
370
50
 10
383.440427062375
 20
377.167760328081
 40
1.5524
100
AcDbArc
 50
89.999026984493
 51
180.00097301551
  0
ARC
  5
3D1
100
AcDbEntity
  8
0-0
100
AcDbCircle
  6
BYLAYER
370
50
 10
383.440427062375
 20
380.647560328081
 40
1.5524
100
AcDbArc
 50
179.99902698449
 51
270.000973015507
  0
ARC
  5
3D2
100
AcDbEntity
  8
0-0
100
AcDbCircle
  6
BYLAYER
370
50
 10
381.700527062375
 20
378.907660328081
 40
1.75
100
AcDbArc
 50
90
 51
96.1506398353134
  0
ARC
  5
3D3
100
AcDbEntity
  8
0-0
100
AcDbCircle
  6
BYLAYER
370
50
 10
381.700527062375
 20
378.907660328081
 40
1.75
100
AcDbArc
 50
173.849360164688
 51
180
  0
ARC
  5
3D4
100
AcDbEntity
  8
0-0
100
AcDbCircle
  6
BYLAYER
370
50
 10
381.700527062375
 20
378.907660328081
 40
1.75
100
AcDbArc
 50
83.8493601646866
 51
90
  0
ARC
  5
3D5
100
AcDbEntity
  8
0-0
100
AcDbCircle
  6
BYLAYER
370
50
 10
381.700527062375
 20
378.907660328081
 40
1.75
100
AcDbArc
 50
263.849360164687
 51
270
  0
ARC
  5
3D6
100
AcDbEntity
  8
0-0
100
AcDbCircle
  6
BYLAYER
370
50
 10
381.700527062375
 20
378.907660328081
 40
1.75
100
AcDbArc
 50
270
 51
276.150639835313
  0
ARC
  5
3D7
100
AcDbEntity
  8
0-0
100
AcDbCircle
  6
BYLAYER
370
50
 10
379.960627062375
 20
377.167760328081
 40
1.5524
100
AcDbArc
 50
359.99902698449
 51
90.0009730155069
  0
ARC
  5
3D8
100
AcDbEntity
  8
0-0
100
AcDbCircle
  6
BYLAYER
370
50
 10
381.700527062375
 20
378.907660328081
 40
1.75
100
AcDbArc
 50
180
 51
186.150639835312
  0
ARC
  5
3D9
100
AcDbEntity
  8
0-0
100
AcDbCircle
  6
BYLAYER
370
50
 10
379.960627062375
 20
380.647560328081
 40
1.5524
100
AcDbArc
 50
269.999026984486
 51
0.0009730155102176
  0
ARC
  5
3DA
100
AcDbEntity
  8
0-0
100
AcDbCircle
  6
BYLAYER
370
50
 10
381.700527062375
 20
378.907660328081
 40
1.75
100
AcDbArc
 50
0
 51
6.15063983531177
  0
ARC
  5
3DB
100
AcDbEntity
  8
0-0
100
AcDbCircle
  6
BYLAYER
370
50
 10
381.700527062375
 20
378.907660328081
 40
1.75
100
AcDbArc
 50
353.849360164688
 51
0
  0
ARC
  5
3DC
100
AcDbEntity
  8
0-0
100
AcDbCircle
  6
BYLAYER
370
50
 10
397.700527062375
 20
362.907660328081
 40
15.75
100
AcDbArc
 50
45.3828371464543
 51
134.629292042574
  0
ARC
  5
3DD
100
AcDbEntity
  8
0-0
100
AcDbCircle
  6
BYLAYER
370
50
 10
397.700527062375
 20
362.907660328081
 40
14.35
100
AcDbArc
 50
45.4068751683542
 51
134.593124831646
  0
ARC
  5
3DE
100
AcDbEntity
  8
0-0
100
AcDbCircle
  6
BYLAYER
370
50
 10
397.700527062375
 20
362.907660328081
 40
8.65
100
AcDbArc
 50
45.6749993818969
 51
134.325000618103
  0
ARC
  5
3DF
100
AcDbEntity
  8
0-0
100
AcDbCircle
  6
BYLAYER
370
50
 10
397.700527062375
 20
362.907660328081
 40
7.25
100
AcDbArc
 50
45.8053519801154
 51
134.194648019885
  0
ARC
  5
3E0
100
AcDbEntity
  8
0-0
100
AcDbCircle
  6
BYLAYER
370
50
 10
413.700527062375
 20
378.907660328081
 40
3.6
100
AcDbArc
 50
270
 51
180
  0
LINE
  5
3E1
100
AcDbEntity
  8
0-0
100
AcDbLine
  6
BYLAYER
370
50
 10
408.636060968308
 20
373.987306783709
 11
399.253470787527
 21
364.604716602929
  0
LINE
  5
3E2
100
AcDbEntity
  8
0-0
100
AcDbLine
  6
BYLAYER
370
50
 10
399.253470787527
 20
361.210604053233
 11
409.774791131087
 21
350.689283709674
  0
ARC
  5
3E3
100
AcDbEntity
  8
0-0
100
AcDbCircle
  6
BYLAYER
370
50
 10
400.950527062375
 20
362.907660328081
 40
2.4
100
AcDbArc
 50
135
 51
225
  0
LINE
  5
3E4
100
AcDbEntity
  8
0-0
100
AcDbLine
  6
BYLAYER
370
50
 10
409.626010461969
 20
372.997357290048
 11
400.243420281189
 21
363.614767109267
  0
ARC
  5
3E5
100
AcDbEntity
  8
0-0
100
AcDbCircle
  6
BYLAYER
370
50
 10
400.950527062375
 20
362.907660328081
 40
1
100
AcDbArc
 50
135
 51
225
  0
LINE
  5
3E6
100
AcDbEntity
  8
0-0
100
AcDbLine
  6
BYLAYER
370
50
 10
400.243420281189
 20
362.200553546894
 11
410.764740624748
 21
351.679233203335
  0
LINE
  5
3E7
100
AcDbEntity
  8
0-0
100
AcDbLine
  6
BYLAYER
370
50
 10
410.100527062375
 20
378.907660328081
 11
410.100527062375
 21
377.522840689642
  0
ARC
  5
3E8
100
AcDbEntity
  8
0-0
100
AcDbCircle
  6
BYLAYER
370
50
 10
405.100527062375
 20
377.522840689642
 40
5
100
AcDbArc
 50
315
 51
0
  0
ARC
  5
3E9
100
AcDbEntity
  8
0-0
100
AcDbCircle
  6
BYLAYER
370
50
 10
405.100527062375
 20
377.522840689642
 40
6.4
100
AcDbArc
 50
-45.0000000000001
 51
-2.31223977978892
  0
LINE
  5
3EA
100
AcDbEntity
  8
0-0
100
AcDbLine
  6
BYLAYER
370
50
 10
413.700527062375
 20
375.307660328081
 11
412.000527062375
 21
375.307660328081
  0
LINE
  5
3EB
100
AcDbEntity
  8
0-0
100
AcDbLine
  6
BYLAYER
370
50
 10
412.000527062375
 20
375.307660328081
 11
412.000527062375
 21
376.707660328081
  0
ARC
  5
3EC
100
AcDbEntity
  8
0-0
100
AcDbCircle
  6
BYLAYER
370
50
 10
413.700527062375
 20
346.907660328081
 40
3.6
100
AcDbArc
 50
180
 51
90
  0
LINE
  5
3ED
100
AcDbEntity
  8
0-0
100
AcDbLine
  6
BYLAYER
370
50
 10
413.700527062375
 20
350.507660328081
 11
413.593167749494
 21
350.507660328081
  0
ARC
  5
3EE
100
AcDbEntity
  8
0-0
100
AcDbCircle
  6
BYLAYER
370
50
 10
413.593167749494
 20
354.507660328081
 40
4
100
AcDbArc
 50
225
 51
270
  0
ARC
  5
3EF
100
AcDbEntity
  8
0-0
100
AcDbCircle
  6
BYLAYER
370
50
 10
413.593167749494
 20
354.507660328081
 40
5.4
100
AcDbArc
 50
-135
 51
-103.979077716257
  0
LINE
  5
3F0
100
AcDbEntity
  8
0-0
100
AcDbLine
  6
BYLAYER
370
50
 10
410.100527062375
 20
346.907660328081
 11
410.100527062375
 21
348.607660328081
  0
LINE
  5
3F1
100
AcDbEntity
  8
0-0
100
AcDbLine
  6
BYLAYER
370
50
 10
410.100527062375
 20
348.607660328081
 11
411.500527062375
 21
348.607660328081
  0
ARC
  5
3F2
100
AcDbEntity
  8
0-0
100
AcDbCircle
  6
BYLAYER
370
50
 10
381.700527062375
 20
346.907660328081
 40
3.6
100
AcDbArc
 50
90
 51
0
  0
LINE
  5
3F3
100
AcDbEntity
  8
0-0
100
AcDbLine
  6
BYLAYER
370
50
 10
386.764993156442
 20
351.828013872453
 11
396.147583337223
 21
361.210604053233
  0
LINE
  5
3F4
100
AcDbEntity
  8
0-0
100
AcDbLine
  6
BYLAYER
370
50
 10
385.775043662781
 20
352.817963366114
 11
395.157633843562
 21
362.200553546894
  0
LINE
  5
3F5
100
AcDbEntity
  8
0-0
100
AcDbLine
  6
BYLAYER
370
50
 10
396.147583337223
 20
364.604716602929
 11
385.626262993663
 21
375.126036946488
  0
LINE
  5
3F6
100
AcDbEntity
  8
0-0
100
AcDbLine
  6
BYLAYER
370
50
 10
395.157633843562
 20
363.614767109267
 11
384.636313500002
 21
374.136087452827
  0
ARC
  5
3F7
100
AcDbEntity
  8
0-0
100
AcDbCircle
  6
BYLAYER
370
50
 10
394.450527062375
 20
362.907660328081
 40
2.4
100
AcDbArc
 50
315
 51
44.9999999999998
  0
ARC
  5
3F8
100
AcDbEntity
  8
0-0
100
AcDbCircle
  6
BYLAYER
370
50
 10
394.450527062375
 20
362.907660328081
 40
1
100
AcDbArc
 50
315
 51
44.9999999999998
  0
LINE
  5
3F9
100
AcDbEntity
  8
0-0
100
AcDbLine
  6
BYLAYER
370
50
 10
385.300527062375
 20
346.907660328081
 11
385.300527062375
 21
348.29247996652
  0
ARC
  5
3FA
100
AcDbEntity
  8
0-0
100
AcDbCircle
  6
BYLAYER
370
50
 10
390.300527062375
 20
348.29247996652
 40
5
100
AcDbArc
 50
135
 51
180
  0
ARC
  5
3FB
100
AcDbEntity
  8
0-0
100
AcDbCircle
  6
BYLAYER
370
50
 10
390.300527062375
 20
348.29247996652
 40
6.4
100
AcDbArc
 50
135
 51
177.687760220214
  0
LINE
  5
3FC
100
AcDbEntity
  8
0-0
100
AcDbLine
  6
BYLAYER
370
50
 10
381.700527062375
 20
350.507660328081
 11
383.400527062375
 21
350.507660328081
  0
LINE
  5
3FD
100
AcDbEntity
  8
0-0
100
AcDbLine
  6
BYLAYER
370
50
 10
383.400527062375
 20
350.507660328081
 11
383.400527062375
 21
349.107660328081
  0
ARC
  5
3FE
100
AcDbEntity
  8
0-0
100
AcDbCircle
  6
BYLAYER
370
50
 10
381.700527062375
 20
378.907660328081
 40
3.6
100
AcDbArc
 50
0
 51
270
  0
LINE
  5
3FF
100
AcDbEntity
  8
0-0
100
AcDbLine
  6
BYLAYER
370
50
 10
381.700527062375
 20
375.307660328081
 11
381.807886375256
 21
375.307660328081
  0
ARC
  5
400
100
AcDbEntity
  8
0-0
100
AcDbCircle
  6
BYLAYER
370
50
 10
381.807886375256
 20
371.307660328081
 40
4
100
AcDbArc
 50
44.9999999999998
 51
90
  0
ARC
  5
401
100
AcDbEntity
  8
0-0
100
AcDbCircle
  6
BYLAYER
370
50
 10
381.807886375256
 20
371.307660328081
 40
5.4
100
AcDbArc
 50
44.9999999999998
 51
76.0209222837434
  0
LINE
  5
402
100
AcDbEntity
  8
0-0
100
AcDbLine
  6
BYLAYER
370
50
 10
385.300527062375
 20
378.907660328081
 11
385.300527062375
 21
377.207660328081
  0
LINE
  5
403
100
AcDbEntity
  8
0-0
100
AcDbLine
  6
BYLAYER
370
50
 10
385.300527062375
 20
377.207660328081
 11
383.900527062375
 21
377.207660328081
  0
ARC
  5
404
100
AcDbEntity
  8
0-0
100
AcDbCircle
  6
BYLAYER
370
50
 10
397.700527062375
 20
362.907660328081
 40
7.25
100
AcDbArc
 50
145.314305695934
 51
214.685694304066
  0
ARC
  5
405
100
AcDbEntity
  8
0-0
100
AcDbCircle
  6
BYLAYER
370
50
 10
397.700527062375
 20
362.907660328081
 40
8.65
100
AcDbArc
 50
143.630926494645
 51
216.369073505355
  0
ARC
  5
406
100
AcDbEntity
  8
0-0
100
AcDbCircle
  6
BYLAYER
370
50
 10
397.700527062375
 20
362.907660328081
 40
14.35
100
AcDbArc
 50
140.190055216641
 51
219.809944783359
  0
ARC
  5
407
100
AcDbEntity
  8
0-0
100
AcDbCircle
  6
BYLAYER
370
50
 10
397.700527062375
 20
362.907660328081
 40
15.75
100
AcDbArc
 50
139.727615490417
 51
220.277163007428
  0
ARC
  5
408
100
AcDbEntity
  8
0-0
100
AcDbCircle
  6
BYLAYER
370
50
 10
397.700527062375
 20
362.907660328081
 40
7.25
100
AcDbArc
 50
225.805351980115
 51
314.194648019885
  0
ARC
  5
409
100
AcDbEntity
  8
0-0
100
AcDbCircle
  6
BYLAYER
370
50
 10
397.700527062375
 20
362.907660328081
 40
8.65
100
AcDbArc
 50
225.674999381897
 51
314.325000618103
  0
ARC
  5
40A
100
AcDbEntity
  8
0-0
100
AcDbCircle
  6
BYLAYER
370
50
 10
397.700527062375
 20
362.907660328081
 40
14.35
100
AcDbArc
 50
225.406875168354
 51
314.593124831646
  0
ARC
  5
40B
100
AcDbEntity
  8
0-0
100
AcDbCircle
  6
BYLAYER
370
50
 10
397.700527062375
 20
362.907660328081
 40
15.75
100
AcDbArc
 50
225.382837146454
 51
314.629292042574
  0
ARC
  5
40C
100
AcDbEntity
  8
0-0
100
AcDbCircle
  6
BYLAYER
370
50
 10
397.700527062375
 20
362.907660328081
 40
7.25
100
AcDbArc
 50
325.314305695934
 51
34.6856943040664
  0
ARC
  5
40D
100
AcDbEntity
  8
0-0
100
AcDbCircle
  6
BYLAYER
370
50
 10
397.700527062375
 20
362.907660328081
 40
8.65
100
AcDbArc
 50
323.630926494645
 51
36.3690735053554
  0
ARC
  5
40E
100
AcDbEntity
  8
0-0
100
AcDbCircle
  6
BYLAYER
370
50
 10
397.700527062375
 20
362.907660328081
 40
14.35
100
AcDbArc
 50
320.190055216641
 51
39.8099447833594
  0
ARC
  5
40F
100
AcDbEntity
  8
0-0
100
AcDbCircle
  6
BYLAYER
370
50
 10
397.700527062375
 20
362.907660328081
 40
15.75
100
AcDbArc
 50
319.727615490417
 51
40.2771630074283
  0
LINE
  5
410
100
AcDbEntity
  8
0-0
100
AcDbLine
  6
CONTINUOUS
370
50
 10
150.753532094811
 20
392.757960517488
 11
150.75353209481
 21
397.796422055948
  0
LINE
  5
411
100
AcDbEntity
  8
0-0
100
AcDbLine
  6
CONTINUOUS
370
50
 10
151.015070556349
 20
398.057960517488
 11
150.215070556349
 21
397.257960517488
  0
LINE
  5
412
100
AcDbEntity
  8
0-0
100
AcDbLine
  6
CONTINUOUS
370
50
 10
150.215070556349
 20
392.758335823805
 11
150.215070556349
 21
397.257960517488
  0
LINE
  5
413
100
AcDbEntity
  8
0-0
100
AcDbLine
  6
CONTINUOUS
370
50
 10
171.115070556349
 20
398.057960517488
 11
171.915070556349
 21
397.257960517488
  0
LINE
  5
414
100
AcDbEntity
  8
0-0
100
AcDbLine
  6
CONTINUOUS
370
50
 10
171.376609017888
 20
392.757960517488
 11
171.376609017889
 21
397.796422055948
  0
LINE
  5
415
100
AcDbEntity
  8
0-0
100
AcDbLine
  6
CONTINUOUS
370
50
 10
171.915070556349
 20
397.257960517488
 11
150.215070556349
 21
397.257960517488
  0
LINE
  5
416
100
AcDbEntity
  8
0-0
100
AcDbLine
  6
CONTINUOUS
370
50
 10
171.915070556349
 20
392.755425825507
 11
171.915070556349
 21
397.257960517488
  0
LINE
  5
417
100
AcDbEntity
  8
0-0
100
AcDbLine
  6
CONTINUOUS
370
50
 10
171.115070556349
 20
398.057960517488
 11
151.015070556349
 21
398.057960517488
  0
LINE
  5
418
100
AcDbEntity
  8
0-0
100
AcDbLine
  6
CONTINUOUS
370
50
 10
498.587577481533
 20
44.2727644808514
 11
498.861213845169
 21
48.5727644808513
  0
LINE
  5
419
100
AcDbEntity
  8
0-0
100
AcDbLine
  6
CONTINUOUS
370
50
 10
484.813941117897
 20
48.5727644808513
 11
485.087577481533
 21
44.2727644808514
  0
LINE
  5
41A
100
AcDbEntity
  8
0-0
100
AcDbLine
  6
CONTINUOUS
370
50
 10
485.087577481533
 20
44.2727644808514
 11
498.587577481533
 21
44.2727644808514
  0
LINE
  5
41B
100
AcDbEntity
  8
0-0
100
AcDbLine
  6
CONTINUOUS
370
50
 10
233.528504088273
 20
228.644502855177
 11
327.081182656301
 21
282.657167009839
  0
LINE
  5
41C
100
AcDbEntity
  8
0-0
100
AcDbLine
  6
CONTINUOUS
370
50
 10
319.315421461295
 20
93.4215165527596
 11
408.518622565969
 21
144.923008723119
  0
LINE
  5
41D
100
AcDbEntity
  8
0-0
100
AcDbLine
  6
CONTINUOUS
370
50
 10
464.72956180847
 20
316.257660328081
 11
476.549561808469
 21
316.257660328081
  0
LINE
  5
41E
100
AcDbEntity
  8
0-0
100
AcDbLine
  6
CONTINUOUS
370
50
 10
464.489561808469
 20
316.857660328081
 11
476.789561808469
 21
316.857660328081
  0
LINE
  5
41F
100
AcDbEntity
  8
0-0
100
AcDbLine
  6
CONTINUOUS
370
50
 10
478.519177314493
 20
313.910363972747
 11
478.04309446658
 21
311.210363972747
  0
LINE
  5
420
100
AcDbEntity
  8
0-0
100
AcDbLine
  6
CONTINUOUS
370
50
 10
478.759177314494
 20
314.510363972747
 11
478.071502089731
 21
310.610363972747
  0
CIRCLE
  5
421
100
AcDbEntity
  8
0-0
100
AcDbCircle
  6
CONTINUOUS
370
50
 10
483.139561808469
 20
312.907660328081
 40
1.55
  0
CIRCLE
  5
422
100
AcDbEntity
  8
0-0
100
AcDbCircle
  6
CONTINUOUS
370
50
 10
476.179561808469
 20
312.712201381005
 40
0.5
  0
ARC
  5
423
100
AcDbEntity
  8
0-0
100
AcDbCircle
  6
CONTINUOUS
370
50
 10
476.101886583706
 20
310.957660328081
 40
2
100
AcDbArc
 50
270
 51
350.000000000001
  0
ARC
  5
424
100
AcDbEntity
  8
0-0
100
AcDbCircle
  6
CONTINUOUS
370
50
 10
476.073478960556
 20
311.557660328081
 40
2
100
AcDbArc
 50
270
 51
350.000000000001
  0
LINE
  5
425
100
AcDbEntity
  8
0-0
100
AcDbLine
  6
CONTINUOUS
370
50
 10
462.519946302445
 20
314.510363972747
 11
463.207621527208
 21
310.610363972747
  0
LINE
  5
426
100
AcDbEntity
  8
0-0
100
AcDbLine
  6
CONTINUOUS
370
50
 10
462.759946302445
 20
313.910363972747
 11
463.236029150358
 21
311.210363972747
  0
CIRCLE
  5
427
100
AcDbEntity
  8
0-0
100
AcDbCircle
  6
CONTINUOUS
370
50
 10
472.024561808469
 20
310.909632734006
 40
0.5
  0
CIRCLE
  5
428
100
AcDbEntity
  8
0-0
100
AcDbCircle
  6
CONTINUOUS
370
50
 10
466.484561808469
 20
310.909632734006
 40
0.5
  0
CIRCLE
  5
429
100
AcDbEntity
  8
0-0
100
AcDbCircle
  6
CONTINUOUS
370
50
 10
469.254561808469
 20
310.909632734006
 40
0.5
  0
CIRCLE
  5
42A
100
AcDbEntity
  8
0-0
100
AcDbCircle
  6
CONTINUOUS
370
50
 10
473.409561808469
 20
312.712201381005
 40
0.5
  0
CIRCLE
  5
42B
100
AcDbEntity
  8
0-0
100
AcDbCircle
  6
CONTINUOUS
370
50
 10
470.639561808469
 20
312.712201381005
 40
0.5
  0
CIRCLE
  5
42C
100
AcDbEntity
  8
0-0
100
AcDbCircle
  6
CONTINUOUS
370
50
 10
467.869561808469
 20
312.712201381005
 40
0.5
  0
CIRCLE
  5
42D
100
AcDbEntity
  8
0-0
100
AcDbCircle
  6
CONTINUOUS
370
50
 10
465.099561808469
 20
312.712201381005
 40
0.5
  0
ARC
  5
42E
100
AcDbEntity
  8
0-0
100
AcDbCircle
  6
CONTINUOUS
370
50
 10
465.205644656382
 20
311.557660328081
 40
2
100
AcDbArc
 50
189.999999999999
 51
270
  0
ARC
  5
42F
100
AcDbEntity
  8
0-0
100
AcDbCircle
  6
CONTINUOUS
370
50
 10
465.177237033232
 20
310.957660328081
 40
2
100
AcDbArc
 50
189.999999999999
 51
270
  0
CIRCLE
  5
430
100
AcDbEntity
  8
0-0
100
AcDbCircle
  6
CONTINUOUS
370
50
 10
472.024561808469
 20
310.909632734006
 40
0.740688034259961
  0
CIRCLE
  5
431
100
AcDbEntity
  8
0-0
100
AcDbCircle
  6
CONTINUOUS
370
50
 10
469.254561808469
 20
310.909632734006
 40
0.740688034259961
  0
CIRCLE
  5
432
100
AcDbEntity
  8
0-0
100
AcDbCircle
  6
CONTINUOUS
370
50
 10
466.484561808469
 20
310.909632734006
 40
0.740688034259961
  0
LINE
  5
433
100
AcDbEntity
  8
0-0
100
AcDbLine
  6
CONTINUOUS
370
50
 10
465.177237033232
 20
308.957660328081
 11
476.101886583706
 21
308.957660328081
  0
LINE
  5
434
100
AcDbEntity
  8
0-0
100
AcDbLine
  6
CONTINUOUS
370
50
 10
465.205644656382
 20
309.557660328081
 11
476.073478960556
 21
309.557660328081
  0
CIRCLE
  5
435
100
AcDbEntity
  8
0-0
100
AcDbCircle
  6
CONTINUOUS
370
50
 10
474.794561808469
 20
310.909632734006
 40
0.5
  0
CIRCLE
  5
436
100
AcDbEntity
  8
0-0
100
AcDbCircle
  6
CONTINUOUS
370
50
 10
474.794561808469
 20
310.909632734006
 40
0.740688034259961
  0
ARC
  5
437
100
AcDbEntity
  8
0-0
100
AcDbCircle
  6
CONTINUOUS
370
50
 10
464.72956180847
 20
314.257660328081
 40
2
100
AcDbArc
 50
90
 51
189.999999999999
  0
ARC
  5
438
100
AcDbEntity
  8
0-0
100
AcDbCircle
  6
CONTINUOUS
370
50
 10
464.489561808469
 20
314.857660328081
 40
2
100
AcDbArc
 50
90
 51
189.999999999999
  0
ARC
  5
439
100
AcDbEntity
  8
0-0
100
AcDbCircle
  6
CONTINUOUS
370
50
 10
476.549561808469
 20
314.257660328081
 40
2
100
AcDbArc
 50
350.000000000001
 51
90
  0
ARC
  5
43A
100
AcDbEntity
  8
0-0
100
AcDbCircle
  6
CONTINUOUS
370
50
 10
476.789561808469
 20
314.857660328081
 40
2
100
AcDbArc
 50
350.000000000001
 51
90
  0
CIRCLE
  5
43B
100
AcDbEntity
  8
0-0
100
AcDbCircle
  6
CONTINUOUS
370
50
 10
465.099561808469
 20
312.712201381005
 40
0.740688034259961
  0
CIRCLE
  5
43C
100
AcDbEntity
  8
0-0
100
AcDbCircle
  6
CONTINUOUS
370
50
 10
467.869561808469
 20
312.712201381005
 40
0.740688034259961
  0
CIRCLE
  5
43D
100
AcDbEntity
  8
0-0
100
AcDbCircle
  6
CONTINUOUS
370
50
 10
470.639561808469
 20
312.712201381005
 40
0.740688034259961
  0
CIRCLE
  5
43E
100
AcDbEntity
  8
0-0
100
AcDbCircle
  6
CONTINUOUS
370
50
 10
473.409561808469
 20
312.712201381005
 40
0.740688034259961
  0
CIRCLE
  5
43F
100
AcDbEntity
  8
0-0
100
AcDbCircle
  6
CONTINUOUS
370
50
 10
476.179561808469
 20
312.712201381005
 40
0.740688034259961
  0
CIRCLE
  5
440
100
AcDbEntity
  8
0-0
100
AcDbCircle
  6
CONTINUOUS
370
50
 10
458.139561808469
 20
312.907660328081
 40
1.55
  0
MTEXT
  5
441
100
AcDbEntity
  8
0-0
 62
0
100
AcDbMText
 10
428.27865715325
 20
376.487717290602
 40
3.8
 41
  0.0
  1
{\fMS Gothic|b1;Manufactured by}
  7
Font_0
  0
MTEXT
  5
442
100
AcDbEntity
  8
0-0
 62
0
100
AcDbMText
 10
420.868787182289
 20
371.699124108966
 40
4.56
 41
  0.0
  1
{\fMS Gothic|b1;Minato Concept,Inc.}
  7
Font_0
  0
MTEXT
  5
443
100
AcDbEntity
  8
0-0
 62
0
100
AcDbMText
 10
434.168857148855
 20
363.597729594099
 40
3.04
 41
  0.0
  1
{\fMS Gothic|b1;Tokyo Japan}
  7
Font_0
  0
MTEXT
  5
444
100
AcDbEntity
  8
0-0
 62
0
100
AcDbMText
 10
430.36850233989
 20
359.666176004871
 40
3.04
 41
  0.0
  1
{\fMS Gothic|b1;TEL:03-5637-2882}
  7
Font_0
  0
MTEXT
  5
445
100
AcDbEntity
  8
0-0
 62
0
100
AcDbMText
 10
429.103341806259
 20
355.078276053028
 40
3.04
 41
  0.0
  1
{\fMS Gothic|b1;www.minato-c.co.jp}
  7
Font_0
  0
LINE
  5
446
100
AcDbEntity
  8
0-0
100
AcDbLine
  6
CONTINUOUS
 62
0
370
50
 10
423.158826084349
 20
347.02852448148
 11
423.158826084349
 21
342.02852448148
  0
LINE
  5
447
100
AcDbEntity
  8
0-0
100
AcDbLine
  6
CONTINUOUS
 62
0
370
50
 10
432.065440198285
 20
347.031620465729
 11
432.065440198285
 21
342.02852448148
  0
MTEXT
  5
448
100
AcDbEntity
  8
0-0
 62
0
100
AcDbMText
 10
423.790670189398
 20
345.434825204944
 40
2.4
 41
  0.0
  1
{\fMS Gothic|b1;SER.NO.}
  7
Font_0
  0
LINE
  5
449
100
AcDbEntity
  8
0-0
100
AcDbLine
  6
CONTINUOUS
 62
0
370
50
 10
461.499338007067
 20
347.02852448148
 11
461.499338007067
 21
342.02852448148
  0
LINE
  5
44A
100
AcDbEntity
  8
0-0
100
AcDbLine
  6
CONTINUOUS
 62
0
370
50
 10
423.158826084349
 20
347.02852448148
 11
461.499338007067
 21
347.02852448148
  0
LINE
  5
44B
100
AcDbEntity
  8
0-0
100
AcDbLine
  6
CONTINUOUS
 62
0
370
50
 10
423.158826084349
 20
342.02852448148
 11
461.499338007067
 21
342.02852448148
  0
CIRCLE
  5
44C
100
AcDbEntity
  8
0-0
100
AcDbCircle
  6
BYLAYER
370
50
 10
322.106178546975
 20
202.41991097669
 40
3.20000000000002
  0
CIRCLE
  5
44D
100
AcDbEntity
  8
0-0
100
AcDbCircle
  6
BYLAYER
370
50
 10
311.106178546975
 20
221.472469859948
 40
3.20000000000002
  0
LINE
  5
44E
100
AcDbEntity
  8
0-0
100
AcDbLine
  6
CONTINUOUS
370
50
 10
332.700527062375
 20
301.707660328081
 11
340.700527062375
 21
301.707660328081
  0
LINE
  5
44F
100
AcDbEntity
  8
0-0
100
AcDbLine
  6
CONTINUOUS
370
50
 10
484.700527062375
 20
301.707660328081
 11
492.700527062375
 21
301.707660328081
  0
LINE
  5
450
100
AcDbEntity
  8
0-0
100
AcDbLine
  6
CONTINUOUS
370
50
 10
404.276051528053
 20
142.473559192323
 11
324.276051528053
 21
281.037623797833
  0
LINE
  5
451
100
AcDbEntity
  8
0-0
100
AcDbLine
  6
CONTINUOUS
370
50
 10
324.276051528053
 20
96.2855376571525
 11
244.276051528053
 21
234.849602262663
  0
LINE
  5
452
100
AcDbEntity
  8
0-0
100
AcDbLine
  6
CONTINUOUS
370
50
 10
104.66507055635
 20
270.208840134073
 11
139.665070556351
 21
270.208840134073
  0
LINE
  5
453
100
AcDbEntity
  8
0-0
100
AcDbLine
  6
CONTINUOUS
370
50
 10
104.665070556351
 20
261.886632922797
 11
139.665070556351
 21
261.886632922797
  0
LINE
  5
454
100
AcDbEntity
  8
0-0
100
AcDbLine
  6
CONTINUOUS
370
50
 10
104.665070556351
 20
261.886632922797
 11
104.66507055635
 21
270.208840134073
  0
LINE
  5
455
100
AcDbEntity
  8
0-0
100
AcDbLine
  6
CONTINUOUS
370
50
 10
139.665070556351
 20
261.886632922797
 11
139.665070556351
 21
270.208840134073
  0
ELLIPSE
  5
456
100
AcDbEntity
  8
0-0
100
AcDbEllipse
  6
CONTINUOUS
370
50
 10
111.065070556351
 20
253.942707857488
 30
0.0
 11
2.18920772883761
 21
-1.67063088362932
 31
0.0
210
0.0
220
0.0
230
1.0
 40
0.89786440242345
 41
0
 42
6.28318530717959
  0
ELLIPSE
  5
457
100
AcDbEntity
  8
0-0
100
AcDbEllipse
  6
CONTINUOUS
370
50
 10
133.065070556351
 20
253.942707857488
 30
0.0
 11
2.18920772883761
 21
-1.67063088362932
 31
0.0
210
0.0
220
0.0
230
1.0
 40
0.89786440242345
 41
0
 42
6.28318530717959
  0
LWPOLYLINE
  5
458
100
AcDbEntity
  8
0-0
100
AcDbPolyline
  6
CONTINUOUS
370
50
 90
     4
 70
     1
 10
187.065070556351
  20
258.482093609093
 10
175.065070556351
  20
258.482093609093
 10
175.065070556351
  20
249.403322105883
 10
187.065070556351
  20
249.403322105883
  0
LWPOLYLINE
  5
459
100
AcDbEntity
  8
0-0
100
AcDbPolyline
  6
CONTINUOUS
370
50
 90
     4
 70
     1
 10
187.065070556351
  20
246.377064938146
 10
175.065070556351
  20
246.377064938146
 10
175.065070556351
  20
237.298293434936
 10
187.065070556351
  20
237.298293434936
  0
LINE
  5
45A
100
AcDbEntity
  8
0-0
100
AcDbLine
  6
BYLAYER
370
50
 10
212.880525556351
 20
221.334786875125
 11
200.880525556351
 21
221.334786875125
  0
LINE
  5
45B
100
AcDbEntity
  8
0-0
100
AcDbLine
  6
BYLAYER
370
50
 10
200.880525556351
 20
230.564871236722
 11
212.880525556351
 21
230.564871236722
  0
LINE
  5
45C
100
AcDbEntity
  8
0-0
100
AcDbLine
  6
BYLAYER
370
50
 10
200.980525556351
 20
229.819655409167
 11
200.980525556351
 21
222.08000270268
  0
LINE
  5
45D
100
AcDbEntity
  8
0-0
100
AcDbLine
  6
BYLAYER
370
50
 10
201.580525556351
 20
221.62606412752
 11
212.180525556351
 21
221.626064127519
  0
LINE
  5
45E
100
AcDbEntity
  8
0-0
100
AcDbLine
  6
BYLAYER
370
50
 10
212.780525556351
 20
222.08000270268
 11
212.780525556351
 21
229.819655409167
  0
LINE
  5
45F
100
AcDbEntity
  8
0-0
100
AcDbLine
  6
BYLAYER
370
50
 10
212.180525556351
 20
230.273593984327
 11
201.580525556351
 21
230.273593984327
  0
LINE
  5
460
100
AcDbEntity
  8
0-0
100
AcDbLine
  6
BYLAYER
370
50
 10
202.187543556351
 20
230.273593984327
 11
202.187543556351
 21
221.626064127519
  0
LINE
  5
461
100
AcDbEntity
  8
0-0
100
AcDbLine
  6
BYLAYER
370
50
 10
204.491602556351
 20
230.273593984327
 11
204.491602556351
 21
221.626064127519
  0
LINE
  5
462
100
AcDbEntity
  8
0-0
100
AcDbLine
  6
BYLAYER
370
50
 10
207.065070556351
 20
230.273593984327
 11
207.065070556351
 21
221.626064127519
  0
ELLIPSE
  5
463
100
AcDbEntity
  8
0-0
100
AcDbEllipse
  6
BYLAYER
370
50
 10
201.580525556351
 20
229.819655409167
 30
0.0
 11
-0.600000000000023
 21
7.34763812293454E-17
 31
0.0
210
0.0
220
0.0
230
1.0
 40
0.756564291934126
 41
4.71238898038469
 42
0
  0
ELLIPSE
  5
464
100
AcDbEntity
  8
0-0
100
AcDbEllipse
  6
BYLAYER
370
50
 10
212.180525556351
 20
229.819655409167
 30
0.0
 11
-0.600000000000023
 21
7.34763812293454E-17
 31
0.0
210
0.0
220
0.0
230
1.0
 40
0.756564291934126
 41
3.14159265358979
 42
4.71238898038469
  0
ELLIPSE
  5
465
100
AcDbEntity
  8
0-0
100
AcDbEllipse
  6
BYLAYER
370
50
 10
212.180525556351
 20
222.08000270268
 30
0.0
 11
-0.600000000000023
 21
7.34763812293454E-17
 31
0.0
210
0.0
220
0.0
230
1.0
 40
0.756564291934126
 41
1.5707963267949
 42
3.14159265358979
  0
ELLIPSE
  5
466
100
AcDbEntity
  8
0-0
100
AcDbEllipse
  6
BYLAYER
370
50
 10
201.580525556351
 20
222.08000270268
 30
0.0
 11
-0.600000000000023
 21
7.34763812293454E-17
 31
0.0
210
0.0
220
0.0
230
1.0
 40
0.756564291934173
 41
0
 42
1.5707963267949
  0
LINE
  5
467
100
AcDbEntity
  8
0-0
100
AcDbLine
  6
BYLAYER
370
50
 10
196.130525556351
 20
231.85103053301
 11
196.130525556351
 21
220.048627578837
  0
LINE
  5
468
100
AcDbEntity
  8
0-0
100
AcDbLine
  6
BYLAYER
370
50
 10
217.630525556351
 20
231.85103053301
 11
217.630525556351
 21
220.048627578837
  0
LINE
  5
469
100
AcDbEntity
  8
0-0
100
AcDbLine
  6
BYLAYER
370
50
 10
200.880525556351
 20
221.334786875125
 11
200.880525556351
 21
230.564871236722
  0
LINE
  5
46A
100
AcDbEntity
  8
0-0
100
AcDbLine
  6
BYLAYER
370
50
 10
212.880525556351
 20
221.334786875125
 11
212.880525556351
 21
230.564871236722
  0
LINE
  5
46B
100
AcDbEntity
  8
0-0
100
AcDbLine
  6
BYLAYER
370
50
 10
196.130525556351
 20
220.048627578837
 11
217.630525556351
 21
220.048627578837
  0
LINE
  5
46C
100
AcDbEntity
  8
0-0
100
AcDbLine
  6
BYLAYER
370
50
 10
196.130525556351
 20
231.85103053301
 11
217.630525556351
 21
231.85103053301
  0
LINE
  5
46D
100
AcDbEntity
  8
0-0
100
AcDbLine
  6
HIDDEN
 62
6
370
50
 10
197.880525556351
 20
221.637412591899
 11
197.880525556351
 21
230.262245519948
  0
LINE
  5
46E
100
AcDbEntity
  8
0-0
100
AcDbLine
  6
HIDDEN
 62
6
370
50
 10
215.880525556351
 20
230.262245519948
 11
215.880525556351
 21
221.637412591899
  0
LINE
  5
46F
100
AcDbEntity
  8
0-0
100
AcDbLine
  6
HIDDEN
 62
6
370
50
 10
215.480525556351
 20
221.334786875125
 11
198.280525556351
 21
221.334786875125
  0
LINE
  5
470
100
AcDbEntity
  8
0-0
100
AcDbLine
  6
HIDDEN
 62
6
370
50
 10
215.480525556351
 20
230.564871236722
 11
198.280525556351
 21
230.564871236722
  0
ELLIPSE
  5
471
100
AcDbEntity
  8
0-0
100
AcDbEllipse
  6
HIDDEN
 62
6
370
50
 10
198.280525556351
 20
221.637412591899
 30
0.0
 11
-0.399999999999977
 21
4.89842541528923E-17
 31
0.0
210
0.0
220
0.0
230
1.0
 40
0.756564291934268
 41
0
 42
1.5707963267949
  0
ELLIPSE
  5
472
100
AcDbEntity
  8
0-0
100
AcDbEllipse
  6
HIDDEN
 62
6
370
50
 10
198.280525556351
 20
230.262245519948
 30
0.0
 11
-0.399999999999977
 21
4.89842541528923E-17
 31
0.0
210
0.0
220
0.0
230
1.0
 40
0.756564291934268
 41
4.71238898038469
 42
0
  0
ELLIPSE
  5
473
100
AcDbEntity
  8
0-0
100
AcDbEllipse
  6
HIDDEN
 62
6
370
50
 10
215.480525556351
 20
230.262245519948
 30
0.0
 11
-0.399999999999977
 21
4.89842541528923E-17
 31
0.0
210
0.0
220
0.0
230
1.0
 40
0.756564291934197
 41
3.14159265358979
 42
4.71238898038469
  0
ELLIPSE
  5
474
100
AcDbEntity
  8
0-0
100
AcDbEllipse
  6
HIDDEN
 62
6
370
50
 10
215.480525556351
 20
221.637412591899
 30
0.0
 11
-0.399999999999977
 21
4.89842541528923E-17
 31
0.0
210
0.0
220
0.0
230
1.0
 40
0.756564291934197
 41
1.5707963267949
 42
3.14159265358979
  0
LINE
  5
475
100
AcDbEntity
  8
0-0
100
AcDbLine
  6
BYLAYER
370
50
 10
174.86507055635
 20
258.63340646748
 11
174.86507055635
 21
249.252009247496
  0
LINE
  5
476
100
AcDbEntity
  8
0-0
100
AcDbLine
  6
BYLAYER
370
50
 10
174.86507055635
 20
249.252009247496
 11
187.26507055635
 21
249.252009247496
  0
LINE
  5
477
100
AcDbEntity
  8
0-0
100
AcDbLine
  6
BYLAYER
370
50
 10
187.26507055635
 20
249.252009247496
 11
187.26507055635
 21
258.63340646748
  0
LINE
  5
478
100
AcDbEntity
  8
0-0
100
AcDbLine
  6
BYLAYER
370
50
 10
187.26507055635
 20
258.63340646748
 11
174.86507055635
 21
258.63340646748
  0
LINE
  5
479
100
AcDbEntity
  8
0-0
100
AcDbLine
  6
BYLAYER
370
50
 10
174.86507055635
 20
246.528377796533
 11
174.86507055635
 21
237.146980576549
  0
LINE
  5
47A
100
AcDbEntity
  8
0-0
100
AcDbLine
  6
BYLAYER
370
50
 10
174.86507055635
 20
237.146980576549
 11
187.26507055635
 21
237.146980576549
  0
LINE
  5
47B
100
AcDbEntity
  8
0-0
100
AcDbLine
  6
BYLAYER
370
50
 10
187.26507055635
 20
237.146980576549
 11
187.26507055635
 21
246.528377796533
  0
LINE
  5
47C
100
AcDbEntity
  8
0-0
100
AcDbLine
  6
BYLAYER
370
50
 10
187.26507055635
 20
246.528377796533
 11
174.86507055635
 21
246.528377796533
  0
LINE
  5
47D
100
AcDbEntity
  8
0-0
100
AcDbLine
  6
BYLAYER
370
50
 10
104.26507055635
 20
270.435809421653
 11
139.86507055635
 21
270.435809421653
  0
LINE
  5
47E
100
AcDbEntity
  8
0-0
100
AcDbLine
  6
BYLAYER
370
50
 10
139.86507055635
 20
270.435809421653
 11
139.86507055635
 21
261.659663635217
  0
LINE
  5
47F
100
AcDbEntity
  8
0-0
100
AcDbLine
  6
BYLAYER
370
50
 10
139.86507055635
 20
261.659663635217
 11
104.26507055635
 21
261.659663635217
  0
LINE
  5
480
100
AcDbEntity
  8
0-0
100
AcDbLine
  6
BYLAYER
370
50
 10
104.26507055635
 20
261.659663635217
 11
104.26507055635
 21
270.435809421653
  0
ELLIPSE
  5
481
100
AcDbEntity
  8
0-0
100
AcDbEllipse
  6
BYLAYER
370
50
 10
101.06507055635
 20
266.047736528435
 30
0.0
 11
1.16757745538009
 21
-0.891003137935655
 31
0.0
210
0.0
220
0.0
230
1.0
 40
0.897864402423445
 41
0
 42
6.28318530717959
  0
ELLIPSE
  5
482
100
AcDbEntity
  8
0-0
100
AcDbEllipse
  6
BYLAYER
370
50
 10
144.065070556351
 20
273.613379447777
 30
0.0
 11
1.16757745538004
 21
-0.891003137935647
 31
0.0
210
0.0
220
0.0
230
1.0
 40
0.897864402423453
 41
0
 42
6.28318530717959
  0
ELLIPSE
  5
483
100
AcDbEntity
  8
0-0
100
AcDbEllipse
  6
BYLAYER
370
50
 10
144.06507055635
 20
269.830557988106
 30
0.0
 11
1.16757745538008
 21
-0.891003137935646
 31
0.0
210
0.0
220
0.0
230
1.0
 40
0.897864402423454
 41
0
 42
6.28318530717959
  0
ELLIPSE
  5
484
100
AcDbEntity
  8
0-0
100
AcDbEllipse
  6
BYLAYER
370
50
 10
144.06507055635
 20
266.047736528435
 30
0.0
 11
1.16757745538006
 21
-0.891003137935656
 31
0.0
210
0.0
220
0.0
230
1.0
 40
0.897864402423444
 41
0
 42
6.28318530717959
  0
ELLIPSE
  5
485
100
AcDbEntity
  8
0-0
100
AcDbEllipse
  6
BYLAYER
370
50
 10
144.065070556351
 20
262.264915068764
 30
0.0
 11
1.16757745538008
 21
-0.891003137935646
 31
0.0
210
0.0
220
0.0
230
1.0
 40
0.897864402423454
 41
0
 42
6.28318530717959
  0
LINE
  5
486
100
AcDbEntity
  8
0-0
100
AcDbLine
  6
CONTINUOUS
370
50
 10
226.065070556351
 20
213.151739267164
 11
226.065070556351
 21
291.080119182008
  0
ELLIPSE
  5
487
100
AcDbEntity
  8
0-0
100
AcDbEllipse
  6
BYLAYER
370
50
 10
133.065070556351
 20
253.942707857488
 30
0.0
 11
3.20000000000002
 21
0
 31
0.0
210
0.0
220
0.0
230
1.0
 40
0.756564291934186
 41
0
 42
6.28318530717959
  0
ELLIPSE
  5
488
100
AcDbEntity
  8
0-0
100
AcDbEllipse
  6
BYLAYER
370
50
 10
111.065070556351
 20
253.942707857488
 30
0.0
 11
3.20000000000002
 21
0
 31
0.0
210
0.0
220
0.0
230
1.0
 40
0.756564291934186
 41
0
 42
6.28318530717959
  0
LINE
  5
489
100
AcDbEntity
  8
0-0
100
AcDbLine
  6
CONTINUOUS
370
50
 10
104.66507055635
 20
123.099998962404
 11
139.665070556351
 21
123.099998962404
  0
LINE
  5
48A
100
AcDbEntity
  8
0-0
100
AcDbLine
  6
CONTINUOUS
370
50
 10
104.665070556351
 20
117.811614789858
 11
139.665070556351
 21
117.811614789858
  0
LINE
  5
48B
100
AcDbEntity
  8
0-0
100
AcDbLine
  6
CONTINUOUS
370
50
 10
104.665070556351
 20
117.811614789858
 11
104.66507055635
 21
123.099998962404
  0
LINE
  5
48C
100
AcDbEntity
  8
0-0
100
AcDbLine
  6
CONTINUOUS
370
50
 10
139.665070556351
 20
117.811614789858
 11
139.665070556351
 21
123.099998962404
  0
ELLIPSE
  5
48D
100
AcDbEntity
  8
0-0
100
AcDbEllipse
  6
CONTINUOUS
370
50
 10
111.065070556351
 20
112.763611716064
 30
0.0
 11
1.41844907311548
 21
-1.70342418444376
 31
0.0
210
0.0
220
0.0
230
1.0
 40
0.880579255418883
 41
0
 42
6.28318530717959
  0
ELLIPSE
  5
48E
100
AcDbEntity
  8
0-0
100
AcDbEllipse
  6
CONTINUOUS
370
50
 10
133.065070556351
 20
112.763611716064
 30
0.0
 11
1.41844907311548
 21
-1.70342418444376
 31
0.0
210
0.0
220
0.0
230
1.0
 40
0.880579255418883
 41
0
 42
6.28318530717959
  0
LWPOLYLINE
  5
48F
100
AcDbEntity
  8
0-0
100
AcDbPolyline
  6
CONTINUOUS
370
50
 90
     4
 70
     1
 10
187.065070556351
  20
115.648184901089
 10
175.065070556351
  20
115.648184901089
 10
175.065070556351
  20
109.879038531038
 10
187.065070556351
  20
109.879038531038
  0
LWPOLYLINE
  5
490
100
AcDbEntity
  8
0-0
100
AcDbPolyline
  6
CONTINUOUS
370
50
 90
     4
 70
     1
 10
187.065070556351
  20
107.955989741021
 10
175.065070556351
  20
107.955989741021
 10
175.065070556351
  20
102.186843370971
 10
187.065070556351
  20
102.186843370971
  0
LINE
  5
491
100
AcDbEntity
  8
0-0
100
AcDbLine
  6
BYLAYER
370
50
 10
212.880525556351
 20
92.0427610036321
 11
200.880525556351
 21
92.0427610036321
  0
LINE
  5
492
100
AcDbEntity
  8
0-0
100
AcDbLine
  6
BYLAYER
370
50
 10
200.880525556351
 20
97.9080598131834
 11
212.880525556351
 21
97.9080598131834
  0
LINE
  5
493
100
AcDbEntity
  8
0-0
100
AcDbLine
  6
BYLAYER
370
50
 10
200.980525556351
 20
97.4345090486418
 11
200.980525556351
 21
92.5163117681737
  0
LINE
  5
494
100
AcDbEntity
  8
0-0
100
AcDbLine
  6
BYLAYER
370
50
 10
201.580525556351
 20
92.2278544496712
 11
212.180525556351
 21
92.2278544496712
  0
LINE
  5
495
100
AcDbEntity
  8
0-0
100
AcDbLine
  6
BYLAYER
370
50
 10
212.780525556351
 20
92.5163117681738
 11
212.780525556351
 21
97.4345090486419
  0
LINE
  5
496
100
AcDbEntity
  8
0-0
100
AcDbLine
  6
BYLAYER
370
50
 10
212.180525556351
 20
97.7229663671443
 11
201.580525556351
 21
97.7229663671443
  0
LINE
  5
497
100
AcDbEntity
  8
0-0
100
AcDbLine
  6
BYLAYER
370
50
 10
202.187543556351
 20
97.7229663671443
 11
202.187543556351
 21
92.2278544496712
  0
LINE
  5
498
100
AcDbEntity
  8
0-0
100
AcDbLine
  6
BYLAYER
370
50
 10
204.491602556351
 20
97.7229663671443
 11
204.491602556351
 21
92.2278544496712
  0
LINE
  5
499
100
AcDbEntity
  8
0-0
100
AcDbLine
  6
BYLAYER
370
50
 10
207.065070556351
 20
97.7229663671443
 11
207.065070556351
 21
92.2278544496712
  0
ELLIPSE
  5
49A
100
AcDbEntity
  8
0-0
100
AcDbEllipse
  6
BYLAYER
370
50
 10
201.580525556351
 20
97.4345090486418
 30
0.0
 11
-0.600000000000023
 21
7.34763812293454E-17
 31
0.0
210
0.0
220
0.0
230
1.0
 40
0.480762197504163
 41
4.71238898038469
 42
0
  0
ELLIPSE
  5
49B
100
AcDbEntity
  8
0-0
100
AcDbEllipse
  6
BYLAYER
370
50
 10
212.180525556351
 20
97.4345090486418
 30
0.0
 11
-0.600000000000023
 21
7.34763812293454E-17
 31
0.0
210
0.0
220
0.0
230
1.0
 40
0.480762197504163
 41
3.14159265358979
 42
4.71238898038469
  0
ELLIPSE
  5
49C
100
AcDbEntity
  8
0-0
100
AcDbEllipse
  6
BYLAYER
370
50
 10
212.180525556351
 20
92.5163117681737
 30
0.0
 11
-0.600000000000023
 21
7.34763812293454E-17
 31
0.0
210
0.0
220
0.0
230
1.0
 40
0.480762197504187
 41
1.5707963267949
 42
3.14159265358979
  0
ELLIPSE
  5
49D
100
AcDbEntity
  8
0-0
100
AcDbEllipse
  6
BYLAYER
370
50
 10
201.580525556351
 20
92.5163117681738
 30
0.0
 11
-0.600000000000023
 21
7.34763812293454E-17
 31
0.0
210
0.0
220
0.0
230
1.0
 40
0.480762197504211
 41
0
 42
1.5707963267949
  0
LINE
  5
49E
100
AcDbEntity
  8
0-0
100
AcDbLine
  6
BYLAYER
370
50
 10
196.130525556351
 20
98.7253555489406
 11
196.130525556351
 21
91.2254652678749
  0
LINE
  5
49F
100
AcDbEntity
  8
0-0
100
AcDbLine
  6
BYLAYER
370
50
 10
217.630525556351
 20
98.7253555489406
 11
217.630525556351
 21
91.2254652678749
  0
LINE
  5
4A0
100
AcDbEntity
  8
0-0
100
AcDbLine
  6
BYLAYER
370
50
 10
200.880525556351
 20
92.0427610036321
 11
200.880525556351
 21
97.9080598131834
  0
LINE
  5
4A1
100
AcDbEntity
  8
0-0
100
AcDbLine
  6
BYLAYER
370
50
 10
212.880525556351
 20
92.0427610036321
 11
212.880525556351
 21
97.9080598131834
  0
LINE
  5
4A2
100
AcDbEntity
  8
0-0
100
AcDbLine
  6
BYLAYER
370
50
 10
196.130525556351
 20
91.2254652678749
 11
217.630525556351
 21
91.2254652678749
  0
LINE
  5
4A3
100
AcDbEntity
  8
0-0
100
AcDbLine
  6
BYLAYER
370
50
 10
196.130525556351
 20
98.7253555489406
 11
217.630525556351
 21
98.7253555489406
  0
LINE
  5
4A4
100
AcDbEntity
  8
0-0
100
AcDbLine
  6
HIDDEN
 62
6
370
50
 10
197.880525556351
 20
92.2350658826338
 11
197.880525556351
 21
97.7157549341817
  0
LINE
  5
4A5
100
AcDbEntity
  8
0-0
100
AcDbLine
  6
HIDDEN
 62
6
370
50
 10
215.880525556351
 20
97.7157549341817
 11
215.880525556351
 21
92.2350658826338
  0
LINE
  5
4A6
100
AcDbEntity
  8
0-0
100
AcDbLine
  6
HIDDEN
 62
6
370
50
 10
215.480525556351
 20
92.0427610036321
 11
198.280525556351
 21
92.0427610036321
  0
LINE
  5
4A7
100
AcDbEntity
  8
0-0
100
AcDbLine
  6
HIDDEN
 62
6
370
50
 10
215.480525556351
 20
97.9080598131834
 11
198.280525556351
 21
97.9080598131834
  0
ELLIPSE
  5
4A8
100
AcDbEntity
  8
0-0
100
AcDbEllipse
  6
HIDDEN
 62
6
370
50
 10
198.280525556351
 20
92.2350658826338
 30
0.0
 11
-0.399999999999977
 21
4.89842541528923E-17
 31
0.0
210
0.0
220
0.0
230
1.0
 40
0.480762197504268
 41
0
 42
1.5707963267949
  0
ELLIPSE
  5
4A9
100
AcDbEntity
  8
0-0
100
AcDbEllipse
  6
HIDDEN
 62
6
370
50
 10
198.280525556351
 20
97.7157549341817
 30
0.0
 11
-0.399999999999977
 21
4.89842541528923E-17
 31
0.0
210
0.0
220
0.0
230
1.0
 40
0.480762197504304
 41
4.71238898038469
 42
0
  0
ELLIPSE
  5
4AA
100
AcDbEntity
  8
0-0
100
AcDbEllipse
  6
HIDDEN
 62
6
370
50
 10
215.480525556351
 20
97.7157549341817
 30
0.0
 11
-0.399999999999977
 21
4.89842541528923E-17
 31
0.0
210
0.0
220
0.0
230
1.0
 40
0.480762197504233
 41
3.14159265358979
 42
4.71238898038469
  0
ELLIPSE
  5
4AB
100
AcDbEntity
  8
0-0
100
AcDbEllipse
  6
HIDDEN
 62
6
370
50
 10
215.480525556351
 20
92.2350658826338
 30
0.0
 11
-0.399999999999977
 21
-1.42598389693541E-14
 31
0.0
210
0.0
220
0.0
230
1.0
 40
0.480762197504233
 41
1.5707963267949
 42
3.14159265358979
  0
LINE
  5
4AC
100
AcDbEntity
  8
0-0
100
AcDbLine
  6
BYLAYER
370
50
 10
174.86507055635
 20
115.74433734059
 11
174.86507055635
 21
109.782886091537
  0
LINE
  5
4AD
100
AcDbEntity
  8
0-0
100
AcDbLine
  6
BYLAYER
370
50
 10
174.86507055635
 20
109.782886091537
 11
187.26507055635
 21
109.782886091537
  0
LINE
  5
4AE
100
AcDbEntity
  8
0-0
100
AcDbLine
  6
BYLAYER
370
50
 10
187.26507055635
 20
109.782886091537
 11
187.26507055635
 21
115.74433734059
  0
LINE
  5
4AF
100
AcDbEntity
  8
0-0
100
AcDbLine
  6
BYLAYER
370
50
 10
187.26507055635
 20
115.74433734059
 11
174.86507055635
 21
115.74433734059
  0
LINE
  5
4B0
100
AcDbEntity
  8
0-0
100
AcDbLine
  6
BYLAYER
370
50
 10
174.86507055635
 20
108.052142180522
 11
174.86507055635
 21
102.09069093147
  0
LINE
  5
4B1
100
AcDbEntity
  8
0-0
100
AcDbLine
  6
BYLAYER
370
50
 10
174.86507055635
 20
102.09069093147
 11
187.26507055635
 21
102.09069093147
  0
LINE
  5
4B2
100
AcDbEntity
  8
0-0
100
AcDbLine
  6
BYLAYER
370
50
 10
187.26507055635
 20
102.09069093147
 11
187.26507055635
 21
108.052142180522
  0
LINE
  5
4B3
100
AcDbEntity
  8
0-0
100
AcDbLine
  6
BYLAYER
370
50
 10
187.26507055635
 20
108.052142180522
 11
174.86507055635
 21
108.052142180522
  0
LINE
  5
4B4
100
AcDbEntity
  8
0-0
100
AcDbLine
  6
BYLAYER
370
50
 10
104.26507055635
 20
123.244227621655
 11
139.86507055635
 21
123.244227621655
  0
LINE
  5
4B5
100
AcDbEntity
  8
0-0
100
AcDbLine
  6
BYLAYER
370
50
 10
139.86507055635
 20
123.244227621655
 11
139.86507055635
 21
117.667386130606
  0
LINE
  5
4B6
100
AcDbEntity
  8
0-0
100
AcDbLine
  6
BYLAYER
370
50
 10
139.86507055635
 20
117.667386130606
 11
104.26507055635
 21
117.667386130606
  0
LINE
  5
4B7
100
AcDbEntity
  8
0-0
100
AcDbLine
  6
BYLAYER
370
50
 10
104.26507055635
 20
117.667386130606
 11
104.26507055635
 21
123.244227621655
  0
ELLIPSE
  5
4B8
100
AcDbEntity
  8
0-0
100
AcDbEllipse
  6
BYLAYER
370
50
 10
101.06507055635
 20
120.455806876131
 30
0.0
 11
0.756506172328258
 21
-0.908492898370005
 31
0.0
210
0.0
220
0.0
230
1.0
 40
0.880579255418893
 41
0
 42
6.28318530717959
  0
ELLIPSE
  5
4B9
100
AcDbEntity
  8
0-0
100
AcDbEllipse
  6
BYLAYER
370
50
 10
144.065070556351
 20
125.263428851173
 30
0.0
 11
0.756506172328222
 21
-0.908492898369982
 31
0.0
210
0.0
220
0.0
230
1.0
 40
0.880579255418916
 41
0
 42
6.28318530717959
  0
ELLIPSE
  5
4BA
100
AcDbEntity
  8
0-0
100
AcDbEllipse
  6
BYLAYER
370
50
 10
144.06507055635
 20
122.859617863652
 30
0.0
 11
0.756506172328274
 21
-0.908492898370005
 31
0.0
210
0.0
220
0.0
230
1.0
 40
0.880579255418893
 41
0
 42
6.28318530717959
  0
ELLIPSE
  5
4BB
100
AcDbEntity
  8
0-0
100
AcDbEllipse
  6
BYLAYER
370
50
 10
144.06507055635
 20
120.455806876131
 30
0.0
 11
0.756506172328225
 21
-0.908492898370005
 31
0.0
210
0.0
220
0.0
230
1.0
 40
0.880579255418894
 41
0
 42
6.28318530717959
  0
ELLIPSE
  5
4BC
100
AcDbEntity
  8
0-0
100
AcDbEllipse
  6
BYLAYER
370
50
 10
144.065070556351
 20
118.05199588861
 30
0.0
 11
0.756506172328271
 21
-0.908492898370021
 31
0.0
210
0.0
220
0.0
230
1.0
 40
0.880579255418878
 41
0
 42
6.28318530717959
  0
ELLIPSE
  5
4BD
100
AcDbEntity
  8
0-0
100
AcDbEllipse
  6
BYLAYER
370
50
 10
133.065070556351
 20
112.763611716063
 30
0.0
 11
3.20000000000002
 21
0
 31
0.0
210
0.0
220
0.0
230
1.0
 40
0.480762197504221
 41
0
 42
6.28318530717959
  0
ELLIPSE
  5
4BE
100
AcDbEntity
  8
0-0
100
AcDbEllipse
  6
BYLAYER
370
50
 10
111.065070556351
 20
112.763611716063
 30
0.0
 11
3.20000000000002
 21
0
 31
0.0
210
0.0
220
0.0
230
1.0
 40
0.480762197504207
 41
0
 42
6.28318530717959
  0
LINE
  5
4BF
100
AcDbEntity
  8
0-0
100
AcDbLine
  6
CONTINUOUS
370
50
 10
508.828667170086
 20
80.0843029423898
 11
513.867128708546
 21
80.0843029423907
  0
LINE
  5
4C0
100
AcDbEntity
  8
0-0
100
AcDbLine
  6
CONTINUOUS
370
50
 10
514.128667170086
 20
79.8227644808513
 11
513.328667170086
 21
80.6227644808513
  0
LINE
  5
4C1
100
AcDbEntity
  8
0-0
100
AcDbLine
  6
CONTINUOUS
370
50
 10
508.829042476403
 20
80.6227644808513
 11
513.328667170086
 21
80.6227644808513
  0
LINE
  5
4C2
100
AcDbEntity
  8
0-0
100
AcDbLine
  6
CONTINUOUS
370
50
 10
514.128667170086
 20
59.7227644808513
 11
513.328667170086
 21
58.9227644808513
  0
LINE
  5
4C3
100
AcDbEntity
  8
0-0
100
AcDbLine
  6
CONTINUOUS
370
50
 10
508.828667170086
 20
59.4612260193128
 11
513.867128708546
 21
59.4612260193119
  0
LINE
  5
4C4
100
AcDbEntity
  8
0-0
100
AcDbLine
  6
CONTINUOUS
370
50
 10
513.328667170086
 20
58.9227644808513
 11
513.328667170086
 21
80.6227644808514
  0
LINE
  5
4C5
100
AcDbEntity
  8
0-0
100
AcDbLine
  6
CONTINUOUS
370
50
 10
508.837577481533
 20
58.9227644808513
 11
513.328667170086
 21
58.9227644808513
  0
LINE
  5
4C6
100
AcDbEntity
  8
0-0
100
AcDbLine
  6
CONTINUOUS
370
50
 10
514.128667170086
 20
59.7227644808513
 11
514.128667170086
 21
79.8227644808513
  0
MTEXT
  5
4C7
100
AcDbEntity
  8
0-0
 62
0
100
AcDbMText
 10
348.16794400155
 20
378.184244277534
 40
3.6
 41
  0.0
  1
{\fMS Gothic|b1;POWER}
  7
Font_0
  0
MTEXT
  5
4C8
100
AcDbEntity
  8
0-0
 62
0
100
AcDbMText
 10
391.644261024464
 20
341.810468894409
 40
3.6
 41
  0.0
  1
{\fMS Gothic|b1;CONTROL}
  7
Font_0
  0
MTEXT
  5
4C9
100
AcDbEntity
  8
0-0
 62
0
100
AcDbMText
 10
428.352281699829
 20
323.79432674727
 40
3.15
 41
  0.0
  1
{\fMS Gothic|b1;I/O-2}
  7
Font_0
  0
MTEXT
  5
4CA
100
AcDbEntity
  8
0-0
 62
0
100
AcDbMText
 10
464.977747352105
 20
342.639660062545
 40
3.15
 41
  0.0
  1
{\fMS Gothic|b1;RS-232C}
  7
Font_0
  0
MTEXT
  5
4CB
100
AcDbEntity
  8
0-0
 62
0
100
AcDbMText
 10
466.629658455299
 20
322.631025315765
 40
3.15
 41
  0.0
  1
{\fMS Gothic|b1;I/O-1}
  7
Font_0
  0
MTEXT
  5
4CC
100
AcDbEntity
  8
0-0
100
AcDbMText
 10
76.1377209299865
 20
288.792300654177
 40
7
 41
  0.0
  1
{\fMS Gothic|b1;ＤＰＣＯ-Ⅰ}
  7
Font_0
  0
LINE
  5
4CD
100
AcDbEntity
  8
0-0
100
AcDbLine
  6
CONTINUOUS
370
50
 10
112.820989810578
 20
248.420702153247
 11
112.820989810578
 21
247.777326480273
  0
LINE
  5
4CE
100
AcDbEntity
  8
0-0
100
AcDbLine
  6
CONTINUOUS
370
50
 10
112.820989810578
 20
246.177326480273
 11
112.820989810578
 21
245.533950807299
  0
LINE
  5
4CF
100
AcDbEntity
  8
0-0
100
AcDbLine
  6
CONTINUOUS
370
50
 10
115.320989810578
 20
246.977326480273
 11
112.820989810578
 21
245.533950807299
  0
LINE
  5
4D0
100
AcDbEntity
  8
0-0
100
AcDbLine
  6
CONTINUOUS
370
50
 10
115.320989810578
 20
246.977326480273
 11
112.820989810578
 21
248.420702153247
  0
LINE
  5
4D1
100
AcDbEntity
  8
0-0
100
AcDbLine
  6
CONTINUOUS
370
50
 10
131.621694883376
 20
247.696300831803
 11
132.26507055635
 21
247.696300831804
  0
LINE
  5
4D2
100
AcDbEntity
  8
0-0
100
AcDbLine
  6
CONTINUOUS
370
50
 10
133.86507055635
 20
247.696300831804
 11
134.508446229324
 21
247.696300831804
  0
LINE
  5
4D3
100
AcDbEntity
  8
0-0
100
AcDbLine
  6
CONTINUOUS
370
50
 10
133.06507055635
 20
250.196300831804
 11
134.508446229324
 21
247.696300831804
  0
LINE
  5
4D4
100
AcDbEntity
  8
0-0
100
AcDbLine
  6
CONTINUOUS
370
50
 10
133.06507055635
 20
250.196300831804
 11
131.621694883376
 21
247.696300831803
  0
LINE
  5
4D5
100
AcDbEntity
  8
0-0
100
AcDbLine
  6
CONTINUOUS
370
50
 10
132.26507055635
 20
247.696300831804
 11
132.26507055635
 21
246.696300831804
  0
LINE
  5
4D6
100
AcDbEntity
  8
0-0
100
AcDbLine
  6
CONTINUOUS
370
50
 10
133.86507055635
 20
247.696300831804
 11
133.86507055635
 21
246.696300831804
  0
LINE
  5
4D7
100
AcDbEntity
  8
0-0
100
AcDbLine
  6
CONTINUOUS
370
50
 10
109.820989810578
 20
247.777326480273
 11
109.820989810578
 21
246.177326480273
  0
LINE
  5
4D8
100
AcDbEntity
  8
0-0
100
AcDbLine
  6
CONTINUOUS
370
50
 10
109.520989810578
 20
247.777326480273
 11
109.520989810578
 21
246.177326480273
  0
LINE
  5
4D9
100
AcDbEntity
  8
0-0
100
AcDbLine
  6
CONTINUOUS
370
50
 10
108.520989810578
 20
247.777326480273
 11
108.520989810578
 21
246.177326480273
  0
LINE
  5
4DA
100
AcDbEntity
  8
0-0
100
AcDbLine
  6
CONTINUOUS
370
50
 10
108.220989810578
 20
247.777326480273
 11
108.220989810578
 21
246.177326480273
  0
LINE
  5
4DB
100
AcDbEntity
  8
0-0
100
AcDbLine
  6
CONTINUOUS
370
50
 10
112.820989810578
 20
246.177326480273
 11
109.820989810578
 21
246.177326480273
  0
LINE
  5
4DC
100
AcDbEntity
  8
0-0
100
AcDbLine
  6
CONTINUOUS
370
50
 10
112.820989810578
 20
247.777326480273
 11
109.820989810578
 21
247.777326480273
  0
LINE
  5
4DD
100
AcDbEntity
  8
0-0
100
AcDbLine
  6
CONTINUOUS
370
50
 10
109.520989810578
 20
247.777326480273
 11
108.520989810578
 21
247.777326480273
  0
LINE
  5
4DE
100
AcDbEntity
  8
0-0
100
AcDbLine
  6
CONTINUOUS
370
50
 10
109.520989810578
 20
246.177326480273
 11
108.520989810578
 21
246.177326480273
  0
LINE
  5
4DF
100
AcDbEntity
  8
0-0
100
AcDbLine
  6
CONTINUOUS
370
50
 10
107.120989810578
 20
247.777326480273
 11
107.120989810578
 21
246.177326480273
  0
LINE
  5
4E0
100
AcDbEntity
  8
0-0
100
AcDbLine
  6
CONTINUOUS
370
50
 10
108.220989810578
 20
247.777326480273
 11
107.620989810578
 21
247.777326480273
  0
LINE
  5
4E1
100
AcDbEntity
  8
0-0
100
AcDbLine
  6
CONTINUOUS
370
50
 10
107.320989810578
 20
247.777326480273
 11
107.120989810578
 21
247.777326480273
  0
LINE
  5
4E2
100
AcDbEntity
  8
0-0
100
AcDbLine
  6
CONTINUOUS
370
50
 10
108.220989810578
 20
246.177326480273
 11
107.620989810578
 21
246.177326480273
  0
LINE
  5
4E3
100
AcDbEntity
  8
0-0
100
AcDbLine
  6
CONTINUOUS
370
50
 10
107.320989810578
 20
246.177326480273
 11
107.120989810578
 21
246.177326480273
  0
LINE
  5
4E4
100
AcDbEntity
  8
0-0
100
AcDbLine
  6
CONTINUOUS
370
50
 10
107.320989810578
 20
247.777326480273
 11
107.320989810578
 21
246.177326480273
  0
LINE
  5
4E5
100
AcDbEntity
  8
0-0
100
AcDbLine
  6
CONTINUOUS
370
50
 10
107.620989810578
 20
247.777326480273
 11
107.620989810578
 21
246.177326480273
  0
LINE
  5
4E6
100
AcDbEntity
  8
0-0
100
AcDbLine
  6
CONTINUOUS
370
50
 10
132.26507055635
 20
246.396300831803
 11
133.86507055635
 21
246.396300831803
  0
LINE
  5
4E7
100
AcDbEntity
  8
0-0
100
AcDbLine
  6
CONTINUOUS
370
50
 10
132.26507055635
 20
245.396300831803
 11
133.86507055635
 21
245.396300831804
  0
LINE
  5
4E8
100
AcDbEntity
  8
0-0
100
AcDbLine
  6
CONTINUOUS
370
50
 10
132.26507055635
 20
245.096300831804
 11
133.86507055635
 21
245.096300831804
  0
LINE
  5
4E9
100
AcDbEntity
  8
0-0
100
AcDbLine
  6
CONTINUOUS
370
50
 10
132.26507055635
 20
246.396300831803
 11
132.26507055635
 21
245.396300831803
  0
LINE
  5
4EA
100
AcDbEntity
  8
0-0
100
AcDbLine
  6
CONTINUOUS
370
50
 10
133.86507055635
 20
246.396300831803
 11
133.86507055635
 21
245.396300831804
  0
LINE
  5
4EB
100
AcDbEntity
  8
0-0
100
AcDbLine
  6
CONTINUOUS
370
50
 10
132.26507055635
 20
243.996300831804
 11
133.86507055635
 21
243.996300831804
  0
LINE
  5
4EC
100
AcDbEntity
  8
0-0
100
AcDbLine
  6
CONTINUOUS
370
50
 10
132.26507055635
 20
245.096300831804
 11
132.26507055635
 21
244.496300831804
  0
LINE
  5
4ED
100
AcDbEntity
  8
0-0
100
AcDbLine
  6
CONTINUOUS
370
50
 10
132.26507055635
 20
244.196300831804
 11
132.26507055635
 21
243.996300831804
  0
LINE
  5
4EE
100
AcDbEntity
  8
0-0
100
AcDbLine
  6
CONTINUOUS
370
50
 10
133.86507055635
 20
245.096300831804
 11
133.86507055635
 21
244.496300831804
  0
LINE
  5
4EF
100
AcDbEntity
  8
0-0
100
AcDbLine
  6
CONTINUOUS
370
50
 10
133.86507055635
 20
244.196300831804
 11
133.86507055635
 21
243.996300831804
  0
LINE
  5
4F0
100
AcDbEntity
  8
0-0
100
AcDbLine
  6
CONTINUOUS
370
50
 10
132.26507055635
 20
244.196300831804
 11
133.86507055635
 21
244.196300831804
  0
LINE
  5
4F1
100
AcDbEntity
  8
0-0
100
AcDbLine
  6
CONTINUOUS
370
50
 10
132.26507055635
 20
244.496300831804
 11
133.86507055635
 21
244.496300831804
  0
LINE
  5
4F2
100
AcDbEntity
  8
0-0
100
AcDbLine
  6
CONTINUOUS
370
50
 10
132.26507055635
 20
246.696300831804
 11
133.86507055635
 21
246.696300831804
  0
LINE
  5
4F3
100
AcDbEntity
  8
0-0
100
AcDbLine
  6
CONTINUOUS
 62
123
370
50
 10
133.06507055635
 20
242.449634819142
 11
133.06507055635
 21
242.449634819142
  0
TEXT
  5
4F4
100
AcDbEntity
  8
0-0
100
AcDbText
  6
CONTINUOUS
 10
189.669849159085
 20
252.194495172064
 40
5
  1
MODE
  7
Font_0
 11
189.669849159085
 21
257.194495172064
100
AcDbText
 73
3
  0
TEXT
  5
4F5
100
AcDbEntity
  8
0-0
100
AcDbText
  6
CONTINUOUS
 10
190.00972907667
 20
243.687677356073
 40
4
  1
START
  7
Font_0
 11
190.00972907667
 21
247.687677356073
100
AcDbText
 73
3
  0
TEXT
  5
4F6
100
AcDbEntity
  8
0-0
100
AcDbText
  6
CONTINUOUS
 10
191.161356480965
 20
239.257504636345
 40
4
  1
STOP
  7
Font_0
 11
191.161356480965
 21
243.257504636345
100
AcDbText
 73
3
  0
TEXT
  5
4F7
100
AcDbEntity
  8
0-0
100
AcDbText
  6
CONTINUOUS
 10
148.986593590391
 20
267.799521808063
 40
3.5
  1
PRESET VALUE(ml)
  7
Font_0
 11
148.986593590391
 21
271.299521808063
100
AcDbText
 73
3
  0
TEXT
  5
4F8
100
AcDbEntity
  8
0-0
100
AcDbText
  6
CONTINUOUS
 10
149.024985744692
 20
263.932066436944
 40
3.5
  1
FLOW RATE(ml/min)
  7
Font_0
 11
149.024985744692
 21
267.432066436944
100
AcDbText
 73
3
  0
TEXT
  5
4F9
100
AcDbEntity
  8
0-0
100
AcDbText
  6
CONTINUOUS
 10
149.024985744692
 20
260.056054514641
 40
3.5
  1
INT.TIM/SUCT.TIM
  7
Font_0
 11
149.024985744692
 21
263.556054514641
100
AcDbText
 73
3
  0
TEXT
  5
4FA
100
AcDbEntity
  8
0-0
100
AcDbText
  6
CONTINUOUS
 10
148.810925585844
 20
271.531575429521
 40
3.5
  1
FORWARD
  7
Font_0
 11
148.810925585844
 21
275.031575429521
100
AcDbText
 73
3
  0
LINE
  5
4FB
100
AcDbEntity
  8
0-0
100
AcDbLine
  6
CONTINUOUS
370
50
 10
112.677863258293
 20
108.280455156942
 11
112.677863258293
 21
107.773997293225
  0
LINE
  5
4FC
100
AcDbEntity
  8
0-0
100
AcDbLine
  6
CONTINUOUS
370
50
 10
112.677863258293
 20
106.514495860415
 11
112.677863258293
 21
106.008037996698
  0
LINE
  5
4FD
100
AcDbEntity
  8
0-0
100
AcDbLine
  6
CONTINUOUS
370
50
 10
115.177863258293
 20
107.14424657682
 11
112.677863258293
 21
106.008037996698
  0
LINE
  5
4FE
100
AcDbEntity
  8
0-0
100
AcDbLine
  6
CONTINUOUS
370
50
 10
115.177863258293
 20
107.14424657682
 11
112.677863258293
 21
108.280455156942
  0
LINE
  5
4FF
100
AcDbEntity
  8
0-0
100
AcDbLine
  6
CONTINUOUS
370
50
 10
131.478568331091
 20
107.710214843012
 11
132.121944004066
 21
107.710214843012
  0
LINE
  5
500
100
AcDbEntity
  8
0-0
100
AcDbLine
  6
CONTINUOUS
370
50
 10
133.721944004065
 20
107.710214843012
 11
134.36531967704
 21
107.710214843012
  0
LINE
  5
501
100
AcDbEntity
  8
0-0
100
AcDbLine
  6
CONTINUOUS
370
50
 10
132.921944004065
 20
109.678185831779
 11
134.36531967704
 21
107.710214843012
  0
LINE
  5
502
100
AcDbEntity
  8
0-0
100
AcDbLine
  6
CONTINUOUS
370
50
 10
132.921944004065
 20
109.678185831779
 11
131.478568331091
 21
107.710214843012
  0
LINE
  5
503
100
AcDbEntity
  8
0-0
100
AcDbLine
  6
CONTINUOUS
370
50
 10
132.121944004066
 20
107.710214843012
 11
132.121944004066
 21
106.923026447505
  0
LINE
  5
504
100
AcDbEntity
  8
0-0
100
AcDbLine
  6
CONTINUOUS
370
50
 10
133.721944004065
 20
107.710214843012
 11
133.721944004065
 21
106.923026447505
  0
LINE
  5
505
100
AcDbEntity
  8
0-0
100
AcDbLine
  6
CONTINUOUS
370
50
 10
109.677863258293
 20
107.773997293226
 11
109.677863258293
 21
106.514495860415
  0
LINE
  5
506
100
AcDbEntity
  8
0-0
100
AcDbLine
  6
CONTINUOUS
370
50
 10
109.377863258293
 20
107.773997293225
 11
109.377863258293
 21
106.514495860415
  0
LINE
  5
507
100
AcDbEntity
  8
0-0
100
AcDbLine
  6
CONTINUOUS
370
50
 10
108.377863258293
 20
107.773997293226
 11
108.377863258293
 21
106.514495860415
  0
LINE
  5
508
100
AcDbEntity
  8
0-0
100
AcDbLine
  6
CONTINUOUS
370
50
 10
108.077863258293
 20
107.773997293226
 11
108.077863258293
 21
106.514495860415
  0
LINE
  5
509
100
AcDbEntity
  8
0-0
100
AcDbLine
  6
CONTINUOUS
370
50
 10
112.677863258293
 20
106.514495860415
 11
109.677863258293
 21
106.514495860415
  0
LINE
  5
50A
100
AcDbEntity
  8
0-0
100
AcDbLine
  6
CONTINUOUS
370
50
 10
112.677863258293
 20
107.773997293225
 11
109.677863258293
 21
107.773997293226
  0
LINE
  5
50B
100
AcDbEntity
  8
0-0
100
AcDbLine
  6
CONTINUOUS
370
50
 10
109.377863258293
 20
107.773997293225
 11
108.377863258293
 21
107.773997293226
  0
LINE
  5
50C
100
AcDbEntity
  8
0-0
100
AcDbLine
  6
CONTINUOUS
370
50
 10
109.377863258293
 20
106.514495860415
 11
108.377863258293
 21
106.514495860415
  0
LINE
  5
50D
100
AcDbEntity
  8
0-0
100
AcDbLine
  6
CONTINUOUS
370
50
 10
106.977863258293
 20
107.773997293226
 11
106.977863258293
 21
106.514495860415
  0
LINE
  5
50E
100
AcDbEntity
  8
0-0
100
AcDbLine
  6
CONTINUOUS
370
50
 10
108.077863258293
 20
107.773997293226
 11
107.477863258293
 21
107.773997293226
  0
LINE
  5
50F
100
AcDbEntity
  8
0-0
100
AcDbLine
  6
CONTINUOUS
370
50
 10
107.177863258293
 20
107.773997293226
 11
106.977863258293
 21
107.773997293226
  0
LINE
  5
510
100
AcDbEntity
  8
0-0
100
AcDbLine
  6
CONTINUOUS
370
50
 10
108.077863258293
 20
106.514495860415
 11
107.477863258293
 21
106.514495860415
  0
LINE
  5
511
100
AcDbEntity
  8
0-0
100
AcDbLine
  6
CONTINUOUS
370
50
 10
107.177863258293
 20
106.514495860415
 11
106.977863258293
 21
106.514495860415
  0
LINE
  5
512
100
AcDbEntity
  8
0-0
100
AcDbLine
  6
CONTINUOUS
370
50
 10
107.177863258293
 20
107.773997293226
 11
107.177863258293
 21
106.514495860415
  0
LINE
  5
513
100
AcDbEntity
  8
0-0
100
AcDbLine
  6
CONTINUOUS
370
50
 10
107.477863258293
 20
107.773997293226
 11
107.477863258293
 21
106.514495860415
  0
LINE
  5
514
100
AcDbEntity
  8
0-0
100
AcDbLine
  6
CONTINUOUS
370
50
 10
132.121944004066
 20
106.686869928853
 11
133.721944004065
 21
106.686869928853
  0
LINE
  5
515
100
AcDbEntity
  8
0-0
100
AcDbLine
  6
CONTINUOUS
370
50
 10
132.121944004066
 20
105.899681533346
 11
133.721944004065
 21
105.899681533346
  0
LINE
  5
516
100
AcDbEntity
  8
0-0
100
AcDbLine
  6
CONTINUOUS
370
50
 10
132.121944004066
 20
105.663525014694
 11
133.721944004065
 21
105.663525014694
  0
LINE
  5
517
100
AcDbEntity
  8
0-0
100
AcDbLine
  6
CONTINUOUS
370
50
 10
132.121944004066
 20
106.686869928853
 11
132.121944004066
 21
105.899681533346
  0
LINE
  5
518
100
AcDbEntity
  8
0-0
100
AcDbLine
  6
CONTINUOUS
370
50
 10
133.721944004065
 20
106.686869928853
 11
133.721944004065
 21
105.899681533346
  0
LINE
  5
519
100
AcDbEntity
  8
0-0
100
AcDbLine
  6
CONTINUOUS
370
50
 10
132.121944004066
 20
104.797617779637
 11
133.721944004065
 21
104.797617779637
  0
LINE
  5
51A
100
AcDbEntity
  8
0-0
100
AcDbLine
  6
CONTINUOUS
370
50
 10
132.121944004066
 20
105.663525014694
 11
132.121944004066
 21
105.19121197739
  0
LINE
  5
51B
100
AcDbEntity
  8
0-0
100
AcDbLine
  6
CONTINUOUS
370
50
 10
132.121944004066
 20
104.955055458738
 11
132.121944004066
 21
104.797617779637
  0
LINE
  5
51C
100
AcDbEntity
  8
0-0
100
AcDbLine
  6
CONTINUOUS
370
50
 10
133.721944004065
 20
105.663525014694
 11
133.721944004065
 21
105.19121197739
  0
LINE
  5
51D
100
AcDbEntity
  8
0-0
100
AcDbLine
  6
CONTINUOUS
370
50
 10
133.721944004066
 20
104.955055458738
 11
133.721944004065
 21
104.797617779637
  0
LINE
  5
51E
100
AcDbEntity
  8
0-0
100
AcDbLine
  6
CONTINUOUS
370
50
 10
132.121944004066
 20
104.955055458738
 11
133.721944004066
 21
104.955055458738
  0
LINE
  5
51F
100
AcDbEntity
  8
0-0
100
AcDbLine
  6
CONTINUOUS
370
50
 10
132.121944004066
 20
105.19121197739
 11
133.721944004065
 21
105.19121197739
  0
LINE
  5
520
100
AcDbEntity
  8
0-0
100
AcDbLine
  6
CONTINUOUS
370
50
 10
132.121944004066
 20
106.923026447505
 11
133.721944004065
 21
106.923026447505
  0
LINE
  5
521
100
AcDbEntity
  8
0-0
100
AcDbLine
  6
CONTINUOUS
 62
123
370
50
 10
132.921944004065
 20
103.580100242745
 11
132.921944004065
 21
103.580100242745
  0
TEXT
  5
522
100
AcDbEntity
  8
0-0
100
AcDbText
  6
CONTINUOUS
 10
190.097902274446
 20
110.573726215411
 40
3.93594197753398
 41
1.27034393000191
  1
MODE
  7
Font_0
 11
190.097902274446
 21
114.509668192945
100
AcDbText
 73
3
  0
TEXT
  5
523
100
AcDbEntity
  8
0-0
100
AcDbText
  6
CONTINUOUS
 10
190.2034216185
 20
104.737550177608
 40
3.14875358202718
 41
1.27034393000191
  1
START
  7
Font_0
 11
190.2034216185
 21
107.886303759635
100
AcDbText
 73
3
  0
TEXT
  5
524
100
AcDbEntity
  8
0-0
100
AcDbText
  6
CONTINUOUS
 10
191.355049022796
 20
101.250169622547
 40
3.14875358202718
 41
1.27034393000191
  1
STOP
  7
Font_0
 11
191.355049022796
 21
104.398923204575
100
AcDbText
 73
3
  0
TEXT
  5
525
100
AcDbEntity
  8
0-0
100
AcDbText
  6
CONTINUOUS
 10
193.927127109681
 20
212.962862193932
 40
6
  1
<<<   >>>
  7
Font_0
 11
193.927127109681
 21
218.962862193932
100
AcDbText
 73
3
  0
TEXT
  5
526
100
AcDbEntity
  8
0-0
100
AcDbText
  6
CONTINUOUS
 10
106.332642174276
 20
239.831315064102
 40
3
  1
FORWARD
  7
Font_0
 11
106.332642174276
 21
242.831315064102
100
AcDbText
 73
3
  0
TEXT
  5
527
100
AcDbEntity
  8
0-0
100
AcDbText
  6
CONTINUOUS
 10
127.943054524407
 20
239.833194643638
 40
3
  1
BACKWARD
  7
Font_0
 11
127.943054524407
 21
242.833194643638
100
AcDbText
 73
3
  0
TEXT
  5
528
100
AcDbEntity
  8
0-0
100
AcDbText
  6
CONTINUOUS
 10
106.189515621991
 20
101.503668005932
 40
2.36156518652038
 41
1.27034393000191
  1
FORWARD
  7
Font_0
 11
106.189515621991
 21
103.865233192452
100
AcDbText
 73
3
  0
TEXT
  5
529
100
AcDbEntity
  8
0-0
100
AcDbText
  6
CONTINUOUS
 10
127.799927972122
 20
101.505147589131
 40
2.36156518652038
 41
1.27034393000191
  1
BACKWARD
  7
Font_0
 11
127.799927972122
 21
103.866712775652
100
AcDbText
 73
3
  0
TEXT
  5
52A
100
AcDbEntity
  8
0-0
100
AcDbText
  6
CONTINUOUS
 10
148.843467038106
 20
121.545133506199
 40
2.75515938427379
 41
1.27034393000191
  1
PRESET VALUE(ml)
  7
Font_0
 11
148.843467038106
 21
124.300292890473
100
AcDbText
 73
3
  0
TEXT
  5
52B
100
AcDbEntity
  8
0-0
100
AcDbText
  6
CONTINUOUS
 10
148.881859192407
 20
119.184589813339
 40
2.75515938427379
 41
1.27034393000191
  1
FLOW RATE(ml/min)
  7
Font_0
 11
148.881859192407
 21
121.939749197613
100
AcDbText
 73
3
  0
TEXT
  5
52C
100
AcDbEntity
  8
0-0
100
AcDbText
  6
CONTINUOUS
 10
148.881859192407
 20
116.619217058407
 40
2.75515938427379
 41
1.27034393000191
  1
INT.TIM/CUCT.TIM
  7
Font_0
 11
148.881859192407
 21
119.374376442681
100
AcDbText
 73
3
  0
TEXT
  5
52D
100
AcDbEntity
  8
0-0
100
AcDbText
  6
CONTINUOUS
 10
148.667799033559
 20
124.086775919873
 40
2.75515938427379
 41
1.27034393000191
  1
FORWARD
  7
Font_0
 11
148.667799033559
 21
126.841935304147
100
AcDbText
 73
3
  0
TEXT
  5
52E
100
AcDbEntity
  8
0-0
100
AcDbText
  6
CONTINUOUS
 10
85.1328070792316
 20
262.151888509836
 40
4
  1
POWER
  7
Font_0
 11
85.1328070792316
 21
266.151888509836
100
AcDbText
 73
3
  0
TEXT
  5
52F
100
AcDbEntity
  8
0-0
100
AcDbText
  6
CONTINUOUS
 10
84.9896805269467
 20
118.229150062134
 40
3.14875358202718
 41
1.27034393000191
  1
POWER
  7
Font_0
 11
84.9896805269467
 21
121.377903644161
100
AcDbText
 73
3
  0
LINE
  5
530
100
AcDbEntity
  8
0-0
100
AcDbLine
  6
CONTINUOUS
370
50
 10
305.876030525014
 20
216.249210587102
 11
305.318850848042
 21
215.927522750615
  0
LINE
  5
531
100
AcDbEntity
  8
0-0
100
AcDbLine
  6
CONTINUOUS
370
50
 10
303.933210201986
 20
215.127522750615
 11
303.376030525014
 21
214.805834914128
  0
LINE
  5
532
100
AcDbEntity
  8
0-0
100
AcDbLine
  6
CONTINUOUS
370
50
 10
305.876030525014
 20
213.362459241154
 11
303.376030525014
 21
214.805834914128
  0
LINE
  5
533
100
AcDbEntity
  8
0-0
100
AcDbLine
  6
CONTINUOUS
370
50
 10
305.876030525014
 20
213.362459241154
 11
305.876030525014
 21
216.249210587102
  0
LINE
  5
534
100
AcDbEntity
  8
0-0
100
AcDbLine
  6
CONTINUOUS
370
50
 10
314.649033114508
 20
199.605121724278
 11
314.970720950995
 21
199.047942047306
  0
LINE
  5
535
100
AcDbEntity
  8
0-0
100
AcDbLine
  6
CONTINUOUS
370
50
 10
315.770720950995
 20
197.662301401251
 11
316.092408787482
 21
197.105121724278
  0
LINE
  5
536
100
AcDbEntity
  8
0-0
100
AcDbLine
  6
CONTINUOUS
370
50
 10
317.535784460456
 20
199.605121724278
 11
316.092408787482
 21
197.105121724278
  0
LINE
  5
537
100
AcDbEntity
  8
0-0
100
AcDbLine
  6
CONTINUOUS
370
50
 10
317.535784460456
 20
199.605121724278
 11
314.649033114508
 21
199.605121724278
  0
LINE
  5
538
100
AcDbEntity
  8
0-0
100
AcDbLine
  6
CONTINUOUS
370
50
 10
314.970720950995
 20
199.047942047306
 11
314.104695547211
 21
198.547942047306
  0
LINE
  5
539
100
AcDbEntity
  8
0-0
100
AcDbLine
  6
CONTINUOUS
370
50
 10
315.770720950995
 20
197.662301401251
 11
314.904695547211
 21
197.162301401251
  0
LINE
  5
53A
100
AcDbEntity
  8
0-0
100
AcDbLine
  6
CONTINUOUS
370
50
 10
303.818850848042
 20
218.525598961968
 11
302.433210201986
 21
217.725598961968
  0
LINE
  5
53B
100
AcDbEntity
  8
0-0
100
AcDbLine
  6
CONTINUOUS
370
50
 10
303.668850848042
 20
218.785406583104
 11
302.283210201986
 21
217.985406583104
  0
LINE
  5
53C
100
AcDbEntity
  8
0-0
100
AcDbLine
  6
CONTINUOUS
370
50
 10
303.168850848042
 20
219.651431986888
 11
301.783210201987
 21
218.851431986888
  0
LINE
  5
53D
100
AcDbEntity
  8
0-0
100
AcDbLine
  6
CONTINUOUS
370
50
 10
303.018850848042
 20
219.911239608023
 11
301.633210201987
 21
219.111239608023
  0
LINE
  5
53E
100
AcDbEntity
  8
0-0
100
AcDbLine
  6
CONTINUOUS
370
50
 10
303.933210201986
 20
215.127522750615
 11
302.433210201986
 21
217.725598961968
  0
LINE
  5
53F
100
AcDbEntity
  8
0-0
100
AcDbLine
  6
CONTINUOUS
370
50
 10
305.318850848042
 20
215.927522750615
 11
303.818850848042
 21
218.525598961968
  0
LINE
  5
540
100
AcDbEntity
  8
0-0
100
AcDbLine
  6
CONTINUOUS
370
50
 10
303.668850848042
 20
218.785406583104
 11
303.168850848042
 21
219.651431986888
  0
LINE
  5
541
100
AcDbEntity
  8
0-0
100
AcDbLine
  6
CONTINUOUS
370
50
 10
302.283210201986
 20
217.985406583104
 11
301.783210201987
 21
218.851431986888
  0
LINE
  5
542
100
AcDbEntity
  8
0-0
100
AcDbLine
  6
CONTINUOUS
370
50
 10
302.468850848042
 20
220.863867552186
 11
301.083210201987
 21
220.063867552186
  0
LINE
  5
543
100
AcDbEntity
  8
0-0
100
AcDbLine
  6
CONTINUOUS
370
50
 10
303.018850848042
 20
219.911239608023
 11
302.718850848042
 21
220.430854850294
  0
LINE
  5
544
100
AcDbEntity
  8
0-0
100
AcDbLine
  6
CONTINUOUS
370
50
 10
302.568850848042
 20
220.690662471429
 11
302.468850848042
 21
220.863867552186
  0
LINE
  5
545
100
AcDbEntity
  8
0-0
100
AcDbLine
  6
CONTINUOUS
370
50
 10
301.633210201987
 20
219.111239608023
 11
301.333210201987
 21
219.630854850294
  0
LINE
  5
546
100
AcDbEntity
  8
0-0
100
AcDbLine
  6
CONTINUOUS
370
50
 10
301.183210201986
 20
219.890662471429
 11
301.083210201987
 21
220.063867552186
  0
LINE
  5
547
100
AcDbEntity
  8
0-0
100
AcDbLine
  6
CONTINUOUS
370
50
 10
302.568850848042
 20
220.690662471429
 11
301.183210201986
 21
219.890662471429
  0
LINE
  5
548
100
AcDbEntity
  8
0-0
100
AcDbLine
  6
CONTINUOUS
370
50
 10
302.718850848042
 20
220.430854850294
 11
301.333210201987
 21
219.630854850294
  0
LINE
  5
549
100
AcDbEntity
  8
0-0
100
AcDbLine
  6
CONTINUOUS
370
50
 10
313.844887926076
 20
198.397942047306
 11
314.644887926076
 21
197.012301401251
  0
LINE
  5
54A
100
AcDbEntity
  8
0-0
100
AcDbLine
  6
CONTINUOUS
370
50
 10
312.978862522291
 20
197.897942047306
 11
313.778862522291
 21
196.512301401251
  0
LINE
  5
54B
100
AcDbEntity
  8
0-0
100
AcDbLine
  6
CONTINUOUS
370
50
 10
312.719054901156
 20
197.747942047306
 11
313.519054901156
 21
196.362301401251
  0
LINE
  5
54C
100
AcDbEntity
  8
0-0
100
AcDbLine
  6
CONTINUOUS
370
50
 10
313.844887926076
 20
198.397942047306
 11
312.978862522291
 21
197.897942047306
  0
LINE
  5
54D
100
AcDbEntity
  8
0-0
100
AcDbLine
  6
CONTINUOUS
370
50
 10
314.644887926076
 20
197.012301401251
 11
313.778862522291
 21
196.512301401251
  0
LINE
  5
54E
100
AcDbEntity
  8
0-0
100
AcDbLine
  6
CONTINUOUS
370
50
 10
311.766426956993
 20
197.197942047306
 11
312.566426956993
 21
195.812301401251
  0
LINE
  5
54F
100
AcDbEntity
  8
0-0
100
AcDbLine
  6
CONTINUOUS
370
50
 10
312.719054901156
 20
197.747942047306
 11
312.199439658885
 21
197.447942047306
  0
LINE
  5
550
100
AcDbEntity
  8
0-0
100
AcDbLine
  6
CONTINUOUS
370
50
 10
311.93963203775
 20
197.297942047306
 11
311.766426956993
 21
197.197942047306
  0
LINE
  5
551
100
AcDbEntity
  8
0-0
100
AcDbLine
  6
CONTINUOUS
370
50
 10
313.519054901156
 20
196.362301401251
 11
312.999439658885
 21
196.062301401251
  0
LINE
  5
552
100
AcDbEntity
  8
0-0
100
AcDbLine
  6
CONTINUOUS
370
50
 10
312.73963203775
 20
195.912301401251
 11
312.566426956993
 21
195.812301401251
  0
LINE
  5
553
100
AcDbEntity
  8
0-0
100
AcDbLine
  6
CONTINUOUS
370
50
 10
311.93963203775
 20
197.297942047306
 11
312.73963203775
 21
195.912301401251
  0
LINE
  5
554
100
AcDbEntity
  8
0-0
100
AcDbLine
  6
CONTINUOUS
370
50
 10
312.199439658885
 20
197.447942047306
 11
312.999439658885
 21
196.062301401251
  0
LINE
  5
555
100
AcDbEntity
  8
0-0
100
AcDbLine
  6
CONTINUOUS
370
50
 10
314.104695547211
 20
198.547942047306
 11
314.904695547211
 21
197.162301401251
  0
LINE
  5
556
100
AcDbEntity
  8
0-0
100
AcDbLine
  6
CONTINUOUS
 62
123
370
50
 10
310.826974898858
 20
195.731788717947
 11
310.826974898858
 21
195.731788717947
  0
TEXT
  5
557
100
AcDbEntity
  8
0-0
100
AcDbText
  6
CONTINUOUS
 10
349.096594412162
 20
151.920154252945
 40
5
  1
MODE
  7
Font_0
 50
-60
 11
353.426721431084
 21
154.420154252945
100
AcDbText
 73
3
  0
TEXT
  5
558
100
AcDbEntity
  8
0-0
100
AcDbText
  6
CONTINUOUS
 10
338.617199060357
 20
145.516642538854
 40
4
  1
START
  7
Font_0
 50
-60
 11
342.081300675495
 21
147.516642538854
100
AcDbText
 73
3
  0
TEXT
  5
559
100
AcDbEntity
  8
0-0
100
AcDbText
  6
CONTINUOUS
 10
335.356370644068
 20
142.304217591176
 40
4
  1
STOP
  7
Font_0
 50
-60
 11
338.820472259206
 21
144.304217591176
100
AcDbText
 73
3
  0
LINE
  5
55A
100
AcDbEntity
  8
0-0
100
AcDbLine
  6
CONTINUOUS
370
50
 10
311.240679364861
 20
195.789647666546
 11
311.064089846289
 21
195.695753353989
  0
MTEXT
  5
55B
100
AcDbEntity
  8
0-0
100
AcDbMText
 10
349.780523233646
 20
200.06833238294
 40
3.5
 41
  0.0
  1
PRESET VALUE(\C7;ml)
  7
Font_0
 11
0.469471562785891
 21
-0.882947592858927
  0
MTEXT
  5
55C
100
AcDbEntity
  8
0-0
100
AcDbMText
 10
345.419293852306
 20
198.266237391916
 40
3.5
 41
  0.0
  1
FLOW RATE(ml/min)\P
  7
Font_0
 11
0.469471562785891
 21
-0.882947592858927
  0
TEXT
  5
55D
100
AcDbEntity
  8
0-0
100
AcDbText
  6
CONTINUOUS
 10
337.376768596952
 20
193.702569859648
 40
3.5
  1
INT.TIM/CUCT.TIM
  7
Font_0
 50
-62
 11
340.467085171958
 21
195.345720329399
100
AcDbText
 73
3
  0
TEXT
  5
55E
100
AcDbEntity
  8
0-0
100
AcDbText
  6
CONTINUOUS
 10
350.47723386515
 20
200.965426076613
 40
3.5
  1
FORWARD
  7
Font_0
 50
-62
 11
353.567550440156
 21
202.608576546364
100
AcDbText
 73
3
  0
TEXT
  5
55F
100
AcDbEntity
  8
0-0
100
AcDbText
  6
CONTINUOUS
 10
294.282930577553
 20
218.519689630879
 40
3
  1
FORWARD
  7
Font_0
 50
-62
 11
296.93177335613
 21
219.928104319236
100
AcDbText
 73
3
  0
TEXT
  5
560
100
AcDbEntity
  8
0-0
100
AcDbText
  6
CONTINUOUS
 10
304.608067137273
 20
198.970123186064
 40
3
  1
BACKWARD
  7
Font_0
 50
-62
 11
307.25690991585
 21
200.378537874422
100
AcDbText
 73
3
  0
TEXT
  5
561
100
AcDbEntity
  8
0-0
100
AcDbText
  6
CONTINUOUS
 10
311.037251491662
 20
250.885430827905
 40
4
  1
POWER
  7
Font_0
 50
-62
 11
314.569041863098
 21
252.763317079048
100
AcDbText
 73
3
  0
LINE
  5
562
100
AcDbEntity
  8
0-0
100
AcDbLine
  6
CONTINUOUS
370
50
 10
226.065070556351
 20
88.3847429456812
 11
66.0650705563507
 21
88.3847429456812
  0
CIRCLE
  5
563
100
AcDbEntity
  8
0-0
100
AcDbCircle
  6
BYLAYER
 62
1
370
13
 10
76.0650705563507
 20
58.5727644808515
 40
3.1
  0
CIRCLE
  5
564
100
AcDbEntity
  8
0-0
100
AcDbCircle
  6
BYLAYER
370
13
 10
76.0650705563507
 20
58.5727644808515
 40
4
  0
CIRCLE
  5
565
100
AcDbEntity
  8
0-0
100
AcDbCircle
  6
BYLAYER
370
13
 10
76.0650705563507
 20
58.5727644808515
 40
2.80000000000001
  0
CIRCLE
  5
566
100
AcDbEntity
  8
0-0
100
AcDbCircle
  6
BYLAYER
370
13
 10
76.0650705563507
 20
58.5727644808515
 40
1.75
  0
CIRCLE
  5
567
100
AcDbEntity
  8
0-0
100
AcDbCircle
  6
CONTINUOUS
370
13
 10
76.0650705563507
 20
58.5727644808515
 40
3.1
  0
CIRCLE
  5
568
100
AcDbEntity
  8
0-0
100
AcDbCircle
  6
BYLAYER
370
13
 10
76.0650705563507
 20
58.5727644808514
 40
1.75
  0
CIRCLE
  5
569
100
AcDbEntity
  8
0-0
100
AcDbCircle
  6
CONTINUOUS
370
13
 10
76.0650705563507
 20
58.5727644808514
 40
2.75
  0
CIRCLE
  5
56A
100
AcDbEntity
  8
0-0
100
AcDbCircle
  6
CONTINUOUS
370
13
 10
76.0650705563507
 20
58.5727644808515
 40
3.1
  0
CIRCLE
  5
56B
100
AcDbEntity
  8
0-0
100
AcDbCircle
  6
CONTINUOUS
370
50
 10
76.0650705563507
 20
58.5727644808514
 40
3.25
  0
LINE
  5
56C
100
AcDbEntity
  8
0-0
100
AcDbLine
  6
BYLAYER
370
13
 10
327.337577481533
 20
54.5727644808513
 11
327.337577481533
 21
62.5727644808514
  0
LINE
  5
56D
100
AcDbEntity
  8
0-0
100
AcDbLine
  6
BYLAYER
370
13
 10
328.837577481533
 20
54.5727644808513
 11
328.837577481533
 21
62.5727644808514
  0
LINE
  5
56E
100
AcDbEntity
  8
0-0
100
AcDbLine
  6
BYLAYER
370
13
 10
325.537577481533
 20
55.5727644808513
 11
325.537577481533
 21
61.5727644808512
  0
LINE
  5
56F
100
AcDbEntity
  8
0-0
100
AcDbLine
  6
BYLAYER
370
13
 10
325.537577481533
 20
61.3727644808513
 11
327.337577481533
 21
61.3727644808513
  0
LINE
  5
570
100
AcDbEntity
  8
0-0
100
AcDbLine
  6
BYLAYER
370
13
 10
325.537577481533
 20
61.5727644808512
 11
327.337577481533
 21
61.5727644808512
  0
LINE
  5
571
100
AcDbEntity
  8
0-0
100
AcDbLine
  6
BYLAYER
370
13
 10
328.837577481533
 20
62.5727644808514
 11
327.337577481533
 21
62.5727644808514
  0
LINE
  5
572
100
AcDbEntity
  8
0-0
100
AcDbLine
  6
BYLAYER
370
13
 10
325.537577481533
 20
55.7727644808513
 11
327.337577481533
 21
55.7727644808513
  0
LINE
  5
573
100
AcDbEntity
  8
0-0
100
AcDbLine
  6
BYLAYER
370
13
 10
325.537577481533
 20
55.5727644808513
 11
327.337577481533
 21
55.5727644808513
  0
LINE
  5
574
100
AcDbEntity
  8
0-0
100
AcDbLine
  6
BYLAYER
370
13
 10
328.837577481533
 20
54.5727644808513
 11
327.337577481533
 21
54.5727644808513
  0
LINE
  5
575
100
AcDbEntity
  8
0-0
100
AcDbLine
  6
BYLAYER
370
13
 10
80.0650705563507
 20
211.257960517488
 11
72.0650705563507
 21
211.257960517488
  0
LINE
  5
576
100
AcDbEntity
  8
0-0
100
AcDbLine
  6
BYLAYER
370
13
 10
80.0650705563507
 20
212.757960517488
 11
72.0650705563507
 21
212.757960517488
  0
LINE
  5
577
100
AcDbEntity
  8
0-0
100
AcDbLine
  6
BYLAYER
370
13
 10
79.0650705563507
 20
209.457960517488
 11
73.0650705563509
 21
209.457960517488
  0
LINE
  5
578
100
AcDbEntity
  8
0-0
100
AcDbLine
  6
BYLAYER
370
13
 10
73.2650705563508
 20
209.457960517488
 11
73.2650705563508
 21
211.257960517488
  0
LINE
  5
579
100
AcDbEntity
  8
0-0
100
AcDbLine
  6
BYLAYER
370
13
 10
73.0650705563509
 20
209.457960517488
 11
73.0650705563509
 21
211.257960517488
  0
LINE
  5
57A
100
AcDbEntity
  8
0-0
100
AcDbLine
  6
BYLAYER
370
13
 10
72.0650705563507
 20
212.757960517488
 11
72.0650705563507
 21
211.257960517488
  0
LINE
  5
57B
100
AcDbEntity
  8
0-0
100
AcDbLine
  6
BYLAYER
370
13
 10
78.8650705563508
 20
209.457960517488
 11
78.8650705563508
 21
211.257960517488
  0
LINE
  5
57C
100
AcDbEntity
  8
0-0
100
AcDbLine
  6
BYLAYER
370
13
 10
79.0650705563508
 20
209.457960517488
 11
79.0650705563508
 21
211.257960517488
  0
LINE
  5
57D
100
AcDbEntity
  8
0-0
100
AcDbLine
  6
BYLAYER
370
13
 10
80.0650705563507
 20
212.757960517488
 11
80.0650705563507
 21
211.257960517488
  0
LINE
  5
57E
100
AcDbEntity
  8
0-0
100
AcDbLine
  6
CONTINUOUS
370
50
 10
65.0650705563507
 20
310.757960517488
 11
65.0650705563507
 21
264.757960517488
  0
LINE
  5
57F
100
AcDbEntity
  8
0-0
100
AcDbLine
  6
CONTINUOUS
370
50
 10
66.0650705563507
 20
264.757960517488
 11
66.0650705563507
 21
310.757960517488
  0
LINE
  5
580
100
AcDbEntity
  8
0-0
100
AcDbLine
  6
CONTINUOUS
370
50
 10
65.0650705563507
 20
264.757960517488
 11
66.0650705563507
 21
264.757960517488
  0
LINE
  5
581
100
AcDbEntity
  8
0-0
100
AcDbLine
  6
CONTINUOUS
370
50
 10
66.0650705563507
 20
310.757960517488
 11
65.0650705563507
 21
310.757960517488
  0
LINE
  5
582
100
AcDbEntity
  8
0-0
100
AcDbLine
  6
CONTINUOUS
370
50
 10
65.0650705563507
 20
267.757960517488
 11
66.0650705563507
 21
267.757960517488
  0
LINE
  5
583
100
AcDbEntity
  8
0-0
100
AcDbLine
  6
CONTINUOUS
370
50
 10
66.0650705563507
 20
307.757960517488
 11
65.0650705563507
 21
307.757960517488
  0
LWPOLYLINE
  5
584
100
AcDbEntity
  8
0-0
100
AcDbPolyline
  6
CONTINUOUS
370
50
 90
     4
 70
     1
 10
66.0650705563507
  20
84.2727644808514
 10
65.0650705563507
  20
84.2727644808514
 10
65.0650705563507
  20
57.2727644808513
 10
66.0650705563507
  20
57.2727644808513
  0
LWPOLYLINE
  5
585
100
AcDbEntity
  8
0-0
100
AcDbPolyline
  6
CONTINUOUS
370
50
 90
     4
 70
     1
 10
493.700527062375
  20
337.407660328081
 10
492.700527062375
  20
337.407660328081
 10
492.700527062375
  20
310.407660328081
 10
493.700527062375
  20
310.407660328081
  0
CIRCLE
  5
586
100
AcDbEntity
  8
0-0
100
AcDbCircle
  6
CONTINUOUS
370
50
 10
483.139561808469
 20
332.907660328081
 40
1.55
  0
CIRCLE
  5
587
100
AcDbEntity
  8
0-0
100
AcDbCircle
  6
BYLAYER
370
13
 10
483.139561808469
 20
332.907660328081
 40
0.890000000000001
  0
CIRCLE
  5
588
100
AcDbEntity
  8
0-0
100
AcDbCircle
  6
BYLAYER
370
13
 10
483.139561808469
 20
332.907660328081
 40
1.15
  0
LWPOLYLINE
  5
589
100
AcDbEntity
  8
0-0
100
AcDbPolyline
  6
BYLAYER
370
13
 90
     6
 70
     1
 10
481.840523702793
  20
335.157660328081
 10
480.541485597116
  20
332.907660328081
 10
481.840523702793
  20
330.657660328081
 10
484.438599914146
  20
330.657660328081
 10
485.737638019823
  20
332.907660328081
 10
484.438599914146
  20
335.157660328081
  0
CIRCLE
  5
58A
100
AcDbEntity
  8
0-0
100
AcDbCircle
  6
BYLAYER
370
13
 10
483.139561808469
 20
332.907660328081
 40
2.25
  0
CIRCLE
  5
58B
100
AcDbEntity
  8
0-0
100
AcDbCircle
  6
CONTINUOUS
370
50
 10
458.260975808469
 20
332.907660328081
 40
1.55
  0
CIRCLE
  5
58C
100
AcDbEntity
  8
0-0
100
AcDbCircle
  6
BYLAYER
370
13
 10
458.260975808469
 20
332.907660328081
 40
0.890000000000001
  0
CIRCLE
  5
58D
100
AcDbEntity
  8
0-0
100
AcDbCircle
  6
BYLAYER
370
13
 10
458.260975808469
 20
332.907660328081
 40
1.15
  0
LWPOLYLINE
  5
58E
100
AcDbEntity
  8
0-0
100
AcDbPolyline
  6
BYLAYER
370
13
 90
     6
 70
     1
 10
456.961937702793
  20
335.157660328081
 10
455.662899597116
  20
332.907660328081
 10
456.961937702793
  20
330.657660328081
 10
459.560013914146
  20
330.657660328081
 10
460.859052019823
  20
332.907660328081
 10
459.560013914146
  20
335.157660328081
  0
CIRCLE
  5
58F
100
AcDbEntity
  8
0-0
100
AcDbCircle
  6
BYLAYER
370
13
 10
458.260975808469
 20
332.907660328081
 40
2.25
  0
CIRCLE
  5
590
100
AcDbEntity
  8
0-0
100
AcDbCircle
  6
CONTINUOUS
370
50
 10
458.260975808469
 20
312.907660328081
 40
1.55
  0
CIRCLE
  5
591
100
AcDbEntity
  8
0-0
100
AcDbCircle
  6
BYLAYER
370
13
 10
458.260975808469
 20
312.907660328081
 40
0.890000000000001
  0
CIRCLE
  5
592
100
AcDbEntity
  8
0-0
100
AcDbCircle
  6
BYLAYER
370
13
 10
458.260975808469
 20
312.907660328081
 40
1.15
  0
LWPOLYLINE
  5
593
100
AcDbEntity
  8
0-0
100
AcDbPolyline
  6
BYLAYER
370
13
 90
     6
 70
     1
 10
456.961937702793
  20
315.157660328081
 10
455.662899597116
  20
312.907660328081
 10
456.961937702793
  20
310.657660328081
 10
459.560013914146
  20
310.657660328081
 10
460.859052019823
  20
312.907660328081
 10
459.560013914146
  20
315.157660328081
  0
CIRCLE
  5
594
100
AcDbEntity
  8
0-0
100
AcDbCircle
  6
BYLAYER
370
13
 10
458.260975808469
 20
312.907660328081
 40
2.25
  0
CIRCLE
  5
595
100
AcDbEntity
  8
0-0
100
AcDbCircle
  6
CONTINUOUS
370
50
 10
483.139561808469
 20
312.907660328081
 40
1.55
  0
CIRCLE
  5
596
100
AcDbEntity
  8
0-0
100
AcDbCircle
  6
BYLAYER
370
13
 10
483.139561808469
 20
312.907660328081
 40
0.890000000000001
  0
CIRCLE
  5
597
100
AcDbEntity
  8
0-0
100
AcDbCircle
  6
BYLAYER
370
13
 10
483.139561808469
 20
312.907660328081
 40
1.15
  0
LWPOLYLINE
  5
598
100
AcDbEntity
  8
0-0
100
AcDbPolyline
  6
BYLAYER
370
13
 90
     6
 70
     1
 10
481.840523702793
  20
315.157660328081
 10
480.541485597116
  20
312.907660328081
 10
481.840523702793
  20
310.657660328081
 10
484.438599914146
  20
310.657660328081
 10
485.737638019823
  20
312.907660328081
 10
484.438599914146
  20
315.157660328081
  0
CIRCLE
  5
599
100
AcDbEntity
  8
0-0
100
AcDbCircle
  6
BYLAYER
370
13
 10
483.139561808469
 20
312.907660328081
 40
2.25
  0
ARC
  5
59A
100
AcDbEntity
  8
0-0
100
AcDbCircle
  6
BYLAYER
370
13
 10
69.3650705563507
 20
70.7727644808513
 40
6
100
AcDbArc
 50
163.808648361385
 51
196.191351638615
  0
LINE
  5
59B
100
AcDbEntity
  8
0-0
100
AcDbLine
  6
BYLAYER
370
13
 10
65.0650705563507
 20
68.5227644808513
 11
65.0650705563507
 21
73.0227644808514
  0
ARC
  5
59C
100
AcDbEntity
  8
0-0
100
AcDbCircle
  6
BYLAYER
370
13
 10
64.3713244674912
 20
69.3227644808513
 40
0.8
100
AcDbArc
 50
196.191351638615
 51
270
  0
LINE
  5
59D
100
AcDbEntity
  8
0-0
100
AcDbLine
  6
BYLAYER
370
13
 10
64.3713244674912
 20
68.5227644808513
 11
65.0650705563507
 21
68.5227644808513
  0
ARC
  5
59E
100
AcDbEntity
  8
0-0
100
AcDbCircle
  6
BYLAYER
370
13
 10
64.3713244674912
 20
72.2227644808514
 40
0.8
100
AcDbArc
 50
90
 51
163.808648361385
  0
LINE
  5
59F
100
AcDbEntity
  8
0-0
100
AcDbLine
  6
BYLAYER
370
13
 10
64.3713244674912
 20
73.0227644808514
 11
65.0650705563507
 21
73.0227644808514
  0
ARC
  5
5A0
100
AcDbEntity
  8
0-0
100
AcDbCircle
  6
BYLAYER
370
13
 10
489.400527062375
 20
323.907660328081
 40
6
100
AcDbArc
 50
343.808648361385
 51
376.191351638615
  0
LINE
  5
5A1
100
AcDbEntity
  8
0-0
100
AcDbLine
  6
BYLAYER
370
13
 10
493.700527062375
 20
326.157660328081
 11
493.700527062375
 21
321.657660328081
  0
ARC
  5
5A2
100
AcDbEntity
  8
0-0
100
AcDbCircle
  6
BYLAYER
370
13
 10
494.394273151235
 20
325.357660328081
 40
0.8
100
AcDbArc
 50
376.191351638615
 51
450
  0
LINE
  5
5A3
100
AcDbEntity
  8
0-0
100
AcDbLine
  6
BYLAYER
370
13
 10
494.394273151235
 20
326.157660328081
 11
493.700527062375
 21
326.157660328081
  0
ARC
  5
5A4
100
AcDbEntity
  8
0-0
100
AcDbCircle
  6
BYLAYER
370
13
 10
494.394273151235
 20
322.457660328081
 40
0.8
100
AcDbArc
 50
270
 51
343.808648361385
  0
LINE
  5
5A5
100
AcDbEntity
  8
0-0
100
AcDbLine
  6
BYLAYER
370
13
 10
494.394273151235
 20
321.657660328081
 11
493.700527062375
 21
321.657660328081
  0
ARC
  5
5A6
100
AcDbEntity
  8
0-0
100
AcDbCircle
  6
BYLAYER
370
13
 10
69.3650705563507
 20
307.757960517488
 40
6
100
AcDbArc
 50
163.808648361385
 51
196.191351638615
  0
LINE
  5
5A7
100
AcDbEntity
  8
0-0
100
AcDbLine
  6
BYLAYER
370
13
 10
65.0650705563507
 20
305.507960517488
 11
65.0650705563507
 21
310.007960517488
  0
ARC
  5
5A8
100
AcDbEntity
  8
0-0
100
AcDbCircle
  6
BYLAYER
370
13
 10
64.3713244674912
 20
306.307960517488
 40
0.8
100
AcDbArc
 50
196.191351638615
 51
270
  0
LINE
  5
5A9
100
AcDbEntity
  8
0-0
100
AcDbLine
  6
BYLAYER
370
13
 10
64.3713244674912
 20
305.507960517488
 11
65.0650705563507
 21
305.507960517488
  0
ARC
  5
5AA
100
AcDbEntity
  8
0-0
100
AcDbCircle
  6
BYLAYER
370
13
 10
64.3713244674912
 20
309.207960517488
 40
0.8
100
AcDbArc
 50
90
 51
163.808648361385
  0
LINE
  5
5AB
100
AcDbEntity
  8
0-0
100
AcDbLine
  6
BYLAYER
370
13
 10
64.3713244674912
 20
310.007960517488
 11
65.0650705563507
 21
310.007960517488
  0
ARC
  5
5AC
100
AcDbEntity
  8
0-0
100
AcDbCircle
  6
BYLAYER
370
13
 10
69.3650705563507
 20
267.757960517488
 40
6
100
AcDbArc
 50
163.808648361385
 51
196.191351638615
  0
LINE
  5
5AD
100
AcDbEntity
  8
0-0
100
AcDbLine
  6
BYLAYER
370
13
 10
65.0650705563507
 20
265.507960517488
 11
65.0650705563507
 21
270.007960517488
  0
ARC
  5
5AE
100
AcDbEntity
  8
0-0
100
AcDbCircle
  6
BYLAYER
370
13
 10
64.3713244674912
 20
266.307960517488
 40
0.8
100
AcDbArc
 50
196.191351638615
 51
270
  0
LINE
  5
5AF
100
AcDbEntity
  8
0-0
100
AcDbLine
  6
BYLAYER
370
13
 10
64.3713244674912
 20
265.507960517488
 11
65.0650705563507
 21
265.507960517488
  0
ARC
  5
5B0
100
AcDbEntity
  8
0-0
100
AcDbCircle
  6
BYLAYER
370
13
 10
64.3713244674912
 20
269.207960517488
 40
0.8
100
AcDbArc
 50
90
 51
163.808648361385
  0
LINE
  5
5B1
100
AcDbEntity
  8
0-0
100
AcDbLine
  6
BYLAYER
370
13
 10
64.3713244674912
 20
270.007960517488
 11
65.0650705563507
 21
270.007960517488
  0
LINE
  5
5B2
100
AcDbEntity
  8
0-0
100
AcDbLine
  6
CONTINUOUS
370
13
 10
66.0650705563507
 20
212.507960517488
 11
66.0650705563507
 21
186.526755620523
  0
LINE
  5
5B3
100
AcDbEntity
  8
0-0
100
AcDbLine
  6
CONTINUOUS
370
13
 10
66.0650705563507
 20
187.026755620523
 11
226.065070556351
 21
187.026755620523
  0
LINE
  5
5B4
100
AcDbEntity
  8
0-0
100
AcDbLine
  6
CONTINUOUS
370
13
 10
66.0650705563507
 20
187.026755620523
 11
68.9628480352179
 21
187.803212755831
  0
LINE
  5
5B5
100
AcDbEntity
  8
0-0
100
AcDbLine
  6
CONTINUOUS
370
13
 10
66.0650705563507
 20
187.026755620523
 11
68.9628480352179
 21
186.250298485216
  0
LINE
  5
5B6
100
AcDbEntity
  8
0-0
100
AcDbLine
  6
CONTINUOUS
370
13
 10
226.065070556351
 20
187.026755620523
 11
223.167293077484
 21
186.250298485216
  0
LINE
  5
5B7
100
AcDbEntity
  8
0-0
100
AcDbLine
  6
CONTINUOUS
370
13
 10
226.065070556351
 20
187.026755620523
 11
223.167293077484
 21
187.803212755831
  0
TEXT
  5
5B8
100
AcDbEntity
  8
0-0
100
AcDbText
  6
CONTINUOUS
 10
139.065070556351
 20
187.276755620523
 40
8
  1
160
  7
Font_0
 72
1
 11
146.065070556351
 21
187.276755620523
100
AcDbText
  0
LINE
  5
5B9
100
AcDbEntity
  8
0-0
100
AcDbLine
  6
CONTINUOUS
370
13
 10
226.065070556351
 20
212.507960517488
 11
226.065070556351
 21
186.526755620523
  0
LINE
  5
5BA
100
AcDbEntity
  8
0-0
100
AcDbLine
  6
CONTINUOUS
370
13
 10
63.3650705563507
 20
267.507960517488
 11
63.3650705563507
 21
186.526755620523
  0
LINE
  5
5BB
100
AcDbEntity
  8
0-0
100
AcDbLine
  6
CONTINUOUS
370
13
 10
63.3650705563507
 20
187.026755620523
 11
66.0650705563507
 21
187.026755620523
  0
LINE
  5
5BC
100
AcDbEntity
  8
0-0
100
AcDbLine
  6
CONTINUOUS
370
13
 10
63.3650705563507
 20
187.026755620523
 11
60.4672930774835
 21
186.250298485216
  0
LINE
  5
5BD
100
AcDbEntity
  8
0-0
100
AcDbLine
  6
CONTINUOUS
370
13
 10
63.3650705563507
 20
187.026755620523
 11
60.4672930774835
 21
187.803212755831
  0
LINE
  5
5BE
100
AcDbEntity
  8
0-0
100
AcDbLine
  6
CONTINUOUS
370
13
 10
66.0650705563507
 20
187.026755620523
 11
68.9628480352179
 21
187.803212755831
  0
LINE
  5
5BF
100
AcDbEntity
  8
0-0
100
AcDbLine
  6
CONTINUOUS
370
13
 10
66.0650705563507
 20
187.026755620523
 11
68.9628480352179
 21
186.250298485216
  0
TEXT
  5
5C0
100
AcDbEntity
  8
0-0
100
AcDbText
  6
CONTINUOUS
 10
57.7150705563507
 20
187.276755620523
 40
8
  1
2.7
  7
Font_0
 72
1
 11
64.7150705563507
 21
187.276755620523
100
AcDbText
  0
LINE
  5
5C1
100
AcDbEntity
  8
0-0
100
AcDbLine
  6
CONTINUOUS
370
13
 10
66.0650705563507
 20
208.671594324947
 11
66.0650705563507
 21
186.526755620523
  0
LINE
  5
5C2
100
AcDbEntity
  8
0-0
100
AcDbLine
  6
CONTINUOUS
370
13
 10
65.8150705563507
 20
212.757960517488
 11
42.4530091228351
 21
212.757960517488
  0
LINE
  5
5C3
100
AcDbEntity
  8
0-0
100
AcDbLine
  6
CONTINUOUS
370
13
 10
42.9530091228351
 20
212.757960517488
 11
42.9530091228351
 21
392.757960517488
  0
LINE
  5
5C4
100
AcDbEntity
  8
0-0
100
AcDbLine
  6
CONTINUOUS
370
13
 10
42.9530091228351
 20
212.757960517488
 11
42.1765519875275
 21
215.655737996355
  0
LINE
  5
5C5
100
AcDbEntity
  8
0-0
100
AcDbLine
  6
CONTINUOUS
370
13
 10
42.9530091228351
 20
212.757960517488
 11
43.7294662581426
 21
215.655737996355
  0
LINE
  5
5C6
100
AcDbEntity
  8
0-0
100
AcDbLine
  6
CONTINUOUS
370
13
 10
42.9530091228351
 20
392.757960517488
 11
43.7294662581426
 21
389.860183038621
  0
LINE
  5
5C7
100
AcDbEntity
  8
0-0
100
AcDbLine
  6
CONTINUOUS
370
13
 10
42.9530091228351
 20
392.757960517488
 11
42.1765519875275
 21
389.860183038621
  0
TEXT
  5
5C8
100
AcDbEntity
  8
0-0
100
AcDbText
  6
CONTINUOUS
 10
42.7030091228351
 20
295.757960517488
 40
8
  1
180
  7
Font_0
 50
90
 72
1
 11
42.7030091228351
 21
302.757960517488
100
AcDbText
  0
LINE
  5
5C9
100
AcDbEntity
  8
0-0
100
AcDbLine
  6
CONTINUOUS
370
13
 10
65.8150705563508
 20
392.757960517488
 11
42.4530091228351
 21
392.757960517488
  0
LINE
  5
5CA
100
AcDbEntity
  8
0-0
100
AcDbLine
  6
CONTINUOUS
370
13
 10
150.765070556349
 20
398.057960517488
 11
42.4530091228351
 21
398.057960517488
  0
LINE
  5
5CB
100
AcDbEntity
  8
0-0
100
AcDbLine
  6
CONTINUOUS
370
13
 10
42.9530091228351
 20
398.057960517488
 11
42.9530091228351
 21
392.757960517488
  0
LINE
  5
5CC
100
AcDbEntity
  8
0-0
100
AcDbLine
  6
CONTINUOUS
370
13
 10
42.9530091228351
 20
398.057960517488
 11
42.1765519875275
 21
400.955737996355
  0
LINE
  5
5CD
100
AcDbEntity
  8
0-0
100
AcDbLine
  6
CONTINUOUS
370
13
 10
42.9530091228351
 20
398.057960517488
 11
43.7294662581426
 21
400.955737996355
  0
LINE
  5
5CE
100
AcDbEntity
  8
0-0
100
AcDbLine
  6
CONTINUOUS
370
13
 10
42.9530091228351
 20
392.757960517488
 11
43.7294662581426
 21
389.860183038621
  0
LINE
  5
5CF
100
AcDbEntity
  8
0-0
100
AcDbLine
  6
CONTINUOUS
370
13
 10
42.9530091228351
 20
392.757960517488
 11
42.1765519875275
 21
389.860183038621
  0
TEXT
  5
5D0
100
AcDbEntity
  8
0-0
100
AcDbText
  6
CONTINUOUS
 10
42.7030091228351
 20
388.407960517488
 40
8
  1
5.3
  7
Font_0
 50
90
 72
1
 11
42.7030091228351
 21
395.407960517488
100
AcDbText
  0
LINE
  5
5D1
100
AcDbEntity
  8
0-0
100
AcDbLine
  6
CONTINUOUS
370
13
 10
65.8150705563507
 20
392.757960517488
 11
42.4530091228351
 21
392.757960517488
  0
LINE
  5
5D2
100
AcDbEntity
  8
0-0
100
AcDbLine
  6
CONTINUOUS
370
13
 10
72.8150705563509
 20
209.457960517488
 11
42.4530091228351
 21
209.457960517488
  0
LINE
  5
5D3
100
AcDbEntity
  8
0-0
100
AcDbLine
  6
CONTINUOUS
370
13
 10
42.9530091228351
 20
209.457960517488
 11
42.9530091228351
 21
212.757960517488
  0
LINE
  5
5D4
100
AcDbEntity
  8
0-0
100
AcDbLine
  6
CONTINUOUS
370
13
 10
42.9530091228351
 20
209.457960517488
 11
43.7294662581426
 21
206.560183038621
  0
LINE
  5
5D5
100
AcDbEntity
  8
0-0
100
AcDbLine
  6
CONTINUOUS
370
13
 10
42.9530091228351
 20
209.457960517488
 11
42.1765519875275
 21
206.560183038621
  0
LINE
  5
5D6
100
AcDbEntity
  8
0-0
100
AcDbLine
  6
CONTINUOUS
370
13
 10
42.9530091228351
 20
212.757960517488
 11
42.1765519875275
 21
215.655737996355
  0
LINE
  5
5D7
100
AcDbEntity
  8
0-0
100
AcDbLine
  6
CONTINUOUS
370
13
 10
42.9530091228351
 20
212.757960517488
 11
43.7294662581426
 21
215.655737996355
  0
TEXT
  5
5D8
100
AcDbEntity
  8
0-0
100
AcDbText
  6
CONTINUOUS
 10
42.7030091228351
 20
204.107960517488
 40
8
  1
3.3
  7
Font_0
 50
90
 72
1
 11
42.7030091228351
 21
211.107960517488
100
AcDbText
  0
LINE
  5
5D9
100
AcDbEntity
  8
0-0
100
AcDbLine
  6
CONTINUOUS
370
13
 10
57.7205273216954
 20
212.757960517488
 11
42.4530091228351
 21
212.757960517488
  0
LINE
  5
5DA
100
AcDbEntity
  8
0-0
100
AcDbLine
  6
CONTINUOUS
370
13
 10
65.8150705563507
 20
48.5727644808513
 11
42.4530091228351
 21
48.5727644808513
  0
LINE
  5
5DB
100
AcDbEntity
  8
0-0
100
AcDbLine
  6
CONTINUOUS
370
13
 10
42.9530091228351
 20
48.5727644808513
 11
42.9530091228351
 21
134.572764480851
  0
LINE
  5
5DC
100
AcDbEntity
  8
0-0
100
AcDbLine
  6
CONTINUOUS
370
13
 10
42.9530091228351
 20
48.5727644808513
 11
42.1765519875275
 21
51.4705419597186
  0
LINE
  5
5DD
100
AcDbEntity
  8
0-0
100
AcDbLine
  6
CONTINUOUS
370
13
 10
42.9530091228351
 20
48.5727644808513
 11
43.7294662581426
 21
51.4705419597186
  0
LINE
  5
5DE
100
AcDbEntity
  8
0-0
100
AcDbLine
  6
CONTINUOUS
370
13
 10
42.9530091228351
 20
134.572764480851
 11
43.7294662581426
 21
131.674987001984
  0
LINE
  5
5DF
100
AcDbEntity
  8
0-0
100
AcDbLine
  6
CONTINUOUS
370
13
 10
42.9530091228351
 20
134.572764480851
 11
42.1765519875275
 21
131.674987001984
  0
TEXT
  5
5E0
100
AcDbEntity
  8
0-0
100
AcDbText
  6
CONTINUOUS
 10
42.7030091228351
 20
87.0727644808513
 40
8
  1
86
  7
Font_0
 50
90
 72
1
 11
42.7030091228351
 21
91.5727644808513
100
AcDbText
  0
LINE
  5
5E1
100
AcDbEntity
  8
0-0
100
AcDbLine
  6
CONTINUOUS
370
13
 10
65.8150705563507
 20
134.572764480851
 11
42.4530091228351
 21
134.572764480851
  0
LINE
  5
5E2
100
AcDbEntity
  8
0-0
100
AcDbLine
  6
CONTINUOUS
370
13
 10
76.0650705563507
 20
44.2727644808513
 11
42.4530091228351
 21
44.2727644808513
  0
LINE
  5
5E3
100
AcDbEntity
  8
0-0
100
AcDbLine
  6
CONTINUOUS
370
13
 10
42.9530091228351
 20
44.2727644808513
 11
42.9530091228351
 21
48.5727644808513
  0
LINE
  5
5E4
100
AcDbEntity
  8
0-0
100
AcDbLine
  6
CONTINUOUS
370
13
 10
42.9530091228351
 20
44.2727644808513
 11
43.7294662581426
 21
41.3749870019841
  0
LINE
  5
5E5
100
AcDbEntity
  8
0-0
100
AcDbLine
  6
CONTINUOUS
370
13
 10
42.9530091228351
 20
44.2727644808513
 11
42.1765519875275
 21
41.3749870019841
  0
LINE
  5
5E6
100
AcDbEntity
  8
0-0
100
AcDbLine
  6
CONTINUOUS
370
13
 10
42.9530091228351
 20
48.5727644808513
 11
42.1765519875275
 21
51.4705419597186
  0
LINE
  5
5E7
100
AcDbEntity
  8
0-0
100
AcDbLine
  6
CONTINUOUS
370
13
 10
42.9530091228351
 20
48.5727644808513
 11
43.7294662581426
 21
51.4705419597186
  0
TEXT
  5
5E8
100
AcDbEntity
  8
0-0
100
AcDbText
  6
CONTINUOUS
 10
42.7030091228351
 20
39.4227644808513
 40
8
  1
4.3
  7
Font_0
 50
90
 72
1
 11
42.7030091228351
 21
46.4227644808513
100
AcDbText
  0
LINE
  5
5E9
100
AcDbEntity
  8
0-0
100
AcDbLine
  6
CONTINUOUS
370
13
 10
60.6022035636788
 20
48.5727644808513
 11
42.4530091228351
 21
48.5727644808513
  0
CIRCLE
  5
5EA
100
AcDbEntity
  8
0-0
100
AcDbCircle
  6
CONTINUOUS
370
50
 10
433.876097566959
 20
314.194461907005
 40
0.350000000000023
  0
CIRCLE
  5
5EB
100
AcDbEntity
  8
0-0
100
AcDbCircle
  6
CONTINUOUS
370
50
 10
431.52495655779
 20
314.194461907005
 40
0.350000000000023
  0
CIRCLE
  5
5EC
100
AcDbEntity
  8
0-0
100
AcDbCircle
  6
CONTINUOUS
370
50
 10
472.024561808469
 20
314.842533110736
 40
0.5
  0
CIRCLE
  5
5ED
100
AcDbEntity
  8
0-0
100
AcDbCircle
  6
CONTINUOUS
370
50
 10
466.484561808469
 20
314.842533110736
 40
0.5
  0
CIRCLE
  5
5EE
100
AcDbEntity
  8
0-0
100
AcDbCircle
  6
CONTINUOUS
370
50
 10
469.254561808469
 20
314.842533110736
 40
0.5
  0
CIRCLE
  5
5EF
100
AcDbEntity
  8
0-0
100
AcDbCircle
  6
CONTINUOUS
370
50
 10
472.024561808469
 20
314.842533110736
 40
0.740688034259961
  0
CIRCLE
  5
5F0
100
AcDbEntity
  8
0-0
100
AcDbCircle
  6
CONTINUOUS
370
50
 10
469.254561808469
 20
314.842533110736
 40
0.740688034259961
  0
CIRCLE
  5
5F1
100
AcDbEntity
  8
0-0
100
AcDbCircle
  6
CONTINUOUS
370
50
 10
466.484561808469
 20
314.842533110736
 40
0.740688034259961
  0
CIRCLE
  5
5F2
100
AcDbEntity
  8
0-0
100
AcDbCircle
  6
CONTINUOUS
370
50
 10
474.794561808469
 20
314.842533110736
 40
0.5
  0
CIRCLE
  5
5F3
100
AcDbEntity
  8
0-0
100
AcDbCircle
  6
CONTINUOUS
370
50
 10
474.794561808469
 20
314.842533110736
 40
0.740688034259961
  0
ENDSEC
  0
SECTION
  2
OBJECTS
  0
DICTIONARY
  5
5F4
100
AcDbDictionary
  3
ACAD_GROUP
350
5F5
  3
ACAD_MLINESTYLE
350
5F6
  0
DICTIONARY
  5
5F5
102
{ACAD_REACTORS
330
5F4
102
}
100
AcDbDictionary
  0
DICTIONARY
  5
5F6
102
{ACAD_REACTORS
330
5F4
102
}
100
AcDbDictionary
  3
STANDARD
350
5F7
  0
MLINESTYLE
  5
5F7
102
{ACAD_REACTORS
330
5F6
102
}
100
AcDbMlineStyle
  2
Standard
 70
     0
  3

 62
     0
 51
90.0
 52
90.0
 71
     2
 49
0.5
 62
   256
  6
ByLayer
 49
-0.5
 62
   256
  6
ByLayer
  0
ENDSEC
  0
EOF
