999
Outputted By AR_CAD Ver.1.7.0
  0
SECTION
  2
HEADER
  9
$ACADVER
  1
AC1014
  9
$DWGCODEPAGE
  3
ANSI_932
  9
$EXTMIN
 10
0
 20
0
  9
$EXTMAX
 10
297
 20
210
  9
$INSBASE
 10
0.0
 20
0.0
 30
0.0
  9
$HANDLING
 70
     1
  9
$HANDSEED
  5
81F
  9
$LTSCALE
 40
1
  0
ENDSEC
  0
SECTION
  2
TABLES
  0
TABLE
  2
VPORT
  5
1
100
AcDbSymbolTable
 70
     1
  0
VPORT
  5
30
100
AcDbSymbolTableRecord
100
AcDbViewportTableRecord
  2
*ACTIVE
 70
     0
 10
0.0
 20
0.0
 11
1.0
 21
1.0
 12
210.0
 22
148.5
 13
0.0
 23
0.0
 14
10.0
 24
10.0
 15
10.0
 25
10.0
 16
0.0
 26
0.0
 36
1.0
 17
0.0
 27
0.0
 37
0.0
 40
302.94
 41
1.333333
 42
50.0
 43
0.0
 44
0.0
 50
0.0
 51
0.0
 71
     0
 72
   100
 73
     1
 74
     1
 75
     0
 76
     0
 77
     0
 78
     0
  0
ENDTAB
  0
TABLE
  2
LTYPE
  5
2
100
AcDbSymbolTable
 70
     91
  0
LTYPE
  5
31
100
AcDbSymbolTableRecord
100
AcDbLinetypeTableRecord
  2
BYBLOCK
 70
    64
 3

 72
    65
 73
    0
 40
    0
  0
LTYPE
  5
32
100
AcDbSymbolTableRecord
100
AcDbLinetypeTableRecord
  2
BYLAYER
 70
    64
 3

 72
    65
 73
    0
 40
    0
  0
LTYPE
  5
33
100
AcDbSymbolTableRecord
100
AcDbLinetypeTableRecord
  2
CONTINUOUS
 70
    64
 3
CONTINUOUS
 72
    65
 73
    0
 40
    0
  0
LTYPE
  5
34
100
AcDbSymbolTableRecord
100
AcDbLinetypeTableRecord
  2
DASHED
 70
    64
 3

 72
    65
 73
    2
 40
    0.75
 49
    0.5
 74
    0
 49
    -0.25
 74
    0
  0
LTYPE
  5
35
100
AcDbSymbolTableRecord
100
AcDbLinetypeTableRecord
  2
DOT
 70
    64
 3

 72
    65
 73
    2
 40
    0.5
 49
    0.25
 74
    0
 49
    -0.25
 74
    0
  0
LTYPE
  5
36
100
AcDbSymbolTableRecord
100
AcDbLinetypeTableRecord
  2
DASHDOT
 70
    64
 3

 72
    65
 73
    4
 40
    3.5
 49
    1.84147386461011
 74
    0
 49
    -0.552842045129963
 74
    0
 49
    0.552842045129963
 74
    0
 49
    -0.552842045129963
 74
    0
  0
LTYPE
  5
37
100
AcDbSymbolTableRecord
100
AcDbLinetypeTableRecord
  2
DIVIDE
 70
    64
 3

 72
    65
 73
    6
 40
    3.5
 49
    1.4
 74
    0
 49
    -0.42
 74
    0
 49
    0.42
 74
    0
 49
    -0.42
 74
    0
 49
    0.42
 74
    0
 49
    -0.42
 74
    0
  0
LTYPE
  5
38
100
AcDbSymbolTableRecord
100
AcDbLinetypeTableRecord
  2
HIDDEN
 70
    64
 3

 72
    65
 73
    2
 40
    4
 49
    2
 74
    0
 49
    -2
 74
    0
  0
LTYPE
  5
39
100
AcDbSymbolTableRecord
100
AcDbLinetypeTableRecord
  2
CENTER
 70
    64
 3

 72
    65
 73
    4
 40
    2
 49
    1.25
 74
    0
 49
    -0.25
 74
    0
 49
    0.25
 74
    0
 49
    -0.25
 74
    0
  0
LTYPE
  5
3A
100
AcDbSymbolTableRecord
100
AcDbLinetypeTableRecord
  2
PHANTOM
 70
    64
 3

 72
    65
 73
    6
 40
    2.5
 49
    1.25
 74
    0
 49
    -0.25
 74
    0
 49
    0.25
 74
    0
 49
    -0.25
 74
    0
 49
    0.25
 74
    0
 49
    -0.25
 74
    0
  0
LTYPE
  5
3B
100
AcDbSymbolTableRecord
100
AcDbLinetypeTableRecord
  2
BORDER
 70
    64
 3

 72
    65
 73
    6
 40
    1.75
 49
    0.5
 74
    0
 49
    -0.25
 74
    0
 49
    0.5
 74
    0
 49
    -0.25
 74
    0
 49
    0
 74
    0
 49
    -0.25
 74
    0
  0
LTYPE
  5
3C
100
AcDbSymbolTableRecord
100
AcDbLinetypeTableRecord
  2

 70
    64
 3

 72
    65
 73
    2
 40
    4
 49
    3
 74
    0
 49
    -1
 74
    0
  0
LTYPE
  5
3D
100
AcDbSymbolTableRecord
100
AcDbLinetypeTableRecord
  2

 70
    64
 3

 72
    65
 73
    3
 40
    4.5
 49
    1.5
 74
    0
 49
    -1.5
 74
    0
 49
    1.5
 74
    0
  0
LTYPE
  5
3E
100
AcDbSymbolTableRecord
100
AcDbLinetypeTableRecord
  2

 70
    64
 3

 72
    65
 73
    5
 40
    30
 49
    12
 74
    0
 49
    -1.5
 74
    0
 49
    3
 74
    0
 49
    -1.5
 74
    0
 49
    12
 74
    0
  0
LTYPE
  5
3F
100
AcDbSymbolTableRecord
100
AcDbLinetypeTableRecord
  2

 70
    64
 3

 72
    65
 73
    2
 40
    0.157
 49
    0.098
 74
    0
 49
    -0.059
 74
    0
  0
LTYPE
  5
40
100
AcDbSymbolTableRecord
100
AcDbLinetypeTableRecord
  2

 70
    64
 3

 72
    65
 73
    2
 40
    0.393
 49
    0.236
 74
    0
 49
    -0.157
 74
    0
  0
LTYPE
  5
41
100
AcDbSymbolTableRecord
100
AcDbLinetypeTableRecord
  2

 70
    64
 3

 72
    65
 73
    2
 40
    0.787
 49
    0.472
 74
    0
 49
    -0.315
 74
    0
  0
LTYPE
  5
42
100
AcDbSymbolTableRecord
100
AcDbLinetypeTableRecord
  2

 70
    64
 3

 72
    65
 73
    4
 40
    0.216
 49
    0.118
 74
    0
 49
    -0.039
 74
    0
 49
    0.02
 74
    0
 49
    -0.039
 74
    0
  0
LTYPE
  5
43
100
AcDbSymbolTableRecord
100
AcDbLinetypeTableRecord
  2

 70
    64
 3

 72
    65
 73
    4
 40
    0.433
 49
    0.236
 74
    0
 49
    -0.079
 74
    0
 49
    0.039
 74
    0
 49
    -0.079
 74
    0
  0
LTYPE
  5
44
100
AcDbSymbolTableRecord
100
AcDbLinetypeTableRecord
  2

 70
    64
 3

 72
    65
 73
    4
 40
    0.906
 49
    0.591
 74
    0
 49
    -0.118
 74
    0
 49
    0.079
 74
    0
 49
    -0.118
 74
    0
  0
LTYPE
  5
45
100
AcDbSymbolTableRecord
100
AcDbLinetypeTableRecord
  2

 70
    64
 3

 72
    65
 73
    6
 40
    0.551
 49
    0.236
 74
    0
 49
    -0.079
 74
    0
 49
    0.039
 74
    0
 49
    -0.079
 74
    0
 49
    0.039
 74
    0
 49
    -0.079
 74
    0
  0
LTYPE
  5
46
100
AcDbSymbolTableRecord
100
AcDbLinetypeTableRecord
  2

 70
    64
 3

 72
    65
 73
    6
 40
    0.875
 49
    0.25
 74
    0
 49
    -0.125
 74
    0
 49
    0.25
 74
    0
 49
    -0.125
 74
    0
 49
    0
 74
    0
 49
    -0.125
 74
    0
  0
LTYPE
  5
47
100
AcDbSymbolTableRecord
100
AcDbLinetypeTableRecord
  2

 70
    64
 3

 72
    65
 73
    6
 40
    3.5
 49
    1
 74
    0
 49
    -0.5
 74
    0
 49
    1
 74
    0
 49
    -0.5
 74
    0
 49
    0
 74
    0
 49
    -0.5
 74
    0
  0
LTYPE
  5
48
100
AcDbSymbolTableRecord
100
AcDbLinetypeTableRecord
  2

 70
    64
 3

 72
    65
 73
    4
 40
    1.125
 49
    0.75
 74
    0
 49
    -0.125
 74
    0
 49
    0.125
 74
    0
 49
    -0.125
 74
    0
  0
LTYPE
  5
49
100
AcDbSymbolTableRecord
100
AcDbLinetypeTableRecord
  2

 70
    64
 3

 72
    65
 73
    4
 40
    4
 49
    2.5
 74
    0
 49
    -0.5
 74
    0
 49
    0.5
 74
    0
 49
    -0.5
 74
    0
  0
LTYPE
  5
4A
100
AcDbSymbolTableRecord
100
AcDbLinetypeTableRecord
  2

 70
    64
 3

 72
    65
 73
    4
 40
    0.5
 49
    0.25
 74
    0
 49
    -0.125
 74
    0
 49
    0
 74
    0
 49
    -0.125
 74
    0
  0
LTYPE
  5
4B
100
AcDbSymbolTableRecord
100
AcDbLinetypeTableRecord
  2

 70
    64
 3

 72
    65
 73
    4
 40
    2
 49
    1
 74
    0
 49
    -0.5
 74
    0
 49
    0
 74
    0
 49
    -0.5
 74
    0
  0
LTYPE
  5
4C
100
AcDbSymbolTableRecord
100
AcDbLinetypeTableRecord
  2

 70
    64
 3

 72
    65
 73
    2
 40
    0.375
 49
    0.25
 74
    0
 49
    -0.125
 74
    0
  0
LTYPE
  5
4D
100
AcDbSymbolTableRecord
100
AcDbLinetypeTableRecord
  2

 70
    64
 3

 72
    65
 73
    2
 40
    1.5
 49
    1
 74
    0
 49
    -0.5
 74
    0
  0
LTYPE
  5
4E
100
AcDbSymbolTableRecord
100
AcDbLinetypeTableRecord
  2

 70
    64
 3

 72
    65
 73
    6
 40
    0.625
 49
    0.25
 74
    0
 49
    -0.125
 74
    0
 49
    0
 74
    0
 49
    -0.125
 74
    0
 49
    0
 74
    0
 49
    -0.125
 74
    0
  0
LTYPE
  5
4F
100
AcDbSymbolTableRecord
100
AcDbLinetypeTableRecord
  2

 70
    64
 3

 72
    65
 73
    6
 40
    2.5
 49
    1
 74
    0
 49
    -0.5
 74
    0
 49
    0
 74
    0
 49
    -0.5
 74
    0
 49
    0
 74
    0
 49
    -0.5
 74
    0
  0
LTYPE
  5
50
100
AcDbSymbolTableRecord
100
AcDbLinetypeTableRecord
  2

 70
    64
 3

 72
    65
 73
    2
 40
    0.125
 49
    0
 74
    0
 49
    -0.125
 74
    0
  0
LTYPE
  5
51
100
AcDbSymbolTableRecord
100
AcDbLinetypeTableRecord
  2

 70
    64
 3

 72
    65
 73
    2
 40
    0.5
 49
    0
 74
    0
 49
    -0.5
 74
    0
  0
LTYPE
  5
52
100
AcDbSymbolTableRecord
100
AcDbLinetypeTableRecord
  2

 70
    64
 3

 72
    65
 73
    2
 40
    0.188
 49
    0.126
 74
    0
 49
    -0.062
 74
    0
  0
LTYPE
  5
53
100
AcDbSymbolTableRecord
100
AcDbLinetypeTableRecord
  2

 70
    64
 3

 72
    65
 73
    2
 40
    0.75
 49
    0.5
 74
    0
 49
    -0.25
 74
    0
  0
LTYPE
  5
54
100
AcDbSymbolTableRecord
100
AcDbLinetypeTableRecord
  2

 70
    64
 3

 72
    65
 73
    6
 40
    1.25
 49
    0.625
 74
    0
 49
    -0.125
 74
    0
 49
    0.125
 74
    0
 49
    -0.125
 74
    0
 49
    0.125
 74
    0
 49
    -0.125
 74
    0
  0
LTYPE
  5
55
100
AcDbSymbolTableRecord
100
AcDbLinetypeTableRecord
  2

 70
    64
 3

 72
    65
 73
    6
 40
    5
 49
    2.5
 74
    0
 49
    -0.5
 74
    0
 49
    0.5
 74
    0
 49
    -0.5
 74
    0
 49
    0.5
 74
    0
 49
    -0.5
 74
    0
  0
LTYPE
  5
56
100
AcDbSymbolTableRecord
100
AcDbLinetypeTableRecord
  2

 70
    64
 3

 72
    65
 73
    5
 40
    2.5
 49
    0.5
 74
    0
 49
    -0.5
 74
    0
 49
    0.5
 74
    0
 49
    -0.5
 74
    0
 49
    0.5
 74
    0
  0
LTYPE
  5
57
100
AcDbSymbolTableRecord
100
AcDbLinetypeTableRecord
  2

 70
    64
 3

 72
    65
 73
    0
 40
    0
  0
LTYPE
  5
58
100
AcDbSymbolTableRecord
100
AcDbLinetypeTableRecord
  2

 70
    64
 3

 72
    65
 73
    0
 40
    0
  0
LTYPE
  5
59
100
AcDbSymbolTableRecord
100
AcDbLinetypeTableRecord
  2

 70
    64
 3

 72
    65
 73
    0
 40
    0
  0
LTYPE
  5
5A
100
AcDbSymbolTableRecord
100
AcDbLinetypeTableRecord
  2

 70
    64
 3

 72
    65
 73
    2
 40
    0.375
 49
    0.25
 74
    0
 49
    -0.125
 74
    0
  0
LTYPE
  5
5B
100
AcDbSymbolTableRecord
100
AcDbLinetypeTableRecord
  2

 70
    64
 3

 72
    65
 73
    2
 40
    0.5
 49
    0.375
 74
    0
 49
    -0.125
 74
    0
  0
LTYPE
  5
5C
100
AcDbSymbolTableRecord
100
AcDbLinetypeTableRecord
  2

 70
    64
 3

 72
    65
 73
    4
 40
    2
 49
    1.25
 74
    0
 49
    -0.25
 74
    0
 49
    0.25
 74
    0
 49
    -0.25
 74
    0
  0
LTYPE
  5
5D
100
AcDbSymbolTableRecord
100
AcDbLinetypeTableRecord
  2

 70
    64
 3

 72
    65
 73
    6
 40
    2.5
 49
    1.25
 74
    0
 49
    -0.25
 74
    0
 49
    0.25
 74
    0
 49
    -0.25
 74
    0
 49
    0.25
 74
    0
 49
    -0.25
 74
    0
  0
LTYPE
  5
5E
100
AcDbSymbolTableRecord
100
AcDbLinetypeTableRecord
  2

 70
    64
 3

 72
    65
 73
    4
 40
    1
 49
    0.5
 74
    0
 49
    -0.25
 74
    0
 49
    0
 74
    0
 49
    -0.25
 74
    0
  0
LTYPE
  5
5F
100
AcDbSymbolTableRecord
100
AcDbLinetypeTableRecord
  2

 70
    64
 3

 72
    65
 73
    0
 40
    0
  0
LTYPE
  5
60
100
AcDbSymbolTableRecord
100
AcDbLinetypeTableRecord
  2

 70
    64
 3

 72
    65
 73
    2
 40
    0.075
 49
    0.04
 74
    0
 49
    -0.035
 74
    0
  0
LTYPE
  5
61
100
AcDbSymbolTableRecord
100
AcDbLinetypeTableRecord
  2

 70
    64
 3

 72
    65
 73
    2
 40
    0.15
 49
    0.11
 74
    0
 49
    -0.04
 74
    0
  0
LTYPE
  5
62
100
AcDbSymbolTableRecord
100
AcDbLinetypeTableRecord
  2

 70
    64
 3

 72
    65
 73
    2
 40
    0.2
 49
    0.15
 74
    0
 49
    -0.05
 74
    0
  0
LTYPE
  5
63
100
AcDbSymbolTableRecord
100
AcDbLinetypeTableRecord
  2

 70
    64
 3

 72
    65
 73
    2
 40
    0.36
 49
    0.28
 74
    0
 49
    -0.08
 74
    0
  0
LTYPE
  5
64
100
AcDbSymbolTableRecord
100
AcDbLinetypeTableRecord
  2

 70
    64
 3

 72
    65
 73
    2
 40
    0.47
 49
    0.39
 74
    0
 49
    -0.08
 74
    0
  0
LTYPE
  5
65
100
AcDbSymbolTableRecord
100
AcDbLinetypeTableRecord
  2

 70
    64
 3

 72
    65
 73
    2
 40
    0.9
 49
    0.81
 74
    0
 49
    -0.09
 74
    0
  0
LTYPE
  5
66
100
AcDbSymbolTableRecord
100
AcDbLinetypeTableRecord
  2

 70
    64
 3

 72
    65
 73
    6
 40
    1
 49
    0.6
 74
    0
 49
    -0.08
 74
    0
 49
    0.08
 74
    0
 49
    -0.08
 74
    0
 49
    0.08
 74
    0
 49
    -0.08
 74
    0
  0
LTYPE
  5
67
100
AcDbSymbolTableRecord
100
AcDbLinetypeTableRecord
  2

 70
    64
 3

 72
    65
 73
    6
 40
    1.08
 49
    0.6
 74
    0
 49
    -0.08
 74
    0
 49
    0.12
 74
    0
 49
    -0.08
 74
    0
 49
    0.12
 74
    0
 49
    -0.08
 74
    0
  0
LTYPE
  5
68
100
AcDbSymbolTableRecord
100
AcDbLinetypeTableRecord
  2

 70
    64
 3

 72
    65
 73
    6
 40
    2
 49
    1.44
 74
    0
 49
    -0.08
 74
    0
 49
    0.16
 74
    0
 49
    -0.08
 74
    0
 49
    0.16
 74
    0
 49
    -0.08
 74
    0
  0
LTYPE
  5
69
100
AcDbSymbolTableRecord
100
AcDbLinetypeTableRecord
  2

 70
    64
 3

 72
    65
 73
    4
 40
    0.7
 49
    0.45
 74
    0
 49
    -0.06
 74
    0
 49
    0.13
 74
    0
 49
    -0.06
 74
    0
  0
LTYPE
  5
6A
100
AcDbSymbolTableRecord
100
AcDbLinetypeTableRecord
  2

 70
    64
 3

 72
    65
 73
    4
 40
    1.2
 49
    0.97741935483871
 74
    0
 49
    -0.0580645161290322
 74
    0
 49
    0.106451612903226
 74
    0
 49
    -0.0580645161290322
 74
    0
  0
LTYPE
  5
6B
100
AcDbSymbolTableRecord
100
AcDbLinetypeTableRecord
  2

 70
    64
 3

 72
    65
 73
    4
 40
    1.2
 49
    0.98
 74
    0
 49
    -0.06
 74
    0
 49
    0.1
 74
    0
 49
    -0.06
 74
    0
  0
LTYPE
  5
6C
100
AcDbSymbolTableRecord
100
AcDbLinetypeTableRecord
  2

 70
    64
 3

 72
    65
 73
    4
 40
    2.2
 49
    1.93
 74
    0
 49
    -0.07
 74
    0
 49
    0.13
 74
    0
 49
    -0.07
 74
    0
  0
LTYPE
  5
6D
100
AcDbSymbolTableRecord
100
AcDbLinetypeTableRecord
  2

 70
    64
 3

 72
    65
 73
    4
 40
    2.2
 49
    1.88
 74
    0
 49
    -0.07
 74
    0
 49
    0.18
 74
    0
 49
    -0.07
 74
    0
  0
LTYPE
  5
6E
100
AcDbSymbolTableRecord
100
AcDbLinetypeTableRecord
  2

 70
    64
 3

 72
    65
 73
    4
 40
    2.7
 49
    0.25
 74
    0
 49
    -0.2
 74
    0
 49
    0.25
 74
    0
 49
    -2
 74
    0
  0
LTYPE
  5
6F
100
AcDbSymbolTableRecord
100
AcDbLinetypeTableRecord
  2

 70
    64
 3

 72
    65
 73
    4
 40
    3.71
 49
    0.423070175438596
 74
    0
 49
    -0.260350877192982
 74
    0
 49
    0.423070175438596
 74
    0
 49
    -2.60350877192982
 74
    0
  0
LTYPE
  5
70
100
AcDbSymbolTableRecord
100
AcDbLinetypeTableRecord
  2

 70
    64
 3

 72
    65
 73
    2
 40
    0.25
 49
    0
 74
    0
 49
    -0.25
 74
    0
  0
LTYPE
  5
71
100
AcDbSymbolTableRecord
100
AcDbLinetypeTableRecord
  2

 70
    64
 3

 72
    65
 73
    6
 40
    2
 49
    1.05882352941176
 74
    0
 49
    -0.588235294117647
 74
    0
 49
    0.117647058823529
 74
    0
 49
    -0.0588235294117647
 74
    0
 49
    0.117647058823529
 74
    0
 49
    -0.0588235294117647
 74
    0
  0
LTYPE
  5
72
100
AcDbSymbolTableRecord
100
AcDbLinetypeTableRecord
  2

 70
    64
 3

 72
    65
 73
    0
 40
    0
  0
LTYPE
  5
73
100
AcDbSymbolTableRecord
100
AcDbLinetypeTableRecord
  2

 70
    64
 3

 72
    65
 73
    0
 40
    0
  0
LTYPE
  5
74
100
AcDbSymbolTableRecord
100
AcDbLinetypeTableRecord
  2

 70
    64
 3

 72
    65
 73
    2
 40
    16
 49
    8
 74
    0
 49
    -8
 74
    0
  0
LTYPE
  5
75
100
AcDbSymbolTableRecord
100
AcDbLinetypeTableRecord
  2

 70
    64
 3

 72
    65
 73
    2
 40
    32
 49
    16
 74
    0
 49
    -16
 74
    0
  0
LTYPE
  5
76
100
AcDbSymbolTableRecord
100
AcDbLinetypeTableRecord
  2

 70
    64
 3

 72
    65
 73
    4
 40
    64
 49
    32
 74
    0
 49
    -8
 74
    0
 49
    16
 74
    0
 49
    -8
 74
    0
  0
LTYPE
  5
77
100
AcDbSymbolTableRecord
100
AcDbLinetypeTableRecord
  2

 70
    64
 3

 72
    65
 73
    6
 40
    64
 49
    24
 74
    0
 49
    -8
 74
    0
 49
    8
 74
    0
 49
    -8
 74
    0
 49
    8
 74
    0
 49
    -8
 74
    0
  0
LTYPE
  5
78
100
AcDbSymbolTableRecord
100
AcDbLinetypeTableRecord
  2

 70
    64
 3

 72
    65
 73
    4
 40
    10.5
 49
    6
 74
    0
 49
    -1.5
 74
    0
 49
    1.5
 74
    0
 49
    -1.5
 74
    0
  0
LTYPE
  5
79
100
AcDbSymbolTableRecord
100
AcDbLinetypeTableRecord
  2

 70
    64
 3

 72
    65
 73
    2
 40
    3.5
 49
    0.5
 74
    0
 49
    -3
 74
    0
  0
LTYPE
  5
7A
100
AcDbSymbolTableRecord
100
AcDbLinetypeTableRecord
  2

 70
    64
 3

 72
    65
 73
    4
 40
    2
 49
    1.25
 74
    0
 49
    -0.25
 74
    0
 49
    0.25
 74
    0
 49
    -0.25
 74
    0
  0
LTYPE
  5
7B
100
AcDbSymbolTableRecord
100
AcDbLinetypeTableRecord
  2

 70
    64
 3

 72
    65
 73
    0
 40
    0
  0
LTYPE
  5
7C
100
AcDbSymbolTableRecord
100
AcDbLinetypeTableRecord
  2

 70
    64
 3

 72
    65
 73
    2
 40
    2
 49
    1
 74
    0
 49
    -1
 74
    0
  0
LTYPE
  5
7D
100
AcDbSymbolTableRecord
100
AcDbLinetypeTableRecord
  2

 70
    64
 3

 72
    65
 73
    4
 40
    2
 49
    0.6
 74
    0
 49
    -0.666666666666667
 74
    0
 49
    0.0666666666666667
 74
    0
 49
    -0.666666666666667
 74
    0
  0
LTYPE
  5
7E
100
AcDbSymbolTableRecord
100
AcDbLinetypeTableRecord
  2

 70
    64
 3

 72
    65
 73
    0
 40
    0
  0
LTYPE
  5
7F
100
AcDbSymbolTableRecord
100
AcDbLinetypeTableRecord
  2

 70
    64
 3

 72
    65
 73
    2
 40
    3.5
 49
    2.91666666666667
 74
    0
 49
    -0.583333333333333
 74
    0
  0
LTYPE
  5
80
100
AcDbSymbolTableRecord
100
AcDbLinetypeTableRecord
  2

 70
    64
 3

 72
    65
 73
    4
 40
    36
 49
    24
 74
    0
 49
    -3
 74
    0
 49
    6
 74
    0
 49
    -3
 74
    0
  0
LTYPE
  5
81
100
AcDbSymbolTableRecord
100
AcDbLinetypeTableRecord
  2

 70
    64
 3

 72
    65
 73
    2
 40
    1.5
 49
    1
 74
    0
 49
    -0.5
 74
    0
  0
LTYPE
  5
82
100
AcDbSymbolTableRecord
100
AcDbLinetypeTableRecord
  2

 70
    64
 3

 72
    65
 73
    2
 40
    6
 49
    4
 74
    0
 49
    -2
 74
    0
  0
LTYPE
  5
83
100
AcDbSymbolTableRecord
100
AcDbLinetypeTableRecord
  2

 70
    64
 3

 72
    65
 73
    2
 40
    12
 49
    10
 74
    0
 49
    -2
 74
    0
  0
LTYPE
  5
84
100
AcDbSymbolTableRecord
100
AcDbLinetypeTableRecord
  2

 70
    64
 3

 72
    65
 73
    2
 40
    17
 49
    15
 74
    0
 49
    -2
 74
    0
  0
LTYPE
  5
85
100
AcDbSymbolTableRecord
100
AcDbLinetypeTableRecord
  2

 70
    64
 3

 72
    65
 73
    2
 40
    29
 49
    27
 74
    0
 49
    -2
 74
    0
  0
LTYPE
  5
86
100
AcDbSymbolTableRecord
100
AcDbLinetypeTableRecord
  2

 70
    64
 3

 72
    65
 73
    6
 40
    31
 49
    25
 74
    0
 49
    -1.5
 74
    0
 49
    1
 74
    0
 49
    -1
 74
    0
 49
    1
 74
    0
 49
    -1.5
 74
    0
  0
LTYPE
  5
87
100
AcDbSymbolTableRecord
100
AcDbLinetypeTableRecord
  2

 70
    64
 3

 72
    65
 73
    6
 40
    78
 49
    64
 74
    0
 49
    -2
 74
    0
 49
    4
 74
    0
 49
    -2
 74
    0
 49
    4
 74
    0
 49
    -2
 74
    0
  0
LTYPE
  5
88
100
AcDbSymbolTableRecord
100
AcDbLinetypeTableRecord
  2

 70
    64
 3

 72
    65
 73
    4
 40
    19
 49
    14
 74
    0
 49
    -1
 74
    0
 49
    3
 74
    0
 49
    -1
 74
    0
  0
LTYPE
  5
89
100
AcDbSymbolTableRecord
100
AcDbLinetypeTableRecord
  2

 70
    64
 3

 72
    65
 73
    4
 40
    31.5
 49
    27
 74
    0
 49
    -1
 74
    0
 49
    2.5
 74
    0
 49
    -1
 74
    0
  0
LTYPE
  5
8A
100
AcDbSymbolTableRecord
100
AcDbLinetypeTableRecord
  2

 70
    64
 3

 72
    65
 73
    4
 40
    50
 49
    45
 74
    0
 49
    -1
 74
    0
 49
    3
 74
    0
 49
    -1
 74
    0
  0
LTYPE
  5
8B
100
AcDbSymbolTableRecord
100
AcDbLinetypeTableRecord
  2

 70
    64
 3

 72
    65
 73
    4
 40
    100
 49
    92
 74
    0
 49
    -2
 74
    0
 49
    4
 74
    0
 49
    -2
 74
    0
  0
LTYPE
  5
8C
100
AcDbSymbolTableRecord
100
AcDbLinetypeTableRecord
  2

 70
    64
 3

 72
    65
 73
    2
 40
    6
 49
    4
 74
    0
 49
    -2
 74
    0
  0
ENDTAB
  0
TABLE
  2
LAYER
  5
3
100
AcDbSymbolTable
 70
   257
  0
LAYER
  5
8D
100
AcDbSymbolTableRecord
100
AcDbLayerTableRecord
  2
0-0
 70
    0
 62
250
  6
CONTINUOUS
  0
LAYER
  5
8E
100
AcDbSymbolTableRecord
100
AcDbLayerTableRecord
  2
0-1
 70
    0
 62
3
  6
CONTINUOUS
  0
LAYER
  5
8F
100
AcDbSymbolTableRecord
100
AcDbLayerTableRecord
  2
0-2
 70
    0
 62
9
  6
CONTINUOUS
  0
LAYER
  5
90
100
AcDbSymbolTableRecord
100
AcDbLayerTableRecord
  2
0-3
 70
    0
 62
250
  6
CONTINUOUS
  0
LAYER
  5
91
100
AcDbSymbolTableRecord
100
AcDbLayerTableRecord
  2
0-4
 70
    0
 62
6
  6
CONTINUOUS
  0
LAYER
  5
92
100
AcDbSymbolTableRecord
100
AcDbLayerTableRecord
  2
0-5
 70
    0
 62
1
  6
CONTINUOUS
  0
LAYER
  5
93
100
AcDbSymbolTableRecord
100
AcDbLayerTableRecord
  2
0-6
 70
    0
 62
7
  6
CONTINUOUS
  0
LAYER
  5
94
100
AcDbSymbolTableRecord
100
AcDbLayerTableRecord
  2
0-7
 70
    0
 62
51
  6
CONTINUOUS
  0
LAYER
  5
95
100
AcDbSymbolTableRecord
100
AcDbLayerTableRecord
  2
0-8
 70
    0
 62
61
  6
CONTINUOUS
  0
LAYER
  5
96
100
AcDbSymbolTableRecord
100
AcDbLayerTableRecord
  2
0-9
 70
    0
 62
111
  6
CONTINUOUS
  0
LAYER
  5
97
100
AcDbSymbolTableRecord
100
AcDbLayerTableRecord
  2
0-a
 70
    0
 62
91
  6
CONTINUOUS
  0
LAYER
  5
98
100
AcDbSymbolTableRecord
100
AcDbLayerTableRecord
  2
0-b
 70
    0
 62
131
  6
CONTINUOUS
  0
LAYER
  5
99
100
AcDbSymbolTableRecord
100
AcDbLayerTableRecord
  2
0-c
 70
    0
 62
161
  6
CONTINUOUS
  0
LAYER
  5
9A
100
AcDbSymbolTableRecord
100
AcDbLayerTableRecord
  2
0-d
 70
    0
 62
5
  6
CONTINUOUS
  0
LAYER
  5
9B
100
AcDbSymbolTableRecord
100
AcDbLayerTableRecord
  2
0-e
 70
    0
 62
7
  6
CONTINUOUS
  0
LAYER
  5
9C
100
AcDbSymbolTableRecord
100
AcDbLayerTableRecord
  2
0-f
 70
    0
 62
11
  6
CONTINUOUS
  0
LAYER
  5
9D
100
AcDbSymbolTableRecord
100
AcDbLayerTableRecord
  2
1-0
 70
    0
 62
250
  6
CONTINUOUS
  0
LAYER
  5
9E
100
AcDbSymbolTableRecord
100
AcDbLayerTableRecord
  2
1-1
 70
    0
 62
70
  6
CONTINUOUS
  0
LAYER
  5
9F
100
AcDbSymbolTableRecord
100
AcDbLayerTableRecord
  2
1-2
 70
    0
 62
211
  6
CONTINUOUS
  0
LAYER
  5
A0
100
AcDbSymbolTableRecord
100
AcDbLayerTableRecord
  2
1-3
 70
    0
 62
137
  6
CONTINUOUS
  0
LAYER
  5
A1
100
AcDbSymbolTableRecord
100
AcDbLayerTableRecord
  2
1-4
 70
    0
 62
4
  6
CONTINUOUS
  0
LAYER
  5
A2
100
AcDbSymbolTableRecord
100
AcDbLayerTableRecord
  2
1-5
 70
    0
 62
131
  6
CONTINUOUS
  0
LAYER
  5
A3
100
AcDbSymbolTableRecord
100
AcDbLayerTableRecord
  2
1-6
 70
    0
 62
4
  6
CONTINUOUS
  0
LAYER
  5
A4
100
AcDbSymbolTableRecord
100
AcDbLayerTableRecord
  2
1-7
 70
    0
 62
4
  6
CONTINUOUS
  0
LAYER
  5
A5
100
AcDbSymbolTableRecord
100
AcDbLayerTableRecord
  2
1-8
 70
    0
 62
250
  6
CONTINUOUS
  0
LAYER
  5
A6
100
AcDbSymbolTableRecord
100
AcDbLayerTableRecord
  2
1-9
 70
    0
 62
250
  6
CONTINUOUS
  0
LAYER
  5
A7
100
AcDbSymbolTableRecord
100
AcDbLayerTableRecord
  2
1-a
 70
    0
 62
250
  6
CONTINUOUS
  0
LAYER
  5
A8
100
AcDbSymbolTableRecord
100
AcDbLayerTableRecord
  2
1-b
 70
    0
 62
250
  6
CONTINUOUS
  0
LAYER
  5
A9
100
AcDbSymbolTableRecord
100
AcDbLayerTableRecord
  2
1-c
 70
    0
 62
250
  6
CONTINUOUS
  0
LAYER
  5
AA
100
AcDbSymbolTableRecord
100
AcDbLayerTableRecord
  2
1-d
 70
    0
 62
250
  6
CONTINUOUS
  0
LAYER
  5
AB
100
AcDbSymbolTableRecord
100
AcDbLayerTableRecord
  2
1-e
 70
    0
 62
250
  6
CONTINUOUS
  0
LAYER
  5
AC
100
AcDbSymbolTableRecord
100
AcDbLayerTableRecord
  2
1-f
 70
    0
 62
250
  6
CONTINUOUS
  0
LAYER
  5
AD
100
AcDbSymbolTableRecord
100
AcDbLayerTableRecord
  2
2-0
 70
    0
 62
250
  6
CONTINUOUS
  0
LAYER
  5
AE
100
AcDbSymbolTableRecord
100
AcDbLayerTableRecord
  2
2-1
 70
    0
 62
250
  6
CONTINUOUS
  0
LAYER
  5
AF
100
AcDbSymbolTableRecord
100
AcDbLayerTableRecord
  2
2-2
 70
    0
 62
250
  6
CONTINUOUS
  0
LAYER
  5
B0
100
AcDbSymbolTableRecord
100
AcDbLayerTableRecord
  2
2-3
 70
    0
 62
250
  6
CONTINUOUS
  0
LAYER
  5
B1
100
AcDbSymbolTableRecord
100
AcDbLayerTableRecord
  2
2-4
 70
    0
 62
250
  6
CONTINUOUS
  0
LAYER
  5
B2
100
AcDbSymbolTableRecord
100
AcDbLayerTableRecord
  2
2-5
 70
    0
 62
250
  6
CONTINUOUS
  0
LAYER
  5
B3
100
AcDbSymbolTableRecord
100
AcDbLayerTableRecord
  2
2-6
 70
    0
 62
250
  6
CONTINUOUS
  0
LAYER
  5
B4
100
AcDbSymbolTableRecord
100
AcDbLayerTableRecord
  2
2-7
 70
    0
 62
250
  6
CONTINUOUS
  0
LAYER
  5
B5
100
AcDbSymbolTableRecord
100
AcDbLayerTableRecord
  2
2-8
 70
    0
 62
250
  6
CONTINUOUS
  0
LAYER
  5
B6
100
AcDbSymbolTableRecord
100
AcDbLayerTableRecord
  2
2-9
 70
    0
 62
250
  6
CONTINUOUS
  0
LAYER
  5
B7
100
AcDbSymbolTableRecord
100
AcDbLayerTableRecord
  2
2-a
 70
    0
 62
250
  6
CONTINUOUS
  0
LAYER
  5
B8
100
AcDbSymbolTableRecord
100
AcDbLayerTableRecord
  2
2-b
 70
    0
 62
250
  6
CONTINUOUS
  0
LAYER
  5
B9
100
AcDbSymbolTableRecord
100
AcDbLayerTableRecord
  2
2-c
 70
    0
 62
250
  6
CONTINUOUS
  0
LAYER
  5
BA
100
AcDbSymbolTableRecord
100
AcDbLayerTableRecord
  2
2-d
 70
    0
 62
250
  6
CONTINUOUS
  0
LAYER
  5
BB
100
AcDbSymbolTableRecord
100
AcDbLayerTableRecord
  2
2-e
 70
    0
 62
250
  6
CONTINUOUS
  0
LAYER
  5
BC
100
AcDbSymbolTableRecord
100
AcDbLayerTableRecord
  2
2-f
 70
    0
 62
250
  6
CONTINUOUS
  0
LAYER
  5
BD
100
AcDbSymbolTableRecord
100
AcDbLayerTableRecord
  2
3-0
 70
    0
 62
250
  6
CONTINUOUS
  0
LAYER
  5
BE
100
AcDbSymbolTableRecord
100
AcDbLayerTableRecord
  2
3-1
 70
    0
 62
250
  6
CONTINUOUS
  0
LAYER
  5
BF
100
AcDbSymbolTableRecord
100
AcDbLayerTableRecord
  2
3-2
 70
    0
 62
250
  6
CONTINUOUS
  0
LAYER
  5
C0
100
AcDbSymbolTableRecord
100
AcDbLayerTableRecord
  2
3-3
 70
    0
 62
250
  6
CONTINUOUS
  0
LAYER
  5
C1
100
AcDbSymbolTableRecord
100
AcDbLayerTableRecord
  2
3-4
 70
    0
 62
250
  6
CONTINUOUS
  0
LAYER
  5
C2
100
AcDbSymbolTableRecord
100
AcDbLayerTableRecord
  2
3-5
 70
    0
 62
250
  6
CONTINUOUS
  0
LAYER
  5
C3
100
AcDbSymbolTableRecord
100
AcDbLayerTableRecord
  2
3-6
 70
    0
 62
250
  6
CONTINUOUS
  0
LAYER
  5
C4
100
AcDbSymbolTableRecord
100
AcDbLayerTableRecord
  2
3-7
 70
    0
 62
250
  6
CONTINUOUS
  0
LAYER
  5
C5
100
AcDbSymbolTableRecord
100
AcDbLayerTableRecord
  2
3-8
 70
    0
 62
250
  6
CONTINUOUS
  0
LAYER
  5
C6
100
AcDbSymbolTableRecord
100
AcDbLayerTableRecord
  2
3-9
 70
    0
 62
250
  6
CONTINUOUS
  0
LAYER
  5
C7
100
AcDbSymbolTableRecord
100
AcDbLayerTableRecord
  2
3-a
 70
    0
 62
250
  6
CONTINUOUS
  0
LAYER
  5
C8
100
AcDbSymbolTableRecord
100
AcDbLayerTableRecord
  2
3-b
 70
    0
 62
250
  6
CONTINUOUS
  0
LAYER
  5
C9
100
AcDbSymbolTableRecord
100
AcDbLayerTableRecord
  2
3-c
 70
    0
 62
250
  6
CONTINUOUS
  0
LAYER
  5
CA
100
AcDbSymbolTableRecord
100
AcDbLayerTableRecord
  2
3-d
 70
    0
 62
250
  6
CONTINUOUS
  0
LAYER
  5
CB
100
AcDbSymbolTableRecord
100
AcDbLayerTableRecord
  2
3-e
 70
    0
 62
250
  6
CONTINUOUS
  0
LAYER
  5
CC
100
AcDbSymbolTableRecord
100
AcDbLayerTableRecord
  2
3-f
 70
    0
 62
250
  6
CONTINUOUS
  0
LAYER
  5
CD
100
AcDbSymbolTableRecord
100
AcDbLayerTableRecord
  2
4-0
 70
    0
 62
250
  6
CONTINUOUS
  0
LAYER
  5
CE
100
AcDbSymbolTableRecord
100
AcDbLayerTableRecord
  2
4-1
 70
    0
 62
250
  6
CONTINUOUS
  0
LAYER
  5
CF
100
AcDbSymbolTableRecord
100
AcDbLayerTableRecord
  2
4-2
 70
    0
 62
250
  6
CONTINUOUS
  0
LAYER
  5
D0
100
AcDbSymbolTableRecord
100
AcDbLayerTableRecord
  2
4-3
 70
    0
 62
250
  6
CONTINUOUS
  0
LAYER
  5
D1
100
AcDbSymbolTableRecord
100
AcDbLayerTableRecord
  2
4-4
 70
    0
 62
250
  6
CONTINUOUS
  0
LAYER
  5
D2
100
AcDbSymbolTableRecord
100
AcDbLayerTableRecord
  2
4-5
 70
    0
 62
250
  6
CONTINUOUS
  0
LAYER
  5
D3
100
AcDbSymbolTableRecord
100
AcDbLayerTableRecord
  2
4-6
 70
    0
 62
250
  6
CONTINUOUS
  0
LAYER
  5
D4
100
AcDbSymbolTableRecord
100
AcDbLayerTableRecord
  2
4-7
 70
    0
 62
250
  6
CONTINUOUS
  0
LAYER
  5
D5
100
AcDbSymbolTableRecord
100
AcDbLayerTableRecord
  2
4-8
 70
    0
 62
250
  6
CONTINUOUS
  0
LAYER
  5
D6
100
AcDbSymbolTableRecord
100
AcDbLayerTableRecord
  2
4-9
 70
    0
 62
250
  6
CONTINUOUS
  0
LAYER
  5
D7
100
AcDbSymbolTableRecord
100
AcDbLayerTableRecord
  2
4-a
 70
    0
 62
250
  6
CONTINUOUS
  0
LAYER
  5
D8
100
AcDbSymbolTableRecord
100
AcDbLayerTableRecord
  2
4-b
 70
    0
 62
250
  6
CONTINUOUS
  0
LAYER
  5
D9
100
AcDbSymbolTableRecord
100
AcDbLayerTableRecord
  2
4-c
 70
    0
 62
250
  6
CONTINUOUS
  0
LAYER
  5
DA
100
AcDbSymbolTableRecord
100
AcDbLayerTableRecord
  2
4-d
 70
    0
 62
250
  6
CONTINUOUS
  0
LAYER
  5
DB
100
AcDbSymbolTableRecord
100
AcDbLayerTableRecord
  2
4-e
 70
    0
 62
250
  6
CONTINUOUS
  0
LAYER
  5
DC
100
AcDbSymbolTableRecord
100
AcDbLayerTableRecord
  2
4-f
 70
    0
 62
250
  6
CONTINUOUS
  0
LAYER
  5
DD
100
AcDbSymbolTableRecord
100
AcDbLayerTableRecord
  2
5-0
 70
    0
 62
250
  6
CONTINUOUS
  0
LAYER
  5
DE
100
AcDbSymbolTableRecord
100
AcDbLayerTableRecord
  2
5-1
 70
    0
 62
250
  6
CONTINUOUS
  0
LAYER
  5
DF
100
AcDbSymbolTableRecord
100
AcDbLayerTableRecord
  2
5-2
 70
    0
 62
250
  6
CONTINUOUS
  0
LAYER
  5
E0
100
AcDbSymbolTableRecord
100
AcDbLayerTableRecord
  2
5-3
 70
    0
 62
250
  6
CONTINUOUS
  0
LAYER
  5
E1
100
AcDbSymbolTableRecord
100
AcDbLayerTableRecord
  2
5-4
 70
    0
 62
250
  6
CONTINUOUS
  0
LAYER
  5
E2
100
AcDbSymbolTableRecord
100
AcDbLayerTableRecord
  2
5-5
 70
    0
 62
250
  6
CONTINUOUS
  0
LAYER
  5
E3
100
AcDbSymbolTableRecord
100
AcDbLayerTableRecord
  2
5-6
 70
    0
 62
250
  6
CONTINUOUS
  0
LAYER
  5
E4
100
AcDbSymbolTableRecord
100
AcDbLayerTableRecord
  2
5-7
 70
    0
 62
250
  6
CONTINUOUS
  0
LAYER
  5
E5
100
AcDbSymbolTableRecord
100
AcDbLayerTableRecord
  2
5-8
 70
    0
 62
250
  6
CONTINUOUS
  0
LAYER
  5
E6
100
AcDbSymbolTableRecord
100
AcDbLayerTableRecord
  2
5-9
 70
    0
 62
250
  6
CONTINUOUS
  0
LAYER
  5
E7
100
AcDbSymbolTableRecord
100
AcDbLayerTableRecord
  2
5-a
 70
    0
 62
250
  6
CONTINUOUS
  0
LAYER
  5
E8
100
AcDbSymbolTableRecord
100
AcDbLayerTableRecord
  2
5-b
 70
    0
 62
250
  6
CONTINUOUS
  0
LAYER
  5
E9
100
AcDbSymbolTableRecord
100
AcDbLayerTableRecord
  2
5-c
 70
    0
 62
250
  6
CONTINUOUS
  0
LAYER
  5
EA
100
AcDbSymbolTableRecord
100
AcDbLayerTableRecord
  2
5-d
 70
    0
 62
250
  6
CONTINUOUS
  0
LAYER
  5
EB
100
AcDbSymbolTableRecord
100
AcDbLayerTableRecord
  2
5-e
 70
    0
 62
250
  6
CONTINUOUS
  0
LAYER
  5
EC
100
AcDbSymbolTableRecord
100
AcDbLayerTableRecord
  2
5-f
 70
    0
 62
250
  6
CONTINUOUS
  0
LAYER
  5
ED
100
AcDbSymbolTableRecord
100
AcDbLayerTableRecord
  2
6-0
 70
    0
 62
250
  6
CONTINUOUS
  0
LAYER
  5
EE
100
AcDbSymbolTableRecord
100
AcDbLayerTableRecord
  2
6-1
 70
    0
 62
250
  6
CONTINUOUS
  0
LAYER
  5
EF
100
AcDbSymbolTableRecord
100
AcDbLayerTableRecord
  2
6-2
 70
    0
 62
250
  6
CONTINUOUS
  0
LAYER
  5
F0
100
AcDbSymbolTableRecord
100
AcDbLayerTableRecord
  2
6-3
 70
    0
 62
250
  6
CONTINUOUS
  0
LAYER
  5
F1
100
AcDbSymbolTableRecord
100
AcDbLayerTableRecord
  2
6-4
 70
    0
 62
250
  6
CONTINUOUS
  0
LAYER
  5
F2
100
AcDbSymbolTableRecord
100
AcDbLayerTableRecord
  2
6-5
 70
    0
 62
250
  6
CONTINUOUS
  0
LAYER
  5
F3
100
AcDbSymbolTableRecord
100
AcDbLayerTableRecord
  2
6-6
 70
    0
 62
250
  6
CONTINUOUS
  0
LAYER
  5
F4
100
AcDbSymbolTableRecord
100
AcDbLayerTableRecord
  2
6-7
 70
    0
 62
250
  6
CONTINUOUS
  0
LAYER
  5
F5
100
AcDbSymbolTableRecord
100
AcDbLayerTableRecord
  2
6-8
 70
    0
 62
250
  6
CONTINUOUS
  0
LAYER
  5
F6
100
AcDbSymbolTableRecord
100
AcDbLayerTableRecord
  2
6-9
 70
    0
 62
250
  6
CONTINUOUS
  0
LAYER
  5
F7
100
AcDbSymbolTableRecord
100
AcDbLayerTableRecord
  2
6-a
 70
    0
 62
250
  6
CONTINUOUS
  0
LAYER
  5
F8
100
AcDbSymbolTableRecord
100
AcDbLayerTableRecord
  2
6-b
 70
    0
 62
250
  6
CONTINUOUS
  0
LAYER
  5
F9
100
AcDbSymbolTableRecord
100
AcDbLayerTableRecord
  2
6-c
 70
    0
 62
250
  6
CONTINUOUS
  0
LAYER
  5
FA
100
AcDbSymbolTableRecord
100
AcDbLayerTableRecord
  2
6-d
 70
    0
 62
250
  6
CONTINUOUS
  0
LAYER
  5
FB
100
AcDbSymbolTableRecord
100
AcDbLayerTableRecord
  2
6-e
 70
    0
 62
250
  6
CONTINUOUS
  0
LAYER
  5
FC
100
AcDbSymbolTableRecord
100
AcDbLayerTableRecord
  2
6-f
 70
    0
 62
250
  6
CONTINUOUS
  0
LAYER
  5
FD
100
AcDbSymbolTableRecord
100
AcDbLayerTableRecord
  2
7-0
 70
    0
 62
250
  6
CONTINUOUS
  0
LAYER
  5
FE
100
AcDbSymbolTableRecord
100
AcDbLayerTableRecord
  2
7-1
 70
    0
 62
250
  6
CONTINUOUS
  0
LAYER
  5
FF
100
AcDbSymbolTableRecord
100
AcDbLayerTableRecord
  2
7-2
 70
    0
 62
250
  6
CONTINUOUS
  0
LAYER
  5
100
100
AcDbSymbolTableRecord
100
AcDbLayerTableRecord
  2
7-3
 70
    0
 62
250
  6
CONTINUOUS
  0
LAYER
  5
101
100
AcDbSymbolTableRecord
100
AcDbLayerTableRecord
  2
7-4
 70
    0
 62
250
  6
CONTINUOUS
  0
LAYER
  5
102
100
AcDbSymbolTableRecord
100
AcDbLayerTableRecord
  2
7-5
 70
    0
 62
250
  6
CONTINUOUS
  0
LAYER
  5
103
100
AcDbSymbolTableRecord
100
AcDbLayerTableRecord
  2
7-6
 70
    0
 62
250
  6
CONTINUOUS
  0
LAYER
  5
104
100
AcDbSymbolTableRecord
100
AcDbLayerTableRecord
  2
7-7
 70
    0
 62
250
  6
CONTINUOUS
  0
LAYER
  5
105
100
AcDbSymbolTableRecord
100
AcDbLayerTableRecord
  2
7-8
 70
    0
 62
250
  6
CONTINUOUS
  0
LAYER
  5
106
100
AcDbSymbolTableRecord
100
AcDbLayerTableRecord
  2
7-9
 70
    0
 62
250
  6
CONTINUOUS
  0
LAYER
  5
107
100
AcDbSymbolTableRecord
100
AcDbLayerTableRecord
  2
7-a
 70
    0
 62
250
  6
CONTINUOUS
  0
LAYER
  5
108
100
AcDbSymbolTableRecord
100
AcDbLayerTableRecord
  2
7-b
 70
    0
 62
250
  6
CONTINUOUS
  0
LAYER
  5
109
100
AcDbSymbolTableRecord
100
AcDbLayerTableRecord
  2
7-c
 70
    0
 62
250
  6
CONTINUOUS
  0
LAYER
  5
10A
100
AcDbSymbolTableRecord
100
AcDbLayerTableRecord
  2
7-d
 70
    0
 62
250
  6
CONTINUOUS
  0
LAYER
  5
10B
100
AcDbSymbolTableRecord
100
AcDbLayerTableRecord
  2
7-e
 70
    0
 62
250
  6
CONTINUOUS
  0
LAYER
  5
10C
100
AcDbSymbolTableRecord
100
AcDbLayerTableRecord
  2
7-f
 70
    0
 62
250
  6
CONTINUOUS
  0
LAYER
  5
10D
100
AcDbSymbolTableRecord
100
AcDbLayerTableRecord
  2
8-0
 70
    0
 62
250
  6
CONTINUOUS
  0
LAYER
  5
10E
100
AcDbSymbolTableRecord
100
AcDbLayerTableRecord
  2
8-1
 70
    0
 62
250
  6
CONTINUOUS
  0
LAYER
  5
10F
100
AcDbSymbolTableRecord
100
AcDbLayerTableRecord
  2
8-2
 70
    0
 62
250
  6
CONTINUOUS
  0
LAYER
  5
110
100
AcDbSymbolTableRecord
100
AcDbLayerTableRecord
  2
8-3
 70
    0
 62
250
  6
CONTINUOUS
  0
LAYER
  5
111
100
AcDbSymbolTableRecord
100
AcDbLayerTableRecord
  2
8-4
 70
    0
 62
250
  6
CONTINUOUS
  0
LAYER
  5
112
100
AcDbSymbolTableRecord
100
AcDbLayerTableRecord
  2
8-5
 70
    0
 62
250
  6
CONTINUOUS
  0
LAYER
  5
113
100
AcDbSymbolTableRecord
100
AcDbLayerTableRecord
  2
8-6
 70
    0
 62
250
  6
CONTINUOUS
  0
LAYER
  5
114
100
AcDbSymbolTableRecord
100
AcDbLayerTableRecord
  2
8-7
 70
    0
 62
250
  6
CONTINUOUS
  0
LAYER
  5
115
100
AcDbSymbolTableRecord
100
AcDbLayerTableRecord
  2
8-8
 70
    0
 62
250
  6
CONTINUOUS
  0
LAYER
  5
116
100
AcDbSymbolTableRecord
100
AcDbLayerTableRecord
  2
8-9
 70
    0
 62
250
  6
CONTINUOUS
  0
LAYER
  5
117
100
AcDbSymbolTableRecord
100
AcDbLayerTableRecord
  2
8-a
 70
    0
 62
250
  6
CONTINUOUS
  0
LAYER
  5
118
100
AcDbSymbolTableRecord
100
AcDbLayerTableRecord
  2
8-b
 70
    0
 62
250
  6
CONTINUOUS
  0
LAYER
  5
119
100
AcDbSymbolTableRecord
100
AcDbLayerTableRecord
  2
8-c
 70
    0
 62
250
  6
CONTINUOUS
  0
LAYER
  5
11A
100
AcDbSymbolTableRecord
100
AcDbLayerTableRecord
  2
8-d
 70
    0
 62
250
  6
CONTINUOUS
  0
LAYER
  5
11B
100
AcDbSymbolTableRecord
100
AcDbLayerTableRecord
  2
8-e
 70
    0
 62
250
  6
CONTINUOUS
  0
LAYER
  5
11C
100
AcDbSymbolTableRecord
100
AcDbLayerTableRecord
  2
8-f
 70
    0
 62
250
  6
CONTINUOUS
  0
LAYER
  5
11D
100
AcDbSymbolTableRecord
100
AcDbLayerTableRecord
  2
9-0
 70
    0
 62
250
  6
CONTINUOUS
  0
LAYER
  5
11E
100
AcDbSymbolTableRecord
100
AcDbLayerTableRecord
  2
9-1
 70
    0
 62
250
  6
CONTINUOUS
  0
LAYER
  5
11F
100
AcDbSymbolTableRecord
100
AcDbLayerTableRecord
  2
9-2
 70
    0
 62
250
  6
CONTINUOUS
  0
LAYER
  5
120
100
AcDbSymbolTableRecord
100
AcDbLayerTableRecord
  2
9-3
 70
    0
 62
250
  6
CONTINUOUS
  0
LAYER
  5
121
100
AcDbSymbolTableRecord
100
AcDbLayerTableRecord
  2
9-4
 70
    0
 62
250
  6
CONTINUOUS
  0
LAYER
  5
122
100
AcDbSymbolTableRecord
100
AcDbLayerTableRecord
  2
9-5
 70
    0
 62
250
  6
CONTINUOUS
  0
LAYER
  5
123
100
AcDbSymbolTableRecord
100
AcDbLayerTableRecord
  2
9-6
 70
    0
 62
250
  6
CONTINUOUS
  0
LAYER
  5
124
100
AcDbSymbolTableRecord
100
AcDbLayerTableRecord
  2
9-7
 70
    0
 62
250
  6
CONTINUOUS
  0
LAYER
  5
125
100
AcDbSymbolTableRecord
100
AcDbLayerTableRecord
  2
9-8
 70
    0
 62
250
  6
CONTINUOUS
  0
LAYER
  5
126
100
AcDbSymbolTableRecord
100
AcDbLayerTableRecord
  2
9-9
 70
    0
 62
250
  6
CONTINUOUS
  0
LAYER
  5
127
100
AcDbSymbolTableRecord
100
AcDbLayerTableRecord
  2
9-a
 70
    0
 62
250
  6
CONTINUOUS
  0
LAYER
  5
128
100
AcDbSymbolTableRecord
100
AcDbLayerTableRecord
  2
9-b
 70
    0
 62
250
  6
CONTINUOUS
  0
LAYER
  5
129
100
AcDbSymbolTableRecord
100
AcDbLayerTableRecord
  2
9-c
 70
    0
 62
250
  6
CONTINUOUS
  0
LAYER
  5
12A
100
AcDbSymbolTableRecord
100
AcDbLayerTableRecord
  2
9-d
 70
    0
 62
250
  6
CONTINUOUS
  0
LAYER
  5
12B
100
AcDbSymbolTableRecord
100
AcDbLayerTableRecord
  2
9-e
 70
    0
 62
250
  6
CONTINUOUS
  0
LAYER
  5
12C
100
AcDbSymbolTableRecord
100
AcDbLayerTableRecord
  2
9-f
 70
    0
 62
250
  6
CONTINUOUS
  0
LAYER
  5
12D
100
AcDbSymbolTableRecord
100
AcDbLayerTableRecord
  2
a-0
 70
    0
 62
250
  6
CONTINUOUS
  0
LAYER
  5
12E
100
AcDbSymbolTableRecord
100
AcDbLayerTableRecord
  2
a-1
 70
    0
 62
250
  6
CONTINUOUS
  0
LAYER
  5
12F
100
AcDbSymbolTableRecord
100
AcDbLayerTableRecord
  2
a-2
 70
    0
 62
250
  6
CONTINUOUS
  0
LAYER
  5
130
100
AcDbSymbolTableRecord
100
AcDbLayerTableRecord
  2
a-3
 70
    0
 62
250
  6
CONTINUOUS
  0
LAYER
  5
131
100
AcDbSymbolTableRecord
100
AcDbLayerTableRecord
  2
a-4
 70
    0
 62
250
  6
CONTINUOUS
  0
LAYER
  5
132
100
AcDbSymbolTableRecord
100
AcDbLayerTableRecord
  2
a-5
 70
    0
 62
250
  6
CONTINUOUS
  0
LAYER
  5
133
100
AcDbSymbolTableRecord
100
AcDbLayerTableRecord
  2
a-6
 70
    0
 62
250
  6
CONTINUOUS
  0
LAYER
  5
134
100
AcDbSymbolTableRecord
100
AcDbLayerTableRecord
  2
a-7
 70
    0
 62
250
  6
CONTINUOUS
  0
LAYER
  5
135
100
AcDbSymbolTableRecord
100
AcDbLayerTableRecord
  2
a-8
 70
    0
 62
250
  6
CONTINUOUS
  0
LAYER
  5
136
100
AcDbSymbolTableRecord
100
AcDbLayerTableRecord
  2
a-9
 70
    0
 62
250
  6
CONTINUOUS
  0
LAYER
  5
137
100
AcDbSymbolTableRecord
100
AcDbLayerTableRecord
  2
a-a
 70
    0
 62
250
  6
CONTINUOUS
  0
LAYER
  5
138
100
AcDbSymbolTableRecord
100
AcDbLayerTableRecord
  2
a-b
 70
    0
 62
250
  6
CONTINUOUS
  0
LAYER
  5
139
100
AcDbSymbolTableRecord
100
AcDbLayerTableRecord
  2
a-c
 70
    0
 62
250
  6
CONTINUOUS
  0
LAYER
  5
13A
100
AcDbSymbolTableRecord
100
AcDbLayerTableRecord
  2
a-d
 70
    0
 62
250
  6
CONTINUOUS
  0
LAYER
  5
13B
100
AcDbSymbolTableRecord
100
AcDbLayerTableRecord
  2
a-e
 70
    0
 62
250
  6
CONTINUOUS
  0
LAYER
  5
13C
100
AcDbSymbolTableRecord
100
AcDbLayerTableRecord
  2
a-f
 70
    0
 62
250
  6
CONTINUOUS
  0
LAYER
  5
13D
100
AcDbSymbolTableRecord
100
AcDbLayerTableRecord
  2
b-0
 70
    0
 62
250
  6
CONTINUOUS
  0
LAYER
  5
13E
100
AcDbSymbolTableRecord
100
AcDbLayerTableRecord
  2
b-1
 70
    0
 62
250
  6
CONTINUOUS
  0
LAYER
  5
13F
100
AcDbSymbolTableRecord
100
AcDbLayerTableRecord
  2
b-2
 70
    0
 62
250
  6
CONTINUOUS
  0
LAYER
  5
140
100
AcDbSymbolTableRecord
100
AcDbLayerTableRecord
  2
b-3
 70
    0
 62
250
  6
CONTINUOUS
  0
LAYER
  5
141
100
AcDbSymbolTableRecord
100
AcDbLayerTableRecord
  2
b-4
 70
    0
 62
250
  6
CONTINUOUS
  0
LAYER
  5
142
100
AcDbSymbolTableRecord
100
AcDbLayerTableRecord
  2
b-5
 70
    0
 62
250
  6
CONTINUOUS
  0
LAYER
  5
143
100
AcDbSymbolTableRecord
100
AcDbLayerTableRecord
  2
b-6
 70
    0
 62
250
  6
CONTINUOUS
  0
LAYER
  5
144
100
AcDbSymbolTableRecord
100
AcDbLayerTableRecord
  2
b-7
 70
    0
 62
250
  6
CONTINUOUS
  0
LAYER
  5
145
100
AcDbSymbolTableRecord
100
AcDbLayerTableRecord
  2
b-8
 70
    0
 62
250
  6
CONTINUOUS
  0
LAYER
  5
146
100
AcDbSymbolTableRecord
100
AcDbLayerTableRecord
  2
b-9
 70
    0
 62
250
  6
CONTINUOUS
  0
LAYER
  5
147
100
AcDbSymbolTableRecord
100
AcDbLayerTableRecord
  2
b-a
 70
    0
 62
250
  6
CONTINUOUS
  0
LAYER
  5
148
100
AcDbSymbolTableRecord
100
AcDbLayerTableRecord
  2
b-b
 70
    0
 62
250
  6
CONTINUOUS
  0
LAYER
  5
149
100
AcDbSymbolTableRecord
100
AcDbLayerTableRecord
  2
b-c
 70
    0
 62
250
  6
CONTINUOUS
  0
LAYER
  5
14A
100
AcDbSymbolTableRecord
100
AcDbLayerTableRecord
  2
b-d
 70
    0
 62
250
  6
CONTINUOUS
  0
LAYER
  5
14B
100
AcDbSymbolTableRecord
100
AcDbLayerTableRecord
  2
b-e
 70
    0
 62
250
  6
CONTINUOUS
  0
LAYER
  5
14C
100
AcDbSymbolTableRecord
100
AcDbLayerTableRecord
  2
b-f
 70
    0
 62
250
  6
CONTINUOUS
  0
LAYER
  5
14D
100
AcDbSymbolTableRecord
100
AcDbLayerTableRecord
  2
c-0
 70
    0
 62
250
  6
CONTINUOUS
  0
LAYER
  5
14E
100
AcDbSymbolTableRecord
100
AcDbLayerTableRecord
  2
c-1
 70
    0
 62
250
  6
CONTINUOUS
  0
LAYER
  5
14F
100
AcDbSymbolTableRecord
100
AcDbLayerTableRecord
  2
c-2
 70
    0
 62
250
  6
CONTINUOUS
  0
LAYER
  5
150
100
AcDbSymbolTableRecord
100
AcDbLayerTableRecord
  2
c-3
 70
    0
 62
250
  6
CONTINUOUS
  0
LAYER
  5
151
100
AcDbSymbolTableRecord
100
AcDbLayerTableRecord
  2
c-4
 70
    0
 62
250
  6
CONTINUOUS
  0
LAYER
  5
152
100
AcDbSymbolTableRecord
100
AcDbLayerTableRecord
  2
c-5
 70
    0
 62
250
  6
CONTINUOUS
  0
LAYER
  5
153
100
AcDbSymbolTableRecord
100
AcDbLayerTableRecord
  2
c-6
 70
    0
 62
250
  6
CONTINUOUS
  0
LAYER
  5
154
100
AcDbSymbolTableRecord
100
AcDbLayerTableRecord
  2
c-7
 70
    0
 62
250
  6
CONTINUOUS
  0
LAYER
  5
155
100
AcDbSymbolTableRecord
100
AcDbLayerTableRecord
  2
c-8
 70
    0
 62
250
  6
CONTINUOUS
  0
LAYER
  5
156
100
AcDbSymbolTableRecord
100
AcDbLayerTableRecord
  2
c-9
 70
    0
 62
250
  6
CONTINUOUS
  0
LAYER
  5
157
100
AcDbSymbolTableRecord
100
AcDbLayerTableRecord
  2
c-a
 70
    0
 62
250
  6
CONTINUOUS
  0
LAYER
  5
158
100
AcDbSymbolTableRecord
100
AcDbLayerTableRecord
  2
c-b
 70
    0
 62
250
  6
CONTINUOUS
  0
LAYER
  5
159
100
AcDbSymbolTableRecord
100
AcDbLayerTableRecord
  2
c-c
 70
    0
 62
250
  6
CONTINUOUS
  0
LAYER
  5
15A
100
AcDbSymbolTableRecord
100
AcDbLayerTableRecord
  2
c-d
 70
    0
 62
250
  6
CONTINUOUS
  0
LAYER
  5
15B
100
AcDbSymbolTableRecord
100
AcDbLayerTableRecord
  2
c-e
 70
    0
 62
250
  6
CONTINUOUS
  0
LAYER
  5
15C
100
AcDbSymbolTableRecord
100
AcDbLayerTableRecord
  2
c-f
 70
    0
 62
250
  6
CONTINUOUS
  0
LAYER
  5
15D
100
AcDbSymbolTableRecord
100
AcDbLayerTableRecord
  2
d-0
 70
    0
 62
250
  6
CONTINUOUS
  0
LAYER
  5
15E
100
AcDbSymbolTableRecord
100
AcDbLayerTableRecord
  2
d-1
 70
    0
 62
250
  6
CONTINUOUS
  0
LAYER
  5
15F
100
AcDbSymbolTableRecord
100
AcDbLayerTableRecord
  2
d-2
 70
    0
 62
250
  6
CONTINUOUS
  0
LAYER
  5
160
100
AcDbSymbolTableRecord
100
AcDbLayerTableRecord
  2
d-3
 70
    0
 62
250
  6
CONTINUOUS
  0
LAYER
  5
161
100
AcDbSymbolTableRecord
100
AcDbLayerTableRecord
  2
d-4
 70
    0
 62
250
  6
CONTINUOUS
  0
LAYER
  5
162
100
AcDbSymbolTableRecord
100
AcDbLayerTableRecord
  2
d-5
 70
    0
 62
250
  6
CONTINUOUS
  0
LAYER
  5
163
100
AcDbSymbolTableRecord
100
AcDbLayerTableRecord
  2
d-6
 70
    0
 62
250
  6
CONTINUOUS
  0
LAYER
  5
164
100
AcDbSymbolTableRecord
100
AcDbLayerTableRecord
  2
d-7
 70
    0
 62
250
  6
CONTINUOUS
  0
LAYER
  5
165
100
AcDbSymbolTableRecord
100
AcDbLayerTableRecord
  2
d-8
 70
    0
 62
250
  6
CONTINUOUS
  0
LAYER
  5
166
100
AcDbSymbolTableRecord
100
AcDbLayerTableRecord
  2
d-9
 70
    0
 62
250
  6
CONTINUOUS
  0
LAYER
  5
167
100
AcDbSymbolTableRecord
100
AcDbLayerTableRecord
  2
d-a
 70
    0
 62
250
  6
CONTINUOUS
  0
LAYER
  5
168
100
AcDbSymbolTableRecord
100
AcDbLayerTableRecord
  2
d-b
 70
    0
 62
250
  6
CONTINUOUS
  0
LAYER
  5
169
100
AcDbSymbolTableRecord
100
AcDbLayerTableRecord
  2
d-c
 70
    0
 62
250
  6
CONTINUOUS
  0
LAYER
  5
16A
100
AcDbSymbolTableRecord
100
AcDbLayerTableRecord
  2
d-d
 70
    0
 62
250
  6
CONTINUOUS
  0
LAYER
  5
16B
100
AcDbSymbolTableRecord
100
AcDbLayerTableRecord
  2
d-e
 70
    0
 62
250
  6
CONTINUOUS
  0
LAYER
  5
16C
100
AcDbSymbolTableRecord
100
AcDbLayerTableRecord
  2
d-f
 70
    0
 62
250
  6
CONTINUOUS
  0
LAYER
  5
16D
100
AcDbSymbolTableRecord
100
AcDbLayerTableRecord
  2
e-0
 70
    0
 62
250
  6
CONTINUOUS
  0
LAYER
  5
16E
100
AcDbSymbolTableRecord
100
AcDbLayerTableRecord
  2
e-1
 70
    0
 62
250
  6
CONTINUOUS
  0
LAYER
  5
16F
100
AcDbSymbolTableRecord
100
AcDbLayerTableRecord
  2
e-2
 70
    0
 62
250
  6
CONTINUOUS
  0
LAYER
  5
170
100
AcDbSymbolTableRecord
100
AcDbLayerTableRecord
  2
e-3
 70
    0
 62
250
  6
CONTINUOUS
  0
LAYER
  5
171
100
AcDbSymbolTableRecord
100
AcDbLayerTableRecord
  2
e-4
 70
    0
 62
250
  6
CONTINUOUS
  0
LAYER
  5
172
100
AcDbSymbolTableRecord
100
AcDbLayerTableRecord
  2
e-5
 70
    0
 62
250
  6
CONTINUOUS
  0
LAYER
  5
173
100
AcDbSymbolTableRecord
100
AcDbLayerTableRecord
  2
e-6
 70
    0
 62
250
  6
CONTINUOUS
  0
LAYER
  5
174
100
AcDbSymbolTableRecord
100
AcDbLayerTableRecord
  2
e-7
 70
    0
 62
250
  6
CONTINUOUS
  0
LAYER
  5
175
100
AcDbSymbolTableRecord
100
AcDbLayerTableRecord
  2
e-8
 70
    0
 62
250
  6
CONTINUOUS
  0
LAYER
  5
176
100
AcDbSymbolTableRecord
100
AcDbLayerTableRecord
  2
e-9
 70
    0
 62
250
  6
CONTINUOUS
  0
LAYER
  5
177
100
AcDbSymbolTableRecord
100
AcDbLayerTableRecord
  2
e-a
 70
    0
 62
250
  6
CONTINUOUS
  0
LAYER
  5
178
100
AcDbSymbolTableRecord
100
AcDbLayerTableRecord
  2
e-b
 70
    0
 62
250
  6
CONTINUOUS
  0
LAYER
  5
179
100
AcDbSymbolTableRecord
100
AcDbLayerTableRecord
  2
e-c
 70
    0
 62
250
  6
CONTINUOUS
  0
LAYER
  5
17A
100
AcDbSymbolTableRecord
100
AcDbLayerTableRecord
  2
e-d
 70
    0
 62
250
  6
CONTINUOUS
  0
LAYER
  5
17B
100
AcDbSymbolTableRecord
100
AcDbLayerTableRecord
  2
e-e
 70
    0
 62
250
  6
CONTINUOUS
  0
LAYER
  5
17C
100
AcDbSymbolTableRecord
100
AcDbLayerTableRecord
  2
e-f
 70
    0
 62
250
  6
CONTINUOUS
  0
LAYER
  5
17D
100
AcDbSymbolTableRecord
100
AcDbLayerTableRecord
  2
f-0
 70
    0
 62
250
  6
CONTINUOUS
  0
LAYER
  5
17E
100
AcDbSymbolTableRecord
100
AcDbLayerTableRecord
  2
f-1
 70
    0
 62
250
  6
CONTINUOUS
  0
LAYER
  5
17F
100
AcDbSymbolTableRecord
100
AcDbLayerTableRecord
  2
f-2
 70
    0
 62
250
  6
CONTINUOUS
  0
LAYER
  5
180
100
AcDbSymbolTableRecord
100
AcDbLayerTableRecord
  2
f-3
 70
    0
 62
250
  6
CONTINUOUS
  0
LAYER
  5
181
100
AcDbSymbolTableRecord
100
AcDbLayerTableRecord
  2
f-4
 70
    0
 62
250
  6
CONTINUOUS
  0
LAYER
  5
182
100
AcDbSymbolTableRecord
100
AcDbLayerTableRecord
  2
f-5
 70
    0
 62
250
  6
CONTINUOUS
  0
LAYER
  5
183
100
AcDbSymbolTableRecord
100
AcDbLayerTableRecord
  2
f-6
 70
    0
 62
250
  6
CONTINUOUS
  0
LAYER
  5
184
100
AcDbSymbolTableRecord
100
AcDbLayerTableRecord
  2
f-7
 70
    0
 62
250
  6
CONTINUOUS
  0
LAYER
  5
185
100
AcDbSymbolTableRecord
100
AcDbLayerTableRecord
  2
f-8
 70
    0
 62
250
  6
CONTINUOUS
  0
LAYER
  5
186
100
AcDbSymbolTableRecord
100
AcDbLayerTableRecord
  2
f-9
 70
    0
 62
250
  6
CONTINUOUS
  0
LAYER
  5
187
100
AcDbSymbolTableRecord
100
AcDbLayerTableRecord
  2
f-a
 70
    0
 62
250
  6
CONTINUOUS
  0
LAYER
  5
188
100
AcDbSymbolTableRecord
100
AcDbLayerTableRecord
  2
f-b
 70
    0
 62
250
  6
CONTINUOUS
  0
LAYER
  5
189
100
AcDbSymbolTableRecord
100
AcDbLayerTableRecord
  2
f-c
 70
    0
 62
250
  6
CONTINUOUS
  0
LAYER
  5
18A
100
AcDbSymbolTableRecord
100
AcDbLayerTableRecord
  2
f-d
 70
    0
 62
250
  6
CONTINUOUS
  0
LAYER
  5
18B
100
AcDbSymbolTableRecord
100
AcDbLayerTableRecord
  2
f-e
 70
    0
 62
250
  6
CONTINUOUS
  0
LAYER
  5
18C
100
AcDbSymbolTableRecord
100
AcDbLayerTableRecord
  2
f-f
 70
    0
 62
250
  6
CONTINUOUS
  0
LAYER
  5
18D
100
AcDbSymbolTableRecord
100
AcDbLayerTableRecord
  2
0
 70
   64
 62
    7
  6
CONTINUOUS
  0
ENDTAB
  0
TABLE
  2
STYLE
  5
4
100
AcDbSymbolTable
 70
     1
  0
STYLE
  5
18E
100
AcDbSymbolTableRecord
100
AcDbTextStyleTableRecord
  2
Standard
 70
     0
 40
0.0
 41
1.0
 50
0.0
 71
     0
 42
3.2
  3
TXT
  4
BIGFONT
  0
STYLE
  5
18F
100
AcDbSymbolTableRecord
100
AcDbTextStyleTableRecord
  2
Font_0
 70
     0
 40
0.0
 41
1.0
 50
0.0
 71
     0
 42
3.2
  3
MS Gothic.ttf
  4

1001
ACAD
1000
MS Gothic
1071
  32817
  0
STYLE
  5
190
100
AcDbSymbolTableRecord
100
AcDbTextStyleTableRecord
  2
Font_1
 70
     0
 40
0.0
 41
1.0
 50
0.0
 71
     0
 42
3.2
  3
MS PGothic.ttf
  4

1001
ACAD
1000
MS PGothic
1071
  32818
  0
ENDTAB
  0
TABLE
  2
VIEW
  5
5
100
AcDbSymbolTable
 70
     0
  0
ENDTAB
  0
TABLE
  2
UCS
  5
6
100
AcDbSymbolTable
 70
     0
  0
ENDTAB
  0
TABLE
  2
APPID
  5
7
100
AcDbSymbolTable
 70
     1
  0
APPID
  5
191
100
AcDbSymbolTableRecord
100
AcDbRegAppTableRecord
  2
ACAD
 70
     0
  0
ENDTAB
  0
TABLE
  2
DIMSTYLE
  5
8
100
AcDbSymbolTable
 70
     1
  0
DIMSTYLE
105
2A
100
AcDbSymbolTableRecord
100
AcDbDimStyleTableRecord
  2
STANDARD
 70
     0
  3

  4

  5

  6

  7

 40
1.0
 41
2.5
 42
2.0
 43
7.0
 44
1.25
 45
0.0
 46
0.0
 47
0.0
 48
0.0
 71
     0
 72
     0
 73
     0
 74
     0
 75
     0
 76
     0
 77
     1
 78
     0
140
2.5
141
2.5
142
0.0
143
0.0394
144
1.0
145
0.0
146
1.0
147
1.0
170
     0
171
     2
172
     0
173
     0
174
     1
175
     0
176
     0
177
     0
178
     0
270
     2
271
     2
272
     4
273
     2
274
     2
275
     0
280
     0
281
     0
282
     0
283
     1
284
     0
285
     0
286
     0
287
     3
288
     0
  0
ENDTAB
  0
TABLE
  2
BLOCK_RECORD
  5
9
100
AcDbSymbolTable
 70
     0
  0
BLOCK_RECORD
  5
192
100
AcDbSymbolTableRecord
100
AcDbBlockTableRecord
  2
*MODEL_SPACE
  0
BLOCK_RECORD
  5
193
100
AcDbSymbolTableRecord
100
AcDbBlockTableRecord
  2
*PAPER_SPACE
  0
ENDTAB
  0
ENDSEC
  0
SECTION
  2
BLOCKS
  0
BLOCK
  5
195
100
AcDbEntity
  8
0
100
AcDbBlockBegin
2
*MODEL_SPACE
 70
     0
 10
0.0
 20
0.0
 30
0.0
  3
*MODEL_SPACE
  1

  0
ENDBLK
  5
196
100
AcDbEntity
  8
0-0
100
AcDbBlockEnd
  0
BLOCK
  5
197
100
AcDbEntity
 67
     1
  8
0-0
100
AcDbBlockBegin
  2
*PAPER_SPACE
 70
     0
 10
0.0
 20
0.0
 30
0.0
  3
*PAPER_SPACE
  1

  0
ENDBLK
  5
198
100
AcDbEntity
 67
     1
  8
0-0
100
AcDbBlockEnd
  0
ENDSEC
  0
SECTION
  2
ENTITIES
  0
LINE
  5
199
100
AcDbEntity
  8
0-0
100
AcDbLine
  6
CONTINUOUS
 62
7
370
30
 10
383.529896207257
 20
7.92566014571743
 11
581.727435079532
 21
7.92566014571743
  0
LINE
  5
19A
100
AcDbEntity
  8
0-0
100
AcDbLine
  6
CONTINUOUS
 62
7
370
30
 10
383.529896207257
 20
50.9256801457174
 11
383.529896207257
 21
7.92566014571743
  0
LINE
  5
19B
100
AcDbEntity
  8
0-0
100
AcDbLine
  6
CONTINUOUS
 62
7
370
30
 10
383.529896207257
 20
25.9256601457174
 11
581.727435079532
 21
25.9256601457174
  0
LINE
  5
19C
100
AcDbEntity
  8
0-0
100
AcDbLine
  6
CONTINUOUS
 62
7
370
30
 10
383.529896207257
 20
30.9256601457174
 11
581.727435079532
 21
30.9256601457174
  0
LINE
  5
19D
100
AcDbEntity
  8
0-0
100
AcDbLine
  6
CONTINUOUS
 62
7
370
30
 10
383.529896207257
 20
50.9256801457174
 11
581.727435079532
 21
50.9256801457174
  0
LINE
  5
19E
100
AcDbEntity
  8
0-0
100
AcDbLine
  6
CONTINUOUS
 62
7
370
30
 10
392.529896207257
 20
50.9256801457174
 11
392.529896207257
 21
25.9256601457174
  0
LINE
  5
19F
100
AcDbEntity
  8
0-0
100
AcDbLine
  6
CONTINUOUS
 62
7
370
30
 10
397.529896207257
 20
25.9256601457174
 11
397.529896207257
 21
7.92566014571743
  0
LINE
  5
1A0
100
AcDbEntity
  8
0-0
100
AcDbLine
  6
CONTINUOUS
 62
7
370
30
 10
411.529896207257
 20
25.9256601457174
 11
411.529896207257
 21
7.92566014571743
  0
LINE
  5
1A1
100
AcDbEntity
  8
0-0
100
AcDbLine
  6
CONTINUOUS
 62
7
370
30
 10
425.529896207257
 20
25.9256601457174
 11
425.529896207257
 21
7.92566014571743
  0
LINE
  5
1A2
100
AcDbEntity
  8
0-0
100
AcDbLine
  6
CONTINUOUS
 62
7
370
30
 10
439.529896207257
 20
25.9256601457174
 11
439.529896207257
 21
7.92566014571743
  0
LINE
  5
1A3
100
AcDbEntity
  8
0-0
100
AcDbLine
  6
CONTINUOUS
 62
7
370
30
 10
453.529896207257
 20
50.9256801457174
 11
453.529896207257
 21
7.92566014571743
  0
LINE
  5
1A4
100
AcDbEntity
  8
0-0
100
AcDbLine
  6
CONTINUOUS
 62
7
370
30
 10
527.529896207257
 20
25.9256601457174
 11
527.529896207257
 21
7.92566014571743
  0
LINE
  5
1A5
100
AcDbEntity
  8
0-0
100
AcDbLine
  6
CONTINUOUS
 62
7
370
30
 10
522.265295207257
 20
9.92566014571743
 11
458.368795207257
 21
9.92566014571743
  0
TEXT
  5
1A6
100
AcDbEntity
  8
0-0
 62
7
100
AcDbText
  6
BYLAYER
 62
7
 10
397.689575859105
 20
26.4256591457174
 40
4
  1
年月日
  7
Font_0
100
AcDbText
  0
TEXT
  5
1A7
100
AcDbEntity
  8
0-0
 62
7
100
AcDbText
  6
BYLAYER
 62
7
 10
428.453567668639
 20
26.4256591457174
 40
4
  1
記  事
  7
Font_0
100
AcDbText
  0
LINE
  5
1A8
100
AcDbEntity
  8
0-0
100
AcDbLine
  6
CONTINUOUS
 62
7
370
30
 10
385.720496207257
 20
46.5786801457174
 11
390.339295207257
 21
46.5786801457174
  0
LINE
  5
1A9
100
AcDbEntity
  8
0-0
100
AcDbLine
  6
CONTINUOUS
 62
7
370
30
 10
388.029896207257
 20
50.5786801457174
 11
390.339296207257
 21
46.5786801457174
  0
LINE
  5
1AA
100
AcDbEntity
  8
0-0
100
AcDbLine
  6
CONTINUOUS
 62
7
370
30
 10
388.029896207257
 20
50.5786791457174
 11
385.720496207257
 21
46.5786791457174
  0
LINE
  5
1AB
100
AcDbEntity
  8
0-0
100
AcDbLine
  6
CONTINUOUS
 62
7
370
30
 10
388.029896207257
 20
45.5786801457174
 11
385.720496207257
 21
41.5786801457174
  0
LINE
  5
1AC
100
AcDbEntity
  8
0-0
100
AcDbLine
  6
CONTINUOUS
 62
7
370
30
 10
385.720496207257
 20
41.5786801457174
 11
390.339295207257
 21
41.5786801457174
  0
LINE
  5
1AD
100
AcDbEntity
  8
0-0
100
AcDbLine
  6
CONTINUOUS
 62
7
370
30
 10
388.029896207257
 20
45.5786801457174
 11
390.339296207257
 21
41.5786801457174
  0
LINE
  5
1AE
100
AcDbEntity
  8
0-0
100
AcDbLine
  6
CONTINUOUS
 62
7
370
30
 10
388.029895207257
 20
40.5786801457174
 11
385.720495207257
 21
36.5787201457174
  0
LINE
  5
1AF
100
AcDbEntity
  8
0-0
100
AcDbLine
  6
CONTINUOUS
 62
7
370
30
 10
385.720496207257
 20
36.5787191457174
 11
390.339295207257
 21
36.5787191457174
  0
LINE
  5
1B0
100
AcDbEntity
  8
0-0
100
AcDbLine
  6
CONTINUOUS
 62
7
370
30
 10
388.029896207257
 20
40.5786801457174
 11
390.339295207257
 21
36.5787201457174
  0
LINE
  5
1B1
100
AcDbEntity
  8
0-0
100
AcDbLine
  6
CONTINUOUS
 62
7
370
30
 10
388.029896207257
 20
35.5787201457174
 11
385.720496207257
 21
31.5787201457174
  0
LINE
  5
1B2
100
AcDbEntity
  8
0-0
100
AcDbLine
  6
CONTINUOUS
 62
7
370
30
 10
385.720496207257
 20
31.5787191457174
 11
390.339295207257
 21
31.5787191457174
  0
LINE
  5
1B3
100
AcDbEntity
  8
0-0
100
AcDbLine
  6
CONTINUOUS
 62
7
370
30
 10
388.029896207257
 20
35.5787201457174
 11
390.339296207257
 21
31.5787201457174
  0
TEXT
  5
1B4
100
AcDbEntity
  8
0-0
 62
7
100
AcDbText
  6
BYLAYER
 62
7
 10
384.736792207257
 20
26.8739351457174
 40
3.103449
  1
来歴
  7
Font_0
100
AcDbText
  0
TEXT
  5
1B5
100
AcDbEntity
  8
0-0
 62
7
100
AcDbText
  6
BYLAYER
 62
7
 10
443.512469862769
 20
21.9256601457174
 40
3
  1
製図
  7
Font_0
100
AcDbText
  0
TEXT
  5
1B6
100
AcDbEntity
  8
0-0
 62
7
100
AcDbText
  6
BYLAYER
 62
7
 10
415.628844999491
 20
21.9256601457174
 40
3
  1
検図
  7
Font_0
100
AcDbText
  0
TEXT
  5
1B7
100
AcDbEntity
  8
0-0
 62
7
100
AcDbText
  6
BYLAYER
 62
7
 10
401.772073278715
 20
21.9256601457174
 40
3
  1
承認
  7
Font_0
100
AcDbText
  0
TEXT
  5
1B8
100
AcDbEntity
  8
0-0
 62
7
100
AcDbText
  6
BYLAYER
 62
7
 10
458.529896207257
 20
20.9256601457174
 40
3
  1
品名
  7
Font_0
100
AcDbText
  0
POINT
  5
1B9
100
AcDbEntity
  8
0-0
100
AcDbPoint
 62
7
 10
468.529896207257
 20
20.6392201457174
  0
POINT
  5
1BA
100
AcDbEntity
  8
0-0
100
AcDbPoint
 62
7
 10
468.529896207257
 20
12.1905501457174
  0
TEXT
  5
1BB
100
AcDbEntity
  8
0-0
 62
7
100
AcDbText
  6
BYLAYER
 62
7
 10
386.921996207257
 20
21.6934901457174
 40
3
  1
尺度
  7
Font_0
100
AcDbText
  0
LINE
  5
1BC
100
AcDbEntity
  8
0-0
100
AcDbLine
  6
CONTINUOUS
 62
7
370
30
 10
387.417800207257
 20
10.6411700727094
 11
394.065395207257
 21
17.2888220727094
  0
POINT
  5
1BD
100
AcDbEntity
  8
0-0
100
AcDbPoint
 62
7
 10
404.529896207257
 20
14.9256601457174
  0
POINT
  5
1BE
100
AcDbEntity
  8
0-0
100
AcDbPoint
 62
7
 10
432.529896207257
 20
14.9256601457174
  0
POINT
  5
1BF
100
AcDbEntity
  8
0-0
100
AcDbPoint
 62
7
 10
446.529896207257
 20
14.9256601457174
  0
LINE
  5
1C0
100
AcDbEntity
  8
0-0
100
AcDbLine
  6
CONTINUOUS
 62
7
370
30
 10
383.529896207257
 20
35.9256601457174
 11
581.727435079532
 21
35.9256601457174
  0
LINE
  5
1C1
100
AcDbEntity
  8
0-0
100
AcDbLine
  6
CONTINUOUS
 62
7
370
30
 10
383.529896207257
 20
40.9256601457174
 11
581.727435079532
 21
40.9256601457174
  0
LINE
  5
1C2
100
AcDbEntity
  8
0-0
100
AcDbLine
  6
CONTINUOUS
 62
7
370
30
 10
383.529896207257
 20
45.9256601457174
 11
581.727435079532
 21
45.9256601457174
  0
POINT
  5
1C3
100
AcDbEntity
  8
0-0
100
AcDbPoint
 62
7
 10
418.529896207257
 20
14.9256601457174
  0
TEXT
  5
1C4
100
AcDbEntity
  8
0-0
 62
7
100
AcDbText
  6
BYLAYER
 62
7
 10
455.717963077024
 20
26.8756591457174
 40
3.1
  1
品番
  7
Font_0
 11
455.717963077024
 21
29.9756591457174
100
AcDbText
 73
3
  0
TEXT
  5
1C5
100
AcDbEntity
  8
0-0
 62
7
100
AcDbText
  6
BYLAYER
 62
7
 10
479.108282771536
 20
26.8756591457174
 40
3.1
  1
部品名
  7
Font_0
 11
479.108282771536
 21
29.9756591457174
100
AcDbText
 73
3
  0
TEXT
  5
1C6
100
AcDbEntity
  8
0-0
 62
7
100
AcDbText
  6
BYLAYER
 62
7
 10
512.879015963222
 20
26.8756591457174
 40
3.1
  1
材　質
  7
Font_0
 11
512.879015963222
 21
29.9756591457174
100
AcDbText
 73
3
  0
TEXT
  5
1C7
100
AcDbEntity
  8
0-0
 62
7
100
AcDbText
  6
BYLAYER
 62
7
 10
534.634672891351
 20
26.8756591457174
 40
3.1
  1
数量
  7
Font_0
 11
534.634672891351
 21
29.9756591457174
100
AcDbText
 73
3
  0
TEXT
  5
1C8
100
AcDbEntity
  8
0-0
 62
7
100
AcDbText
  6
BYLAYER
 62
7
 10
557.856814435183
 20
26.8756591457174
 40
3.1
  1
備　考
  7
Font_0
 11
557.856814435183
 21
29.9756591457174
100
AcDbText
 73
3
  0
TEXT
  5
1C9
100
AcDbEntity
  8
0-0
 62
7
100
AcDbText
  6
BYLAYER
 62
7
 10
429.462899144666
 20
21.9256601457174
 40
3
  1
検図
  7
Font_0
100
AcDbText
  0
TEXT
  5
1CA
100
AcDbEntity
  8
0-0
 62
5
100
AcDbText
  6
CONTINUOUS
 62
5
 10
457.722782711928
 20
31.4256601457174
 40
4
  1
1
  7
Font_0
 11
457.722782711928
 21
35.4256601457174
100
AcDbText
 73
3
  0
TEXT
  5
1CB
100
AcDbEntity
  8
0-0
100
AcDbText
  6
CONTINUOUS
 10
384.735632593103
 20
12.6221994123031
 40
5
  1
１
  7
Font_0
 11
384.735632593103
 21
17.6221994123031
100
AcDbText
 73
3
  0
TEXT
  5
1CC
100
AcDbEntity
  8
0-0
100
AcDbText
  6
CONTINUOUS
 10
391.388279368477
 20
10.6183901426122
 40
5
  1
１
  7
Font_0
 11
391.388279368477
 21
15.6183901426122
100
AcDbText
 73
3
  0
LINE
  5
1CD
100
AcDbEntity
  8
0-0
100
AcDbLine
  6
CONTINUOUS
 62
7
370
30
 10
414.529006612092
 20
50.9256801457174
 11
414.529006612092
 21
25.9256601457174
  0
LINE
  5
1CE
100
AcDbEntity
  8
0-0
100
AcDbLine
  6
DOT
 62
7
370
30
 10
383.529896207257
 20
20.9256601457174
 11
453.529896207257
 21
20.9256601457174
  0
LINE
  5
1CF
100
AcDbEntity
  8
0-0
100
AcDbLine
  6
CONTINUOUS
 62
7
370
30
 10
463.529441870872
 20
50.9256801457174
 11
463.529441870872
 21
25.9256601457174
  0
LINE
  5
1D0
100
AcDbEntity
  8
0-0
100
AcDbLine
  6
CONTINUOUS
 62
7
370
30
 10
502.532603249565
 20
50.9256801457174
 11
502.532603249565
 21
25.9256601457174
  0
LINE
  5
1D1
100
AcDbEntity
  8
0-0
100
AcDbLine
  6
CONTINUOUS
 62
7
370
30
 10
532.533235120947
 20
50.9256801457174
 11
532.533235120947
 21
25.9256601457174
  0
LINE
  5
1D2
100
AcDbEntity
  8
0-0
100
AcDbLine
  6
CONTINUOUS
 62
7
370
30
 10
542.531652329788
 20
50.9256801457174
 11
542.531652329788
 21
25.9256601457174
  0
MTEXT
  5
1D3
100
AcDbEntity
  8
0-0
100
AcDbMText
 10
252.080338259495
 20
6.77389257289355
 40
6
 41
  0.0
  1
{\fMS Gothic|b1;MinatoConcept,Inc.}
  7
Font_0
  0
LINE
  5
1D4
100
AcDbEntity
  8
0-0
100
AcDbLine
  6
CONTINUOUS
 62
7
370
30
 10
5.3492237535991
 20
7.92375554031949
 11
574.727435079532
 21
7.92375554031949
  0
LINE
  5
1D5
100
AcDbEntity
  8
0-0
100
AcDbLine
  6
CONTINUOUS
 62
7
370
30
 10
581.727435079532
 20
408.838358386814
 11
581.727435079532
 21
7.92566014571743
  0
LINE
  5
1D6
100
AcDbEntity
  8
0-0
100
AcDbLine
  6
CONTINUOUS
 62
7
370
30
 10
5.3492237535991
 20
408.838358386814
 11
5.3492237535991
 21
7.92375554031949
  0
LINE
  5
1D7
100
AcDbEntity
  8
0-0
100
AcDbLine
  6
CONTINUOUS
 62
7
370
30
 10
5.3492237535991
 20
408.838358386814
 11
581.727435079532
 21
408.838358386814
  0
LINE
  5
1D8
100
AcDbEntity
  8
0-0
100
AcDbLine
  6
CONTINUOUS
370
13
 10
88.1931413188675
 20
193.02547625141
 11
112.073260353562
 21
173.414781628112
  0
LINE
  5
1D9
100
AcDbEntity
  8
0-0
100
AcDbLine
  6
CONTINUOUS
370
13
 10
88.1931413188675
 20
193.02547625141
 11
90.014604832527
 21
192.199479478772
  0
LINE
  5
1DA
100
AcDbEntity
  8
0-0
100
AcDbLine
  6
CONTINUOUS
370
13
 10
88.1931413188675
 20
193.02547625141
 11
89.3575766074445
 21
191.399410306032
  0
TEXT
  5
1DB
100
AcDbEntity
  8
0-0
100
AcDbText
  6
CONTINUOUS
 10
113.073260353562
 20
173.414781628112
 40
8
  1
ｽﾃｯﾋﾟﾝｸﾞﾓｰﾀｰ
  7
Font_0
100
AcDbText
  0
LINE
  5
1DC
100
AcDbEntity
  8
0-0
100
AcDbLine
  6
CONTINUOUS
370
13
 10
112.073260353562
 20
173.414781628112
 11
161.073260353562
 21
173.414781628112
  0
LINE
  5
1DD
100
AcDbEntity
  8
0-0
100
AcDbLine
  6
CONTINUOUS
370
13
 10
453.179640663233
 20
200.525476251411
 11
462.901814058887
 21
229.321554638436
  0
LINE
  5
1DE
100
AcDbEntity
  8
0-0
100
AcDbLine
  6
CONTINUOUS
370
13
 10
453.179640663233
 20
200.525476251411
 11
453.307165060705
 21
202.521406492689
  0
LINE
  5
1DF
100
AcDbEntity
  8
0-0
100
AcDbLine
  6
CONTINUOUS
370
13
 10
453.179640663233
 20
200.525476251411
 11
454.288045151685
 21
202.190240345803
  0
TEXT
  5
1E0
100
AcDbEntity
  8
0-0
100
AcDbText
  6
CONTINUOUS
 10
463.901814058887
 20
229.321554638436
 40
8
  1
手動ﾂﾏﾐ
  7
Font_0
100
AcDbText
  0
LINE
  5
1E1
100
AcDbEntity
  8
0-0
100
AcDbLine
  6
CONTINUOUS
370
13
 10
462.901814058887
 20
229.321554638436
 11
491.901814058887
 21
229.321554638436
  0
TEXT
  5
1E2
100
AcDbEntity
  8
0-0
100
AcDbText
  6
CONTINUOUS
 10
448.988502752564
 20
137.0167790306
 40
8
  1
D-SUB9(15)ﾋﾟﾝ
  7
Font_0
 72
2
 11
500.988502752564
 21
137.0167790306
100
AcDbText
  0
LINE
  5
1E3
100
AcDbEntity
  8
0-0
100
AcDbLine
  6
CONTINUOUS
370
13
 10
501.988502752564
 20
137.0167790306
 11
448.646308617097
 21
137.0167790306
  0
LINE
  5
1E4
100
AcDbEntity
  8
0-0
100
AcDbLine
  6
CONTINUOUS
370
13
 10
529.715125238187
 20
167.570652029332
 11
501.988502752564
 21
137.0167790306
  0
LINE
  5
1E5
100
AcDbEntity
  8
0-0
100
AcDbLine
  6
CONTINUOUS
370
13
 10
529.715125238187
 20
167.570652029332
 11
528.800224812213
 21
165.792181559925
  0
LINE
  5
1E6
100
AcDbEntity
  8
0-0
100
AcDbLine
  6
CONTINUOUS
370
13
 10
529.715125238187
 20
167.570652029332
 11
528.033562992657
 21
166.487901635931
  0
TEXT
  5
1E7
100
AcDbEntity
  8
0-0
100
AcDbText
  6
CONTINUOUS
 10
468.316563370223
 20
19.7163273124598
 40
4.2
  1
シリンジドライブユニット
  7
Font_1
 11
468.316563370223
 21
23.9163273124598
100
AcDbText
 73
3
  0
TEXT
  5
1E8
100
AcDbEntity
  8
0-0
100
AcDbText
  6
CONTINUOUS
 10
470.543372958104
 20
10.2933561680958
 40
4.2
  1
ＭＣＩＰ－４２Ｄ外観図
  7
Font_1
 11
470.543372958104
 21
14.4933561680958
100
AcDbText
 73
3
  0
LINE
  5
1E9
100
AcDbEntity
  8
0-0
100
AcDbLine
  6
CONTINUOUS
370
50
 10
90.920511222646
 20
222.021751752338
 11
39.920511222646
 21
222.021751752338
  0
LINE
  5
1EA
100
AcDbEntity
  8
0-0
100
AcDbLine
  6
CONTINUOUS
370
50
 10
91.420511222646
 20
164.521751752338
 11
39.422824385996
 21
164.521751752338
  0
LINE
  5
1EB
100
AcDbEntity
  8
0-0
100
AcDbLine
  6
CONTINUOUS
370
50
 10
448.029640663233
 20
158.521751752338
 11
448.029640663233
 21
158.621751752338
  0
LINE
  5
1EC
100
AcDbEntity
  8
0-0
100
AcDbLine
  6
CONTINUOUS
370
50
 10
449.029640663233
 20
223.621751752338
 11
189.029640663233
 21
223.621751752338
  0
LINE
  5
1ED
100
AcDbEntity
  8
0-0
100
AcDbLine
  6
CONTINUOUS
370
50
 10
252.029640663233
 20
158.521751752338
 11
448.029640663233
 21
158.521751752338
  0
LINE
  5
1EE
100
AcDbEntity
  8
0-0
100
AcDbLine
  6
CONTINUOUS
370
50
 10
508.529983055757
 20
158.521751752338
 11
560.529983055757
 21
158.521751752338
  0
LINE
  5
1EF
100
AcDbEntity
  8
0-0
100
AcDbLine
  6
CONTINUOUS
370
50
 10
457.329640663233
 20
201.521751752339
 11
449.029640663233
 21
201.521751752339
  0
LINE
  5
1F0
100
AcDbEntity
  8
0-0
100
AcDbLine
  6
CONTINUOUS
370
50
 10
457.329640663233
 20
186.521751752339
 11
449.029640663233
 21
186.521751752339
  0
LINE
  5
1F1
100
AcDbEntity
  8
0-0
100
AcDbLine
  6
CONTINUOUS
370
50
 10
458.329640663233
 20
200.521751752339
 11
457.329640663233
 21
201.521751752339
  0
LINE
  5
1F2
100
AcDbEntity
  8
0-0
100
AcDbLine
  6
CONTINUOUS
370
50
 10
457.329640663233
 20
186.521751752339
 11
458.329640663233
 21
187.521751752339
  0
CIRCLE
  5
1F3
100
AcDbEntity
  8
0-0
100
AcDbCircle
  6
CONTINUOUS
370
20
 10
452.829640663233
 20
194.021751752339
 40
1.5
  0
CIRCLE
  5
1F4
100
AcDbEntity
  8
0-0
100
AcDbCircle
  6
CONTINUOUS
370
40
 10
452.829640663233
 20
194.021751752339
 40
1.25
  0
CIRCLE
  5
1F5
100
AcDbEntity
  8
0-0
100
AcDbCircle
  6
CONTINUOUS
370
50
 10
534.529983055739
 20
194.021751752338
 40
7.5
  0
CIRCLE
  5
1F6
100
AcDbEntity
  8
0-0
100
AcDbCircle
  6
CONTINUOUS
370
50
 10
534.52998305573
 20
194.021751752338
 40
6.5
  0
LINE
  5
1F7
100
AcDbEntity
  8
0-0
100
AcDbLine
  6
CONTINUOUS
370
50
 10
448.029640663233
 20
126.741977816602
 11
448.029640663233
 21
74.7419778166025
  0
CIRCLE
  5
1F8
100
AcDbEntity
  8
0-0
100
AcDbCircle
  6
CONTINUOUS
370
50
 10
270.029640663233
 20
121.741977816602
 40
3
  0
CIRCLE
  5
1F9
100
AcDbEntity
  8
0-0
100
AcDbCircle
  6
CONTINUOUS
370
50
 10
270.029640663233
 20
87.2419778166025
 40
3
  0
CIRCLE
  5
1FA
100
AcDbEntity
  8
0-0
100
AcDbCircle
  6
CONTINUOUS
370
50
 10
445.029640663233
 20
123.241977816602
 40
2.5
  0
CIRCLE
  5
1FB
100
AcDbEntity
  8
0-0
100
AcDbCircle
  6
CONTINUOUS
370
50
 10
445.029640663233
 20
87.2419778166025
 40
2.5
  0
CIRCLE
  5
1FC
100
AcDbEntity
  8
0-0
100
AcDbCircle
  6
CONTINUOUS
370
13
 10
431.029640663233
 20
161.521751752338
 40
2.5
  0
ARC
  5
1FD
100
AcDbEntity
  8
0-0
100
AcDbCircle
  6
CONTINUOUS
370
13
 10
431.029640663233
 20
161.521751752338
 40
1.45
100
AcDbArc
 50
352.57025669376
 51
0
  0
ARC
  5
1FE
100
AcDbEntity
  8
0-0
100
AcDbCircle
  6
CONTINUOUS
370
13
 10
431.029640663233
 20
161.521751752338
 40
1.45
100
AcDbArc
 50
0
 51
7.42974330623997
  0
ARC
  5
1FF
100
AcDbEntity
  8
0-0
100
AcDbCircle
  6
CONTINUOUS
370
13
 10
429.592140663233
 20
162.959251752363
 40
1.25
100
AcDbArc
 50
269.985055223947
 51
0.0149447750821012
  0
ARC
  5
200
100
AcDbEntity
  8
0-0
100
AcDbCircle
  6
CONTINUOUS
370
13
 10
431.029640663233
 20
161.521751752338
 40
1.45
100
AcDbArc
 50
172.57025669376
 51
180
  0
ARC
  5
201
100
AcDbEntity
  8
0-0
100
AcDbCircle
  6
CONTINUOUS
370
13
 10
431.029640663233
 20
161.521751752338
 40
1.45
100
AcDbArc
 50
180
 51
187.42974330624
  0
ARC
  5
202
100
AcDbEntity
  8
0-0
100
AcDbCircle
  6
CONTINUOUS
370
13
 10
431.029640663233
 20
161.521751752338
 40
1.45
100
AcDbArc
 50
262.570256694729
 51
270
  0
ARC
  5
203
100
AcDbEntity
  8
0-0
100
AcDbCircle
  6
CONTINUOUS
370
13
 10
429.592140663233
 20
160.084251752314
 40
1.25
100
AcDbArc
 50
359.985055224918
 51
90.0149447760494
  0
ARC
  5
204
100
AcDbEntity
  8
0-0
100
AcDbCircle
  6
CONTINUOUS
370
13
 10
431.029640663233
 20
161.521751752338
 40
1.45
100
AcDbArc
 50
270
 51
277.429743305271
  0
ARC
  5
205
100
AcDbEntity
  8
0-0
100
AcDbCircle
  6
CONTINUOUS
370
13
 10
431.029640663233
 20
161.521751752338
 40
1.45
100
AcDbArc
 50
90
 51
97.4297433052711
  0
ARC
  5
206
100
AcDbEntity
  8
0-0
100
AcDbCircle
  6
CONTINUOUS
370
13
 10
431.029640663233
 20
161.521751752338
 40
1.45
100
AcDbArc
 50
82.5702566947289
 51
90
  0
ARC
  5
207
100
AcDbEntity
  8
0-0
100
AcDbCircle
  6
CONTINUOUS
370
13
 10
432.467140663233
 20
162.959251752363
 40
1.25
100
AcDbArc
 50
179.985055224918
 51
270.014944776049
  0
ARC
  5
208
100
AcDbEntity
  8
0-0
100
AcDbCircle
  6
CONTINUOUS
370
13
 10
432.467140663233
 20
160.084251752314
 40
1.25
100
AcDbArc
 50
89.9850552239474
 51
180.014944775082
  0
CIRCLE
  5
209
100
AcDbEntity
  8
0-0
100
AcDbCircle
  6
CONTINUOUS
370
13
 10
261.029640663233
 20
161.521751752338
 40
2.5
  0
ARC
  5
20A
100
AcDbEntity
  8
0-0
100
AcDbCircle
  6
CONTINUOUS
370
13
 10
261.029640663233
 20
161.521751752338
 40
1.45
100
AcDbArc
 50
352.57025669376
 51
0
  0
ARC
  5
20B
100
AcDbEntity
  8
0-0
100
AcDbCircle
  6
CONTINUOUS
370
13
 10
261.029640663233
 20
161.521751752338
 40
1.45
100
AcDbArc
 50
0
 51
7.42974330623997
  0
ARC
  5
20C
100
AcDbEntity
  8
0-0
100
AcDbCircle
  6
CONTINUOUS
370
13
 10
259.592140663233
 20
162.959251752363
 40
1.25
100
AcDbArc
 50
269.985055223947
 51
0.0149447750821012
  0
ARC
  5
20D
100
AcDbEntity
  8
0-0
100
AcDbCircle
  6
CONTINUOUS
370
13
 10
261.029640663233
 20
161.521751752338
 40
1.45
100
AcDbArc
 50
172.57025669376
 51
180
  0
ARC
  5
20E
100
AcDbEntity
  8
0-0
100
AcDbCircle
  6
CONTINUOUS
370
13
 10
261.029640663233
 20
161.521751752338
 40
1.45
100
AcDbArc
 50
180
 51
187.42974330624
  0
ARC
  5
20F
100
AcDbEntity
  8
0-0
100
AcDbCircle
  6
CONTINUOUS
370
13
 10
261.029640663233
 20
161.521751752338
 40
1.45
100
AcDbArc
 50
262.570256694729
 51
270
  0
ARC
  5
210
100
AcDbEntity
  8
0-0
100
AcDbCircle
  6
CONTINUOUS
370
13
 10
259.592140663233
 20
160.084251752314
 40
1.25
100
AcDbArc
 50
359.985055224918
 51
90.0149447760494
  0
ARC
  5
211
100
AcDbEntity
  8
0-0
100
AcDbCircle
  6
CONTINUOUS
370
13
 10
261.029640663233
 20
161.521751752338
 40
1.45
100
AcDbArc
 50
270
 51
277.429743305271
  0
ARC
  5
212
100
AcDbEntity
  8
0-0
100
AcDbCircle
  6
CONTINUOUS
370
13
 10
261.029640663233
 20
161.521751752338
 40
1.45
100
AcDbArc
 50
90
 51
97.4297433052711
  0
ARC
  5
213
100
AcDbEntity
  8
0-0
100
AcDbCircle
  6
CONTINUOUS
370
13
 10
261.029640663233
 20
161.521751752338
 40
1.45
100
AcDbArc
 50
82.5702566947289
 51
90
  0
ARC
  5
214
100
AcDbEntity
  8
0-0
100
AcDbCircle
  6
CONTINUOUS
370
13
 10
262.467140663233
 20
162.959251752363
 40
1.25
100
AcDbArc
 50
179.985055224918
 51
270.014944776049
  0
ARC
  5
215
100
AcDbEntity
  8
0-0
100
AcDbCircle
  6
CONTINUOUS
370
13
 10
262.467140663233
 20
160.084251752314
 40
1.25
100
AcDbArc
 50
89.9850552239474
 51
180.014944775082
  0
CIRCLE
  5
216
100
AcDbEntity
  8
0-0
100
AcDbCircle
  6
CONTINUOUS
370
20
 10
431.029640663233
 20
161.521751752338
 40
2.5
  0
CIRCLE
  5
217
100
AcDbEntity
  8
0-0
100
AcDbCircle
  6
CONTINUOUS
370
20
 10
261.029640663233
 20
161.521751752338
 40
2.5
  0
ARC
  5
218
100
AcDbEntity
  8
0-0
100
AcDbCircle
  6
CONTINUOUS
370
13
 10
512.029983055756
 20
180.521751752338
 40
0.875
100
AcDbArc
 50
270
 51
0
  0
ARC
  5
219
100
AcDbEntity
  8
0-0
100
AcDbCircle
  6
CONTINUOUS
370
13
 10
512.029983055756
 20
178.521751752338
 40
0.875
100
AcDbArc
 50
0
 51
90
  0
CIRCLE
  5
21A
100
AcDbEntity
  8
0-0
100
AcDbCircle
  6
CONTINUOUS
370
13
 10
513.029983055756
 20
179.521751752338
 40
1.9
  0
LINE
  5
21B
100
AcDbEntity
  8
0-0
100
AcDbLine
  6
CONTINUOUS
370
13
 10
512.029983055756
 20
179.646751752338
 11
512.029983055756
 21
179.396751752338
  0
ARC
  5
21C
100
AcDbEntity
  8
0-0
100
AcDbCircle
  6
CONTINUOUS
370
13
 10
514.029983055756
 20
180.521751752338
 40
0.875
100
AcDbArc
 50
180
 51
270
  0
LINE
  5
21D
100
AcDbEntity
  8
0-0
100
AcDbLine
  6
CONTINUOUS
370
13
 10
512.904983055756
 20
180.521751752338
 11
513.154983055756
 21
180.521751752338
  0
LINE
  5
21E
100
AcDbEntity
  8
0-0
100
AcDbLine
  6
CONTINUOUS
370
13
 10
514.029983055756
 20
179.646751752338
 11
514.029983055756
 21
179.396751752338
  0
LINE
  5
21F
100
AcDbEntity
  8
0-0
100
AcDbLine
  6
CONTINUOUS
370
13
 10
512.904983055756
 20
178.521751752338
 11
513.154983055756
 21
178.521751752338
  0
ARC
  5
220
100
AcDbEntity
  8
0-0
100
AcDbCircle
  6
CONTINUOUS
370
13
 10
514.029983055756
 20
178.521751752338
 40
0.875
100
AcDbArc
 50
90
 51
180
  0
ARC
  5
221
100
AcDbEntity
  8
0-0
100
AcDbCircle
  6
CONTINUOUS
370
13
 10
517.029983055756
 20
162.521751752338
 40
0.875
100
AcDbArc
 50
270
 51
0
  0
ARC
  5
222
100
AcDbEntity
  8
0-0
100
AcDbCircle
  6
CONTINUOUS
370
13
 10
517.029983055756
 20
160.521751752338
 40
0.875
100
AcDbArc
 50
0
 51
90
  0
CIRCLE
  5
223
100
AcDbEntity
  8
0-0
100
AcDbCircle
  6
CONTINUOUS
370
13
 10
518.029983055756
 20
161.521751752338
 40
1.9
  0
LINE
  5
224
100
AcDbEntity
  8
0-0
100
AcDbLine
  6
CONTINUOUS
370
13
 10
517.029983055756
 20
161.646751752338
 11
517.029983055756
 21
161.396751752338
  0
ARC
  5
225
100
AcDbEntity
  8
0-0
100
AcDbCircle
  6
CONTINUOUS
370
13
 10
519.029983055756
 20
162.521751752338
 40
0.875
100
AcDbArc
 50
180
 51
270
  0
LINE
  5
226
100
AcDbEntity
  8
0-0
100
AcDbLine
  6
CONTINUOUS
370
13
 10
517.904983055756
 20
162.521751752338
 11
518.154983055756
 21
162.521751752338
  0
LINE
  5
227
100
AcDbEntity
  8
0-0
100
AcDbLine
  6
CONTINUOUS
370
13
 10
519.029983055756
 20
161.646751752338
 11
519.029983055756
 21
161.396751752338
  0
LINE
  5
228
100
AcDbEntity
  8
0-0
100
AcDbLine
  6
CONTINUOUS
370
13
 10
517.904983055756
 20
160.521751752338
 11
518.154983055756
 21
160.521751752338
  0
ARC
  5
229
100
AcDbEntity
  8
0-0
100
AcDbCircle
  6
CONTINUOUS
370
13
 10
519.029983055756
 20
160.521751752338
 40
0.875
100
AcDbArc
 50
90
 51
180
  0
ARC
  5
22A
100
AcDbEntity
  8
0-0
100
AcDbCircle
  6
CONTINUOUS
370
13
 10
541.029983055756
 20
162.521751752338
 40
0.875
100
AcDbArc
 50
270
 51
0
  0
ARC
  5
22B
100
AcDbEntity
  8
0-0
100
AcDbCircle
  6
CONTINUOUS
370
13
 10
541.029983055756
 20
160.521751752338
 40
0.875
100
AcDbArc
 50
0
 51
90
  0
CIRCLE
  5
22C
100
AcDbEntity
  8
0-0
100
AcDbCircle
  6
CONTINUOUS
370
13
 10
542.029983055756
 20
161.521751752338
 40
1.9
  0
LINE
  5
22D
100
AcDbEntity
  8
0-0
100
AcDbLine
  6
CONTINUOUS
370
13
 10
541.029983055756
 20
161.646751752338
 11
541.029983055756
 21
161.396751752338
  0
ARC
  5
22E
100
AcDbEntity
  8
0-0
100
AcDbCircle
  6
CONTINUOUS
370
13
 10
543.029983055756
 20
162.521751752338
 40
0.875
100
AcDbArc
 50
180
 51
270
  0
LINE
  5
22F
100
AcDbEntity
  8
0-0
100
AcDbLine
  6
CONTINUOUS
370
13
 10
541.904983055756
 20
162.521751752338
 11
542.154983055756
 21
162.521751752338
  0
LINE
  5
230
100
AcDbEntity
  8
0-0
100
AcDbLine
  6
CONTINUOUS
370
13
 10
543.029983055756
 20
161.646751752338
 11
543.029983055756
 21
161.396751752338
  0
LINE
  5
231
100
AcDbEntity
  8
0-0
100
AcDbLine
  6
CONTINUOUS
370
13
 10
541.904983055756
 20
160.521751752338
 11
542.154983055756
 21
160.521751752338
  0
ARC
  5
232
100
AcDbEntity
  8
0-0
100
AcDbCircle
  6
CONTINUOUS
370
13
 10
543.029983055756
 20
160.521751752338
 40
0.875
100
AcDbArc
 50
90
 51
180
  0
ARC
  5
233
100
AcDbEntity
  8
0-0
100
AcDbCircle
  6
CONTINUOUS
370
13
 10
546.029983055756
 20
180.521751752338
 40
0.875
100
AcDbArc
 50
270
 51
0
  0
ARC
  5
234
100
AcDbEntity
  8
0-0
100
AcDbCircle
  6
CONTINUOUS
370
13
 10
546.029983055756
 20
178.521751752338
 40
0.875
100
AcDbArc
 50
0
 51
90
  0
CIRCLE
  5
235
100
AcDbEntity
  8
0-0
100
AcDbCircle
  6
CONTINUOUS
370
13
 10
547.029983055756
 20
179.521751752338
 40
1.9
  0
LINE
  5
236
100
AcDbEntity
  8
0-0
100
AcDbLine
  6
CONTINUOUS
370
13
 10
546.029983055756
 20
179.646751752338
 11
546.029983055756
 21
179.396751752338
  0
ARC
  5
237
100
AcDbEntity
  8
0-0
100
AcDbCircle
  6
CONTINUOUS
370
13
 10
548.029983055756
 20
180.521751752338
 40
0.875
100
AcDbArc
 50
180
 51
270
  0
LINE
  5
238
100
AcDbEntity
  8
0-0
100
AcDbLine
  6
CONTINUOUS
370
13
 10
546.904983055756
 20
180.521751752338
 11
547.154983055756
 21
180.521751752338
  0
LINE
  5
239
100
AcDbEntity
  8
0-0
100
AcDbLine
  6
CONTINUOUS
370
13
 10
548.029983055756
 20
179.646751752338
 11
548.029983055756
 21
179.396751752338
  0
LINE
  5
23A
100
AcDbEntity
  8
0-0
100
AcDbLine
  6
CONTINUOUS
370
13
 10
546.904983055756
 20
178.521751752338
 11
547.154983055756
 21
178.521751752338
  0
ARC
  5
23B
100
AcDbEntity
  8
0-0
100
AcDbCircle
  6
CONTINUOUS
370
13
 10
548.029983055756
 20
178.521751752338
 40
0.875
100
AcDbArc
 50
90
 51
180
  0
LINE
  5
23C
100
AcDbEntity
  8
0-0
100
AcDbLine
  6
CONTINUOUS
370
13
 10
435.307953163233
 20
120.491978399415
 11
436.751328163233
 21
120.491978399415
  0
LINE
  5
23D
100
AcDbEntity
  8
0-0
100
AcDbLine
  6
CONTINUOUS
370
13
 10
436.751328163233
 20
122.99197723379
 11
435.307953163233
 21
122.99197723379
  0
CIRCLE
  5
23E
100
AcDbEntity
  8
0-0
100
AcDbCircle
  6
CONTINUOUS
370
13
 10
436.029640663233
 20
121.741977816602
 40
2.4035896769725
  0
CIRCLE
  5
23F
100
AcDbEntity
  8
0-0
100
AcDbCircle
  6
CONTINUOUS
370
13
 10
436.029640663233
 20
121.741977816602
 40
2.74999999999989
  0
LINE
  5
240
100
AcDbEntity
  8
0-0
100
AcDbLine
  6
CONTINUOUS
370
13
 10
434.586265663233
 20
121.741977816602
 11
435.307953163233
 21
120.491978399415
  0
LINE
  5
241
100
AcDbEntity
  8
0-0
100
AcDbLine
  6
CONTINUOUS
370
13
 10
435.307953163233
 20
122.99197723379
 11
434.586265663233
 21
121.741977816602
  0
LINE
  5
242
100
AcDbEntity
  8
0-0
100
AcDbLine
  6
CONTINUOUS
370
13
 10
436.751328163233
 20
120.491978399415
 11
437.473015663233
 21
121.741977816602
  0
LINE
  5
243
100
AcDbEntity
  8
0-0
100
AcDbLine
  6
CONTINUOUS
370
13
 10
437.473015663233
 20
121.741977816602
 11
436.751328163233
 21
122.99197723379
  0
LINE
  5
244
100
AcDbEntity
  8
0-0
100
AcDbLine
  6
CONTINUOUS
370
13
 10
435.307953163233
 20
78.4919783994152
 11
436.751328163233
 21
78.4919783994152
  0
LINE
  5
245
100
AcDbEntity
  8
0-0
100
AcDbLine
  6
CONTINUOUS
370
13
 10
436.751328163233
 20
80.99197723379
 11
435.307953163233
 21
80.99197723379
  0
CIRCLE
  5
246
100
AcDbEntity
  8
0-0
100
AcDbCircle
  6
CONTINUOUS
370
13
 10
436.029640663233
 20
79.7419778166025
 40
2.4035896769725
  0
CIRCLE
  5
247
100
AcDbEntity
  8
0-0
100
AcDbCircle
  6
CONTINUOUS
370
13
 10
436.029640663233
 20
79.7419778166025
 40
2.74999999999989
  0
LINE
  5
248
100
AcDbEntity
  8
0-0
100
AcDbLine
  6
CONTINUOUS
370
13
 10
434.586265663233
 20
79.7419778166025
 11
435.307953163233
 21
78.4919783994152
  0
LINE
  5
249
100
AcDbEntity
  8
0-0
100
AcDbLine
  6
CONTINUOUS
370
13
 10
435.307953163233
 20
80.99197723379
 11
434.586265663233
 21
79.7419778166025
  0
LINE
  5
24A
100
AcDbEntity
  8
0-0
100
AcDbLine
  6
CONTINUOUS
370
13
 10
436.751328163233
 20
78.4919783994152
 11
437.473015663233
 21
79.7419778166025
  0
LINE
  5
24B
100
AcDbEntity
  8
0-0
100
AcDbLine
  6
CONTINUOUS
370
13
 10
437.473015663233
 20
79.7419778166025
 11
436.751328163233
 21
80.99197723379
  0
LINE
  5
24C
100
AcDbEntity
  8
0-0
100
AcDbLine
  6
CONTINUOUS
370
13
 10
255.307953163233
 20
78.4919783994152
 11
256.751328163233
 21
78.4919783994152
  0
LINE
  5
24D
100
AcDbEntity
  8
0-0
100
AcDbLine
  6
CONTINUOUS
370
13
 10
256.751328163233
 20
80.99197723379
 11
255.307953163233
 21
80.99197723379
  0
CIRCLE
  5
24E
100
AcDbEntity
  8
0-0
100
AcDbCircle
  6
CONTINUOUS
370
13
 10
256.029640663233
 20
79.7419778166025
 40
2.4035896769725
  0
CIRCLE
  5
24F
100
AcDbEntity
  8
0-0
100
AcDbCircle
  6
CONTINUOUS
370
13
 10
256.029640663233
 20
79.7419778166025
 40
2.74999999999989
  0
LINE
  5
250
100
AcDbEntity
  8
0-0
100
AcDbLine
  6
CONTINUOUS
370
13
 10
254.586265663233
 20
79.7419778166025
 11
255.307953163233
 21
78.4919783994152
  0
LINE
  5
251
100
AcDbEntity
  8
0-0
100
AcDbLine
  6
CONTINUOUS
370
13
 10
255.307953163233
 20
80.99197723379
 11
254.586265663233
 21
79.7419778166025
  0
LINE
  5
252
100
AcDbEntity
  8
0-0
100
AcDbLine
  6
CONTINUOUS
370
13
 10
256.751328163233
 20
78.4919783994152
 11
257.473015663233
 21
79.7419778166025
  0
LINE
  5
253
100
AcDbEntity
  8
0-0
100
AcDbLine
  6
CONTINUOUS
370
13
 10
257.473015663233
 20
79.7419778166025
 11
256.751328163233
 21
80.99197723379
  0
LINE
  5
254
100
AcDbEntity
  8
0-0
100
AcDbLine
  6
CONTINUOUS
370
13
 10
255.307953163233
 20
120.491978399415
 11
256.751328163233
 21
120.491978399415
  0
LINE
  5
255
100
AcDbEntity
  8
0-0
100
AcDbLine
  6
CONTINUOUS
370
13
 10
256.751328163233
 20
122.99197723379
 11
255.307953163233
 21
122.99197723379
  0
CIRCLE
  5
256
100
AcDbEntity
  8
0-0
100
AcDbCircle
  6
CONTINUOUS
370
13
 10
256.029640663233
 20
121.741977816602
 40
2.4035896769725
  0
CIRCLE
  5
257
100
AcDbEntity
  8
0-0
100
AcDbCircle
  6
CONTINUOUS
370
13
 10
256.029640663233
 20
121.741977816602
 40
2.74999999999989
  0
LINE
  5
258
100
AcDbEntity
  8
0-0
100
AcDbLine
  6
CONTINUOUS
370
13
 10
254.586265663233
 20
121.741977816602
 11
255.307953163233
 21
120.491978399415
  0
LINE
  5
259
100
AcDbEntity
  8
0-0
100
AcDbLine
  6
CONTINUOUS
370
13
 10
255.307953163233
 20
122.99197723379
 11
254.586265663233
 21
121.741977816602
  0
LINE
  5
25A
100
AcDbEntity
  8
0-0
100
AcDbLine
  6
CONTINUOUS
370
13
 10
256.751328163233
 20
120.491978399415
 11
257.473015663233
 21
121.741977816602
  0
LINE
  5
25B
100
AcDbEntity
  8
0-0
100
AcDbLine
  6
CONTINUOUS
370
13
 10
257.473015663233
 20
121.741977816602
 11
256.751328163233
 21
122.99197723379
  0
ARC
  5
25C
100
AcDbEntity
  8
0-0
100
AcDbCircle
  6
CONTINUOUS
370
50
 10
440.529640663233
 20
79.7419778166025
 40
1.5
100
AcDbArc
 50
-118.782204680584
 51
118.782204680584
  0
ARC
  5
25D
100
AcDbEntity
  8
0-0
100
AcDbCircle
  6
CONTINUOUS
370
50
 10
440.529640663233
 20
121.741977816602
 40
1.5
100
AcDbArc
 50
-118.782204680584
 51
118.782204680584
  0
CIRCLE
  5
25E
100
AcDbEntity
  8
0-0
100
AcDbCircle
  6
CONTINUOUS
370
50
 10
275.529640663233
 20
121.741977816602
 40
1.5
  0
CIRCLE
  5
25F
100
AcDbEntity
  8
0-0
100
AcDbCircle
  6
CONTINUOUS
370
50
 10
275.529640663233
 20
79.7419778166025
 40
1.5
  0
CIRCLE
  5
260
100
AcDbEntity
  8
0-0
100
AcDbCircle
  6
CONTINUOUS
370
20
 10
445.029640663233
 20
218.021751752338
 40
2.5
  0
CIRCLE
  5
261
100
AcDbEntity
  8
0-0
100
AcDbCircle
  6
CONTINUOUS
370
13
 10
445.029640663233
 20
218.021751752338
 40
2.5
  0
ARC
  5
262
100
AcDbEntity
  8
0-0
100
AcDbCircle
  6
CONTINUOUS
370
13
 10
445.029640663233
 20
218.021751752338
 40
1.45
100
AcDbArc
 50
352.57025669376
 51
0
  0
ARC
  5
263
100
AcDbEntity
  8
0-0
100
AcDbCircle
  6
CONTINUOUS
370
13
 10
445.029640663233
 20
218.021751752338
 40
1.45
100
AcDbArc
 50
0
 51
7.42974330623997
  0
ARC
  5
264
100
AcDbEntity
  8
0-0
100
AcDbCircle
  6
CONTINUOUS
370
13
 10
443.592140663233
 20
219.459251752363
 40
1.25
100
AcDbArc
 50
269.985055223947
 51
0.0149447750821012
  0
ARC
  5
265
100
AcDbEntity
  8
0-0
100
AcDbCircle
  6
CONTINUOUS
370
13
 10
445.029640663233
 20
218.021751752338
 40
1.45
100
AcDbArc
 50
172.57025669376
 51
180
  0
ARC
  5
266
100
AcDbEntity
  8
0-0
100
AcDbCircle
  6
CONTINUOUS
370
13
 10
445.029640663233
 20
218.021751752338
 40
1.45
100
AcDbArc
 50
180
 51
187.42974330624
  0
ARC
  5
267
100
AcDbEntity
  8
0-0
100
AcDbCircle
  6
CONTINUOUS
370
13
 10
445.029640663233
 20
218.021751752338
 40
1.45
100
AcDbArc
 50
262.570256694729
 51
270
  0
ARC
  5
268
100
AcDbEntity
  8
0-0
100
AcDbCircle
  6
CONTINUOUS
370
13
 10
443.592140663233
 20
216.584251752314
 40
1.25
100
AcDbArc
 50
359.985055224918
 51
90.0149447760494
  0
ARC
  5
269
100
AcDbEntity
  8
0-0
100
AcDbCircle
  6
CONTINUOUS
370
13
 10
445.029640663233
 20
218.021751752338
 40
1.45
100
AcDbArc
 50
270
 51
277.429743305271
  0
ARC
  5
26A
100
AcDbEntity
  8
0-0
100
AcDbCircle
  6
CONTINUOUS
370
13
 10
445.029640663233
 20
218.021751752338
 40
1.45
100
AcDbArc
 50
90
 51
97.4297433052711
  0
ARC
  5
26B
100
AcDbEntity
  8
0-0
100
AcDbCircle
  6
CONTINUOUS
370
13
 10
445.029640663233
 20
218.021751752338
 40
1.45
100
AcDbArc
 50
82.5702566947289
 51
90
  0
ARC
  5
26C
100
AcDbEntity
  8
0-0
100
AcDbCircle
  6
CONTINUOUS
370
13
 10
446.467140663233
 20
219.459251752363
 40
1.25
100
AcDbArc
 50
179.985055224918
 51
270.014944776049
  0
ARC
  5
26D
100
AcDbEntity
  8
0-0
100
AcDbCircle
  6
CONTINUOUS
370
13
 10
446.467140663233
 20
216.584251752314
 40
1.25
100
AcDbArc
 50
89.9850552239474
 51
180.014944775082
  0
CIRCLE
  5
26E
100
AcDbEntity
  8
0-0
100
AcDbCircle
  6
CONTINUOUS
370
13
 10
270.029640663233
 20
218.021751752338
 40
2.5
  0
ARC
  5
26F
100
AcDbEntity
  8
0-0
100
AcDbCircle
  6
CONTINUOUS
370
13
 10
270.029640663233
 20
218.021751752338
 40
1.45
100
AcDbArc
 50
352.57025669376
 51
0
  0
ARC
  5
270
100
AcDbEntity
  8
0-0
100
AcDbCircle
  6
CONTINUOUS
370
13
 10
270.029640663233
 20
218.021751752338
 40
1.45
100
AcDbArc
 50
0
 51
7.42974330623997
  0
ARC
  5
271
100
AcDbEntity
  8
0-0
100
AcDbCircle
  6
CONTINUOUS
370
13
 10
268.592140663233
 20
219.459251752363
 40
1.25
100
AcDbArc
 50
269.985055223947
 51
0.0149447750821012
  0
ARC
  5
272
100
AcDbEntity
  8
0-0
100
AcDbCircle
  6
CONTINUOUS
370
13
 10
270.029640663233
 20
218.021751752338
 40
1.45
100
AcDbArc
 50
172.57025669376
 51
180
  0
ARC
  5
273
100
AcDbEntity
  8
0-0
100
AcDbCircle
  6
CONTINUOUS
370
13
 10
270.029640663233
 20
218.021751752338
 40
1.45
100
AcDbArc
 50
180
 51
187.42974330624
  0
ARC
  5
274
100
AcDbEntity
  8
0-0
100
AcDbCircle
  6
CONTINUOUS
370
13
 10
270.029640663233
 20
218.021751752338
 40
1.45
100
AcDbArc
 50
262.570256694729
 51
270
  0
ARC
  5
275
100
AcDbEntity
  8
0-0
100
AcDbCircle
  6
CONTINUOUS
370
13
 10
268.592140663233
 20
216.584251752314
 40
1.25
100
AcDbArc
 50
359.985055224918
 51
90.0149447760494
  0
ARC
  5
276
100
AcDbEntity
  8
0-0
100
AcDbCircle
  6
CONTINUOUS
370
13
 10
270.029640663233
 20
218.021751752338
 40
1.45
100
AcDbArc
 50
270
 51
277.429743305271
  0
ARC
  5
277
100
AcDbEntity
  8
0-0
100
AcDbCircle
  6
CONTINUOUS
370
13
 10
270.029640663233
 20
218.021751752338
 40
1.45
100
AcDbArc
 50
90
 51
97.4297433052711
  0
ARC
  5
278
100
AcDbEntity
  8
0-0
100
AcDbCircle
  6
CONTINUOUS
370
13
 10
270.029640663233
 20
218.021751752338
 40
1.45
100
AcDbArc
 50
82.5702566947289
 51
90
  0
ARC
  5
279
100
AcDbEntity
  8
0-0
100
AcDbCircle
  6
CONTINUOUS
370
13
 10
271.467140663233
 20
219.459251752363
 40
1.25
100
AcDbArc
 50
179.985055224918
 51
270.014944776049
  0
ARC
  5
27A
100
AcDbEntity
  8
0-0
100
AcDbCircle
  6
CONTINUOUS
370
13
 10
271.467140663233
 20
216.584251752314
 40
1.25
100
AcDbArc
 50
89.9850552239474
 51
180.014944775082
  0
CIRCLE
  5
27B
100
AcDbEntity
  8
0-0
100
AcDbCircle
  6
CONTINUOUS
370
20
 10
270.029640663233
 20
218.021751752338
 40
2.5
  0
LINE
  5
27C
100
AcDbEntity
  8
0-0
100
AcDbLine
  6
CONTINUOUS
370
50
 10
39.420511222646
 20
221.521751752338
 11
39.420511222646
 21
164.521751752338
  0
LINE
  5
27D
100
AcDbEntity
  8
0-0
100
AcDbLine
  6
CONTINUOUS
370
50
 10
39.422824385996
 20
164.521751752338
 11
39.422824385996
 21
158.521751752338
  0
LINE
  5
27E
100
AcDbEntity
  8
0-0
100
AcDbLine
  6
CONTINUOUS
370
50
 10
91.422824385996
 20
158.521751752338
 11
91.422824385996
 21
164.521751752338
  0
LINE
  5
27F
100
AcDbEntity
  8
0-0
100
AcDbLine
  6
CONTINUOUS
370
50
 10
560.529983055757
 20
158.521751752338
 11
560.529983055757
 21
164.521751752338
  0
LINE
  5
280
100
AcDbEntity
  8
0-0
100
AcDbLine
  6
CONTINUOUS
370
50
 10
508.529983055757
 20
164.521751752338
 11
508.529983055757
 21
158.521751752338
  0
LINE
  5
281
100
AcDbEntity
  8
0-0
100
AcDbLine
  6
CONTINUOUS
370
50
 10
91.420511222646
 20
221.521751752338
 11
91.420511222646
 21
164.521751752338
  0
LINE
  5
282
100
AcDbEntity
  8
0-0
100
AcDbLine
  6
CONTINUOUS
370
50
 10
39.920511222646
 20
222.021751752338
 11
39.420511222646
 21
221.521751752338
  0
LINE
  5
283
100
AcDbEntity
  8
0-0
100
AcDbLine
  6
CONTINUOUS
370
50
 10
91.420511222646
 20
221.521751752338
 11
90.920511222646
 21
222.021751752338
  0
LINE
  5
284
100
AcDbEntity
  8
0-0
100
AcDbLine
  6
CONTINUOUS
370
20
 10
261.029640663234
 20
366.422152225475
 11
261.029640663234
 21
313.422152225475
  0
LINE
  5
285
100
AcDbEntity
  8
0-0
100
AcDbLine
  6
CONTINUOUS
370
20
 10
261.029640663234
 20
276.522150433322
 11
261.029640663234
 21
233.722150433322
  0
LINE
  5
286
100
AcDbEntity
  8
0-0
100
AcDbLine
  6
CONTINUOUS
370
20
 10
258.029640663234
 20
276.522150433322
 11
258.029640663234
 21
233.722150433322
  0
LINE
  5
287
100
AcDbEntity
  8
0-0
100
AcDbLine
  6
CONTINUOUS
370
20
 10
261.029640663234
 20
276.522150433322
 11
258.029640663234
 21
276.522150433322
  0
LINE
  5
288
100
AcDbEntity
  8
0-0
100
AcDbLine
  6
CONTINUOUS
370
20
 10
261.029640663234
 20
233.722150433322
 11
258.029640663234
 21
233.722150433322
  0
LINE
  5
289
100
AcDbEntity
  8
0-0
100
AcDbLine
  6
CONTINUOUS
370
20
 10
120.029640663233
 20
274.722150433322
 11
120.029640663233
 21
235.522150433321
  0
LINE
  5
28A
100
AcDbEntity
  8
0-0
100
AcDbLine
  6
CONTINUOUS
370
20
 10
288.029640663234
 20
273.922150433322
 11
288.029640663234
 21
242.521278635135
  0
LINE
  5
28B
100
AcDbEntity
  8
0-0
100
AcDbLine
  6
CONTINUOUS
370
20
 10
286.029640663234
 20
273.922150433322
 11
286.029640663234
 21
236.322150433321
  0
LINE
  5
28C
100
AcDbEntity
  8
0-0
100
AcDbLine
  6
CONTINUOUS
370
20
 10
288.029640663234
 20
273.922150433322
 11
286.029640663234
 21
273.922150433322
  0
LINE
  5
28D
100
AcDbEntity
  8
0-0
100
AcDbLine
  6
CONTINUOUS
370
20
 10
110.029640663234
 20
260.122150433322
 11
110.029640663234
 21
250.122150433322
  0
LINE
  5
28E
100
AcDbEntity
  8
0-0
100
AcDbLine
  6
CONTINUOUS
370
20
 10
118.029640663233
 20
260.122150433322
 11
118.029640663233
 21
250.122150433322
  0
LINE
  5
28F
100
AcDbEntity
  8
0-0
100
AcDbLine
  6
CONTINUOUS
370
20
 10
118.029640663233
 20
260.122150433322
 11
110.029640663234
 21
260.122150433322
  0
LINE
  5
290
100
AcDbEntity
  8
0-0
100
AcDbLine
  6
CONTINUOUS
370
20
 10
118.029640663233
 20
250.122150433322
 11
110.029640663234
 21
250.122150433322
  0
LINE
  5
291
100
AcDbEntity
  8
0-0
100
AcDbLine
  6
CONTINUOUS
370
20
 10
108.029640663233
 20
257.122150433322
 11
108.029640663233
 21
253.122150433322
  0
LINE
  5
292
100
AcDbEntity
  8
0-0
100
AcDbLine
  6
CONTINUOUS
370
20
 10
110.029640663234
 20
257.122150433322
 11
108.029640663233
 21
257.122150433322
  0
LINE
  5
293
100
AcDbEntity
  8
0-0
100
AcDbLine
  6
CONTINUOUS
370
20
 10
110.029640663234
 20
253.122150433322
 11
108.029640663233
 21
253.122150433322
  0
LINE
  5
294
100
AcDbEntity
  8
0-0
100
AcDbLine
  6
CONTINUOUS
370
20
 10
118.029640663233
 20
260.122150433322
 11
120.029640663233
 21
274.722150433322
  0
LINE
  5
295
100
AcDbEntity
  8
0-0
100
AcDbLine
  6
CONTINUOUS
370
20
 10
118.029640663233
 20
250.122150433322
 11
120.029640663233
 21
235.522150433321
  0
LINE
  5
296
100
AcDbEntity
  8
0-0
100
AcDbLine
  6
CONTINUOUS
370
20
 10
286.029640663234
 20
268.922150433322
 11
261.029640663234
 21
268.922150433322
  0
LINE
  5
297
100
AcDbEntity
  8
0-0
100
AcDbLine
  6
CONTINUOUS
370
20
 10
284.529640663233
 20
241.322150433321
 11
266.029640663234
 21
241.322150433321
  0
LINE
  5
298
100
AcDbEntity
  8
0-0
100
AcDbLine
  6
CONTINUOUS
370
20
 10
261.029640663234
 20
254.322150433322
 11
286.029640663234
 21
254.322150433321
  0
LINE
  5
299
100
AcDbEntity
  8
0-0
100
AcDbLine
  6
CONTINUOUS
370
20
 10
261.029640663234
 20
255.922150433322
 11
286.029640663234
 21
255.922150433322
  0
LINE
  5
29A
100
AcDbEntity
  8
0-0
100
AcDbLine
  6
CONTINUOUS
370
20
 10
258.029640663234
 20
366.422152225475
 11
258.029640663234
 21
313.422152225475
  0
LINE
  5
29B
100
AcDbEntity
  8
0-0
100
AcDbLine
  6
CONTINUOUS
370
20
 10
120.029640663233
 20
359.522152225475
 11
120.029640663233
 21
320.322152225475
  0
LINE
  5
29C
100
AcDbEntity
  8
0-0
100
AcDbLine
  6
CONTINUOUS
370
20
 10
288.029640663234
 20
358.722152225475
 11
288.029640663234
 21
321.122152225475
  0
LINE
  5
29D
100
AcDbEntity
  8
0-0
100
AcDbLine
  6
CONTINUOUS
370
20
 10
286.029640663234
 20
358.722152225475
 11
286.029640663234
 21
321.122152225475
  0
LINE
  5
29E
100
AcDbEntity
  8
0-0
100
AcDbLine
  6
CONTINUOUS
370
20
 10
110.029640663234
 20
344.922152225475
 11
110.029640663234
 21
334.922152225475
  0
LINE
  5
29F
100
AcDbEntity
  8
0-0
100
AcDbLine
  6
CONTINUOUS
370
20
 10
118.029640663233
 20
344.922152225475
 11
118.029640663233
 21
334.922152225475
  0
LINE
  5
2A0
100
AcDbEntity
  8
0-0
100
AcDbLine
  6
CONTINUOUS
370
20
 10
118.029640663233
 20
344.922152225475
 11
110.029640663234
 21
344.922152225475
  0
LINE
  5
2A1
100
AcDbEntity
  8
0-0
100
AcDbLine
  6
CONTINUOUS
370
20
 10
118.029640663233
 20
334.922152225475
 11
110.029640663234
 21
334.922152225475
  0
LINE
  5
2A2
100
AcDbEntity
  8
0-0
100
AcDbLine
  6
CONTINUOUS
370
20
 10
108.029640663233
 20
341.922152225475
 11
108.029640663233
 21
337.922152225475
  0
LINE
  5
2A3
100
AcDbEntity
  8
0-0
100
AcDbLine
  6
CONTINUOUS
370
20
 10
110.029640663234
 20
341.922152225475
 11
108.029640663233
 21
341.922152225475
  0
LINE
  5
2A4
100
AcDbEntity
  8
0-0
100
AcDbLine
  6
CONTINUOUS
370
20
 10
110.029640663234
 20
337.922152225475
 11
108.029640663233
 21
337.922152225475
  0
LINE
  5
2A5
100
AcDbEntity
  8
0-0
100
AcDbLine
  6
CONTINUOUS
370
20
 10
118.029640663233
 20
344.922152225475
 11
120.029640663233
 21
359.522152225475
  0
LINE
  5
2A6
100
AcDbEntity
  8
0-0
100
AcDbLine
  6
CONTINUOUS
370
20
 10
118.029640663233
 20
334.922152225475
 11
120.029640663233
 21
320.322152225475
  0
LINE
  5
2A7
100
AcDbEntity
  8
0-0
100
AcDbLine
  6
CONTINUOUS
370
20
 10
286.029640663234
 20
353.722152225475
 11
261.029640663234
 21
353.722152225475
  0
LINE
  5
2A8
100
AcDbEntity
  8
0-0
100
AcDbLine
  6
CONTINUOUS
370
20
 10
286.029640663234
 20
326.122152225475
 11
261.029640663234
 21
326.122152225475
  0
LINE
  5
2A9
100
AcDbEntity
  8
0-0
100
AcDbLine
  6
CONTINUOUS
370
20
 10
261.029640663234
 20
339.122152225475
 11
286.029640663234
 21
339.122152225475
  0
LINE
  5
2AA
100
AcDbEntity
  8
0-0
100
AcDbLine
  6
CONTINUOUS
370
20
 10
261.029640663234
 20
340.722152225475
 11
286.029640663234
 21
340.722152225475
  0
LINE
  5
2AB
100
AcDbEntity
  8
0-0
100
AcDbLine
  6
CONTINUOUS
370
20
 10
286.029640663234
 20
358.722152225475
 11
288.029640663234
 21
358.722152225475
  0
LINE
  5
2AC
100
AcDbEntity
  8
0-0
100
AcDbLine
  6
CONTINUOUS
370
20
 10
261.029640663234
 20
366.422152225475
 11
258.029640663234
 21
366.422152225475
  0
LINE
  5
2AD
100
AcDbEntity
  8
0-0
100
AcDbLine
  6
CONTINUOUS
370
20
 10
261.029640663234
 20
313.422152225475
 11
258.029640663234
 21
313.422152225475
  0
LINE
  5
2AE
100
AcDbEntity
  8
0-0
100
AcDbLine
  6
CONTINUOUS
370
20
 10
203.029640663234
 20
235.522150433321
 11
120.029640663233
 21
235.522150433321
  0
LINE
  5
2AF
100
AcDbEntity
  8
0-0
100
AcDbLine
  6
CONTINUOUS
370
20
 10
286.029640663234
 20
321.122152225475
 11
288.029640663234
 21
321.122152225475
  0
ARC
  5
2B0
100
AcDbEntity
  8
0-0
100
AcDbCircle
  6
CONTINUOUS
370
20
 10
65.4199907692127
 20
255.122150433322
 40
19.6
100
AcDbArc
 50
499.934233714246
 51
499.934233714246
  0
ARC
  5
2B1
100
AcDbEntity
  8
0-0
100
AcDbCircle
  6
CONTINUOUS
370
20
 10
38.9199907692125
 20
255.122150433322
 40
53
100
AcDbArc
 50
-7.85399553468979
 51
17.2763728182906
  0
ARC
  5
2B2
100
AcDbEntity
  8
0-0
100
AcDbCircle
  6
CONTINUOUS
370
20
 10
91.919990769213
 20
255.122150433322
 40
53
100
AcDbArc
 50
162.72362718171
 51
-172.101296567423
  0
ARC
  5
2B3
100
AcDbEntity
  8
0-0
100
AcDbCircle
  6
CONTINUOUS
370
20
 10
65.4199907692127
 20
253.536490822926
 40
23
100
AcDbArc
 50
437.10381712589
 51
467.725473125819
  0
LINE
  5
2B4
100
AcDbEntity
  8
0-0
100
AcDbLine
  6
DIVIDE
370
20
 10
384.029640663234
 20
273.922150433322
 11
384.029640663234
 21
242.521278635135
  0
LINE
  5
2B5
100
AcDbEntity
  8
0-0
100
AcDbLine
  6
DIVIDE
370
20
 10
382.029640663234
 20
273.922150433322
 11
382.029640663233
 21
242.521278635135
  0
LINE
  5
2B6
100
AcDbEntity
  8
0-0
100
AcDbLine
  6
DIVIDE
370
20
 10
384.029640663234
 20
273.922150433322
 11
382.029640663234
 21
273.922150433322
  0
LINE
  5
2B7
100
AcDbEntity
  8
0-0
100
AcDbLine
  6
DIVIDE
370
20
 10
382.029640663234
 20
268.922150433322
 11
357.029640663234
 21
268.922150433322
  0
LINE
  5
2B8
100
AcDbEntity
  8
0-0
100
AcDbLine
  6
DIVIDE
370
20
 10
380.529640663233
 20
241.322150433321
 11
357.029640663234
 21
241.322150433321
  0
LINE
  5
2B9
100
AcDbEntity
  8
0-0
100
AcDbLine
  6
DIVIDE
370
20
 10
357.029640663234
 20
254.322150433322
 11
382.029640663234
 21
254.322150433321
  0
LINE
  5
2BA
100
AcDbEntity
  8
0-0
100
AcDbLine
  6
DIVIDE
370
20
 10
357.029640663234
 20
255.922150433322
 11
382.029640663234
 21
255.922150433322
  0
LINE
  5
2BB
100
AcDbEntity
  8
0-0
100
AcDbLine
  6
CONTINUOUS
370
50
 10
291.029640663233
 20
225.521751752085
 11
291.029640663233
 21
263.52175175234
  0
ARC
  5
2BC
100
AcDbEntity
  8
0-0
100
AcDbCircle
  6
CONTINUOUS
370
50
 10
286.029640663233
 20
225.521751752085
 40
5
100
AcDbArc
 50
-22.3336826546673
 51
0
  0
LINE
  5
2BD
100
AcDbEntity
  8
0-0
100
AcDbLine
  6
CONTINUOUS
370
50
 10
252.029640663233
 20
126.741977816602
 11
448.029640663233
 21
126.741977816602
  0
LINE
  5
2BE
100
AcDbEntity
  8
0-0
100
AcDbLine
  6
CONTINUOUS
370
50
 10
448.029640663233
 20
74.7419778166025
 11
252.029640663233
 21
74.7419778166025
  0
LINE
  5
2BF
100
AcDbEntity
  8
0-0
100
AcDbLine
  6
CONTINUOUS
370
50
 10
508.329983055757
 20
158.621751752338
 11
508.329983055757
 21
222.121751752338
  0
LINE
  5
2C0
100
AcDbEntity
  8
0-0
100
AcDbLine
  6
CONTINUOUS
370
50
 10
506.829983055757
 20
223.621751752338
 11
506.829983055757
 21
158.621751752338
  0
LINE
  5
2C1
100
AcDbEntity
  8
0-0
100
AcDbLine
  6
CONTINUOUS
370
50
 10
560.729983055757
 20
222.121751752338
 11
560.729983055757
 21
158.621751752338
  0
LINE
  5
2C2
100
AcDbEntity
  8
0-0
100
AcDbLine
  6
CONTINUOUS
370
50
 10
562.229983055757
 20
158.621751752338
 11
562.229983055757
 21
223.621751752338
  0
LINE
  5
2C3
100
AcDbEntity
  8
0-0
100
AcDbLine
  6
CONTINUOUS
370
50
 10
39.222824385996
 20
158.621751752338
 11
39.222824385996
 21
222.121751752338
  0
LINE
  5
2C4
100
AcDbEntity
  8
0-0
100
AcDbLine
  6
CONTINUOUS
370
50
 10
37.722824385996
 20
223.621751752338
 11
37.722824385996
 21
158.621751752338
  0
LINE
  5
2C5
100
AcDbEntity
  8
0-0
100
AcDbLine
  6
CONTINUOUS
370
50
 10
91.622824385996
 20
222.121751752338
 11
91.622824385996
 21
158.621751752338
  0
LINE
  5
2C6
100
AcDbEntity
  8
0-0
100
AcDbLine
  6
CONTINUOUS
370
50
 10
93.122824385996
 20
158.621751752338
 11
93.122824385996
 21
223.621751752338
  0
LINE
  5
2C7
100
AcDbEntity
  8
0-0
100
AcDbLine
  6
CONTINUOUS
370
50
 10
189.029640663233
 20
126.941977816602
 11
449.029640663233
 21
126.941977816602
  0
LINE
  5
2C8
100
AcDbEntity
  8
0-0
100
AcDbLine
  6
CONTINUOUS
370
50
 10
189.029640663233
 20
128.441977816602
 11
449.029640663233
 21
128.441977816602
  0
LINE
  5
2C9
100
AcDbEntity
  8
0-0
100
AcDbLine
  6
CONTINUOUS
370
50
 10
449.029640663233
 20
74.5419778166026
 11
189.029640663233
 21
74.5419778166026
  0
LINE
  5
2CA
100
AcDbEntity
  8
0-0
100
AcDbLine
  6
CONTINUOUS
370
50
 10
449.029640663233
 20
73.0419778166026
 11
189.029640663233
 21
73.0419778166026
  0
LINE
  5
2CB
100
AcDbEntity
  8
0-0
100
AcDbLine
  6
CONTINUOUS
370
40
 10
440.029640663233
 20
158.521751752338
 11
432.029640663233
 21
158.521751752338
  0
LINE
  5
2CC
100
AcDbEntity
  8
0-0
100
AcDbLine
  6
CONTINUOUS
370
40
 10
432.029640663233
 20
158.521751752338
 11
432.029640663233
 21
152.521751752338
  0
LINE
  5
2CD
100
AcDbEntity
  8
0-0
100
AcDbLine
  6
CONTINUOUS
370
40
 10
432.029640663233
 20
152.521751752338
 11
440.029640663233
 21
152.521751752338
  0
LINE
  5
2CE
100
AcDbEntity
  8
0-0
100
AcDbLine
  6
CONTINUOUS
370
40
 10
440.029640663233
 20
152.521751752338
 11
440.029640663233
 21
158.521751752338
  0
LINE
  5
2CF
100
AcDbEntity
  8
0-0
100
AcDbLine
  6
CONTINUOUS
370
40
 10
260.029640663233
 20
158.521751752338
 11
252.029640663233
 21
158.521751752338
  0
LINE
  5
2D0
100
AcDbEntity
  8
0-0
100
AcDbLine
  6
CONTINUOUS
370
40
 10
252.029640663233
 20
158.521751752338
 11
252.029640663233
 21
152.521751752338
  0
LINE
  5
2D1
100
AcDbEntity
  8
0-0
100
AcDbLine
  6
CONTINUOUS
370
40
 10
252.029640663233
 20
152.521751752338
 11
260.029640663233
 21
152.521751752338
  0
LINE
  5
2D2
100
AcDbEntity
  8
0-0
100
AcDbLine
  6
CONTINUOUS
370
40
 10
260.029640663233
 20
152.521751752338
 11
260.029640663233
 21
158.521751752338
  0
LINE
  5
2D3
100
AcDbEntity
  8
0-0
100
AcDbLine
  6
CONTINUOUS
370
40
 10
517.529983055757
 20
158.521751752338
 11
509.529983055757
 21
158.521751752338
  0
LINE
  5
2D4
100
AcDbEntity
  8
0-0
100
AcDbLine
  6
CONTINUOUS
370
40
 10
509.529983055757
 20
158.521751752338
 11
509.529983055757
 21
152.521751752338
  0
LINE
  5
2D5
100
AcDbEntity
  8
0-0
100
AcDbLine
  6
CONTINUOUS
370
40
 10
509.529983055757
 20
152.521751752338
 11
517.529983055757
 21
152.521751752338
  0
LINE
  5
2D6
100
AcDbEntity
  8
0-0
100
AcDbLine
  6
CONTINUOUS
370
40
 10
517.529983055757
 20
152.521751752338
 11
517.529983055757
 21
158.521751752338
  0
LINE
  5
2D7
100
AcDbEntity
  8
0-0
100
AcDbLine
  6
CONTINUOUS
370
40
 10
559.529983055757
 20
158.521751752338
 11
551.529983055757
 21
158.521751752338
  0
LINE
  5
2D8
100
AcDbEntity
  8
0-0
100
AcDbLine
  6
CONTINUOUS
370
40
 10
551.529983055757
 20
158.521751752338
 11
551.529983055757
 21
152.521751752338
  0
LINE
  5
2D9
100
AcDbEntity
  8
0-0
100
AcDbLine
  6
CONTINUOUS
370
40
 10
551.529983055757
 20
152.521751752338
 11
559.529983055757
 21
152.521751752338
  0
LINE
  5
2DA
100
AcDbEntity
  8
0-0
100
AcDbLine
  6
CONTINUOUS
370
40
 10
559.529983055757
 20
152.521751752338
 11
559.529983055757
 21
158.521751752338
  0
LINE
  5
2DB
100
AcDbEntity
  8
0-0
100
AcDbLine
  6
CONTINUOUS
370
40
 10
82.420511222646
 20
158.521751752338
 11
82.420511222646
 21
152.521751752338
  0
LINE
  5
2DC
100
AcDbEntity
  8
0-0
100
AcDbLine
  6
CONTINUOUS
370
40
 10
82.420511222646
 20
152.521751752338
 11
90.420511222646
 21
152.521751752338
  0
LINE
  5
2DD
100
AcDbEntity
  8
0-0
100
AcDbLine
  6
CONTINUOUS
370
40
 10
90.420511222646
 20
152.521751752338
 11
90.420511222646
 21
158.521751752338
  0
LINE
  5
2DE
100
AcDbEntity
  8
0-0
100
AcDbLine
  6
DASHED
370
30
 10
84.820511222646
 20
158.521751752338
 11
84.820511222646
 21
156.021751752338
  0
LINE
  5
2DF
100
AcDbEntity
  8
0-0
100
AcDbLine
  6
DASHED
370
30
 10
88.020511222646
 20
158.521751752338
 11
88.020511222646
 21
156.021751752338
  0
LINE
  5
2E0
100
AcDbEntity
  8
0-0
100
AcDbLine
  6
DASHED
370
30
 10
83.420511222646
 20
156.021751752338
 11
83.420511222646
 21
152.521751752338
  0
LINE
  5
2E1
100
AcDbEntity
  8
0-0
100
AcDbLine
  6
DASHED
370
30
 10
89.420511222646
 20
156.021751752338
 11
89.420511222646
 21
152.521751752338
  0
LINE
  5
2E2
100
AcDbEntity
  8
0-0
100
AcDbLine
  6
DASHED
370
30
 10
83.4199472226637
 20
156.021751752338
 11
89.420511222646
 21
156.021751752338
  0
LINE
  5
2E3
100
AcDbEntity
  8
0-0
100
AcDbLine
  6
CONTINUOUS
370
40
 10
40.420511222646
 20
158.521751752338
 11
40.420511222646
 21
152.521751752338
  0
LINE
  5
2E4
100
AcDbEntity
  8
0-0
100
AcDbLine
  6
CONTINUOUS
370
40
 10
40.420511222646
 20
152.521751752338
 11
48.420511222646
 21
152.521751752338
  0
LINE
  5
2E5
100
AcDbEntity
  8
0-0
100
AcDbLine
  6
CONTINUOUS
370
40
 10
48.420511222646
 20
152.521751752338
 11
48.420511222646
 21
158.521751752338
  0
LINE
  5
2E6
100
AcDbEntity
  8
0-0
100
AcDbLine
  6
DASHED
370
30
 10
42.820511222646
 20
158.521751752338
 11
42.820511222646
 21
156.021751752338
  0
LINE
  5
2E7
100
AcDbEntity
  8
0-0
100
AcDbLine
  6
DASHED
370
30
 10
46.020511222646
 20
158.521751752338
 11
46.020511222646
 21
156.021751752338
  0
LINE
  5
2E8
100
AcDbEntity
  8
0-0
100
AcDbLine
  6
DASHED
370
30
 10
41.420511222646
 20
156.021751752338
 11
41.420511222646
 21
152.521751752338
  0
LINE
  5
2E9
100
AcDbEntity
  8
0-0
100
AcDbLine
  6
DASHED
370
30
 10
47.420511222646
 20
156.021751752338
 11
47.420511222646
 21
152.521751752338
  0
LINE
  5
2EA
100
AcDbEntity
  8
0-0
100
AcDbLine
  6
DASHED
370
30
 10
41.4199472226637
 20
156.021751752338
 11
47.420511222646
 21
156.021751752338
  0
LINE
  5
2EB
100
AcDbEntity
  8
0-0
100
AcDbLine
  6
BYLAYER
370
13
 10
87.9202292226548
 20
156.021751752338
 11
87.9202292226548
 21
163.421751752338
  0
LINE
  5
2EC
100
AcDbEntity
  8
0-0
100
AcDbLine
  6
BYLAYER
370
13
 10
87.6497292226548
 20
158.021751752338
 11
87.6497292226548
 21
163.692251752338
  0
LINE
  5
2ED
100
AcDbEntity
  8
0-0
100
AcDbLine
  6
BYLAYER
370
13
 10
85.1907292226548
 20
158.021751752338
 11
85.1907292226548
 21
163.692251752338
  0
LINE
  5
2EE
100
AcDbEntity
  8
0-0
100
AcDbLine
  6
BYLAYER
370
13
 10
85.5202292226549
 20
164.021751752338
 11
87.3202292226548
 21
164.021751752338
  0
LINE
  5
2EF
100
AcDbEntity
  8
0-0
100
AcDbLine
  6
BYLAYER
370
13
 10
84.9202292226548
 20
163.421751752338
 11
87.9202292226548
 21
163.421751752338
  0
LINE
  5
2F0
100
AcDbEntity
  8
0-0
100
AcDbLine
  6
BYLAYER
370
13
 10
87.9202292226548
 20
163.421751752338
 11
87.3202292226548
 21
164.021751752338
  0
LINE
  5
2F1
100
AcDbEntity
  8
0-0
100
AcDbLine
  6
BYLAYER
370
13
 10
84.9202292226548
 20
163.421751752338
 11
85.5202292226549
 21
164.021751752338
  0
LINE
  5
2F2
100
AcDbEntity
  8
0-0
100
AcDbLine
  6
BYLAYER
370
13
 10
83.6702292226548
 20
153.221751752338
 11
89.1702292226548
 21
153.221751752338
  0
LINE
  5
2F3
100
AcDbEntity
  8
0-0
100
AcDbLine
  6
BYLAYER
370
13
 10
84.0166393841686
 20
153.021751752338
 11
88.8238190611411
 21
153.021751752338
  0
LINE
  5
2F4
100
AcDbEntity
  8
0-0
100
AcDbLine
  6
BYLAYER
370
13
 10
84.9202292226548
 20
158.021751752338
 11
87.9202292226548
 21
158.021751752338
  0
LINE
  5
2F5
100
AcDbEntity
  8
0-0
100
AcDbLine
  6
BYLAYER
370
13
 10
83.6702292226548
 20
156.021751752338
 11
89.1702292226548
 21
156.021751752338
  0
LINE
  5
2F6
100
AcDbEntity
  8
0-0
100
AcDbLine
  6
BYLAYER
370
13
 10
87.6497292226548
 20
158.021751752338
 11
87.9202292226548
 21
157.553232008891
  0
LINE
  5
2F7
100
AcDbEntity
  8
0-0
100
AcDbLine
  6
BYLAYER
370
13
 10
89.1702292226548
 20
153.221751752338
 11
88.8238190611411
 21
153.021751752338
  0
LINE
  5
2F8
100
AcDbEntity
  8
0-0
100
AcDbLine
  6
BYLAYER
370
13
 10
89.1702292226548
 20
153.221751752339
 11
89.1702292226548
 21
156.021751752338
  0
LINE
  5
2F9
100
AcDbEntity
  8
0-0
100
AcDbLine
  6
BYLAYER
370
13
 10
85.1907292226548
 20
158.021751752338
 11
84.9202292226548
 21
157.553232008891
  0
LINE
  5
2FA
100
AcDbEntity
  8
0-0
100
AcDbLine
  6
BYLAYER
370
13
 10
83.6702292226548
 20
153.221751752338
 11
84.0166393841686
 21
153.021751752338
  0
LINE
  5
2FB
100
AcDbEntity
  8
0-0
100
AcDbLine
  6
BYLAYER
370
13
 10
83.6702292226548
 20
153.221751752338
 11
83.6702292226548
 21
156.021751752338
  0
LINE
  5
2FC
100
AcDbEntity
  8
0-0
100
AcDbLine
  6
BYLAYER
370
13
 10
84.9202292226548
 20
156.021751752338
 11
84.9202292226548
 21
163.421751752338
  0
LINE
  5
2FD
100
AcDbEntity
  8
0-0
100
AcDbLine
  6
BYLAYER
370
13
 10
45.9202292226548
 20
156.021751752338
 11
45.9202292226548
 21
163.421751752338
  0
LINE
  5
2FE
100
AcDbEntity
  8
0-0
100
AcDbLine
  6
BYLAYER
370
13
 10
45.6497292226549
 20
158.021751752338
 11
45.6497292226549
 21
163.692251752338
  0
LINE
  5
2FF
100
AcDbEntity
  8
0-0
100
AcDbLine
  6
BYLAYER
370
13
 10
43.1907292226549
 20
158.021751752338
 11
43.1907292226549
 21
163.692251752338
  0
LINE
  5
300
100
AcDbEntity
  8
0-0
100
AcDbLine
  6
BYLAYER
370
13
 10
43.520229222655
 20
164.021751752338
 11
45.3202292226549
 21
164.021751752338
  0
LINE
  5
301
100
AcDbEntity
  8
0-0
100
AcDbLine
  6
BYLAYER
370
13
 10
42.9202292226548
 20
163.421751752338
 11
45.9202292226548
 21
163.421751752338
  0
LINE
  5
302
100
AcDbEntity
  8
0-0
100
AcDbLine
  6
BYLAYER
370
13
 10
45.9202292226548
 20
163.421751752338
 11
45.3202292226549
 21
164.021751752338
  0
LINE
  5
303
100
AcDbEntity
  8
0-0
100
AcDbLine
  6
BYLAYER
370
13
 10
42.9202292226548
 20
163.421751752338
 11
43.520229222655
 21
164.021751752338
  0
LINE
  5
304
100
AcDbEntity
  8
0-0
100
AcDbLine
  6
BYLAYER
370
13
 10
41.6702292226549
 20
153.221751752338
 11
47.1702292226549
 21
153.221751752338
  0
LINE
  5
305
100
AcDbEntity
  8
0-0
100
AcDbLine
  6
BYLAYER
370
13
 10
42.0166393841687
 20
153.021751752338
 11
46.8238190611412
 21
153.021751752338
  0
LINE
  5
306
100
AcDbEntity
  8
0-0
100
AcDbLine
  6
BYLAYER
370
13
 10
42.9202292226548
 20
158.021751752338
 11
45.9202292226548
 21
158.021751752338
  0
LINE
  5
307
100
AcDbEntity
  8
0-0
100
AcDbLine
  6
BYLAYER
370
13
 10
41.6702292226549
 20
156.021751752338
 11
47.1702292226549
 21
156.021751752338
  0
LINE
  5
308
100
AcDbEntity
  8
0-0
100
AcDbLine
  6
BYLAYER
370
13
 10
45.6497292226549
 20
158.021751752338
 11
45.9202292226548
 21
157.553232008891
  0
LINE
  5
309
100
AcDbEntity
  8
0-0
100
AcDbLine
  6
BYLAYER
370
13
 10
47.1702292226549
 20
153.221751752338
 11
46.8238190611412
 21
153.021751752338
  0
LINE
  5
30A
100
AcDbEntity
  8
0-0
100
AcDbLine
  6
BYLAYER
370
13
 10
47.1702292226549
 20
153.221751752339
 11
47.1702292226549
 21
156.021751752338
  0
LINE
  5
30B
100
AcDbEntity
  8
0-0
100
AcDbLine
  6
BYLAYER
370
13
 10
43.1907292226549
 20
158.021751752338
 11
42.9202292226548
 21
157.553232008891
  0
LINE
  5
30C
100
AcDbEntity
  8
0-0
100
AcDbLine
  6
BYLAYER
370
13
 10
41.6702292226549
 20
153.221751752338
 11
42.0166393841687
 21
153.021751752338
  0
LINE
  5
30D
100
AcDbEntity
  8
0-0
100
AcDbLine
  6
BYLAYER
370
13
 10
41.6702292226549
 20
153.221751752338
 11
41.6702292226549
 21
156.021751752338
  0
LINE
  5
30E
100
AcDbEntity
  8
0-0
100
AcDbLine
  6
BYLAYER
370
13
 10
42.9202292226548
 20
156.021751752338
 11
42.9202292226548
 21
163.421751752338
  0
CIRCLE
  5
30F
100
AcDbEntity
  8
0-0
100
AcDbCircle
  6
CONTINUOUS
370
40
 10
256.029640663233
 20
79.7419778166025
 40
4
  0
CIRCLE
  5
310
100
AcDbEntity
  8
0-0
100
AcDbCircle
  6
CONTINUOUS
370
40
 10
256.029640663233
 20
79.7419778166025
 40
3
  0
CIRCLE
  5
311
100
AcDbEntity
  8
0-0
100
AcDbCircle
  6
CONTINUOUS
370
40
 10
256.029640663233
 20
121.741977816602
 40
4
  0
CIRCLE
  5
312
100
AcDbEntity
  8
0-0
100
AcDbCircle
  6
CONTINUOUS
370
40
 10
256.029640663233
 20
121.741977816602
 40
3
  0
CIRCLE
  5
313
100
AcDbEntity
  8
0-0
100
AcDbCircle
  6
CONTINUOUS
370
40
 10
436.029640663233
 20
121.741977816602
 40
4
  0
CIRCLE
  5
314
100
AcDbEntity
  8
0-0
100
AcDbCircle
  6
CONTINUOUS
370
40
 10
436.029640663233
 20
121.741977816602
 40
3
  0
CIRCLE
  5
315
100
AcDbEntity
  8
0-0
100
AcDbCircle
  6
CONTINUOUS
370
40
 10
436.029640663233
 20
79.7419778166025
 40
4
  0
CIRCLE
  5
316
100
AcDbEntity
  8
0-0
100
AcDbCircle
  6
CONTINUOUS
370
40
 10
436.029640663233
 20
79.7419778166025
 40
3
  0
LINE
  5
317
100
AcDbEntity
  8
0-0
100
AcDbLine
  6
CONTINUOUS
370
13
 10
269.307953163233
 20
85.9919783994151
 11
270.751328163233
 21
85.9919783994151
  0
LINE
  5
318
100
AcDbEntity
  8
0-0
100
AcDbLine
  6
CONTINUOUS
370
13
 10
270.751328163233
 20
88.4919772337899
 11
269.307953163233
 21
88.4919772337899
  0
CIRCLE
  5
319
100
AcDbEntity
  8
0-0
100
AcDbCircle
  6
CONTINUOUS
370
13
 10
270.029640663233
 20
87.2419778166025
 40
2.4035896769725
  0
CIRCLE
  5
31A
100
AcDbEntity
  8
0-0
100
AcDbCircle
  6
CONTINUOUS
370
13
 10
270.029640663233
 20
87.2419778166025
 40
2.74999999999989
  0
LINE
  5
31B
100
AcDbEntity
  8
0-0
100
AcDbLine
  6
CONTINUOUS
370
13
 10
268.586265663233
 20
87.2419778166025
 11
269.307953163233
 21
85.9919783994151
  0
LINE
  5
31C
100
AcDbEntity
  8
0-0
100
AcDbLine
  6
CONTINUOUS
370
13
 10
269.307953163233
 20
88.4919772337899
 11
268.586265663233
 21
87.2419778166025
  0
LINE
  5
31D
100
AcDbEntity
  8
0-0
100
AcDbLine
  6
CONTINUOUS
370
13
 10
270.751328163233
 20
85.9919783994151
 11
271.473015663233
 21
87.2419778166025
  0
LINE
  5
31E
100
AcDbEntity
  8
0-0
100
AcDbLine
  6
CONTINUOUS
370
13
 10
271.473015663233
 20
87.2419778166025
 11
270.751328163233
 21
88.4919772337899
  0
LINE
  5
31F
100
AcDbEntity
  8
0-0
100
AcDbLine
  6
CONTINUOUS
370
13
 10
269.307953163233
 20
120.491978399415
 11
270.751328163233
 21
120.491978399415
  0
LINE
  5
320
100
AcDbEntity
  8
0-0
100
AcDbLine
  6
CONTINUOUS
370
13
 10
270.751328163233
 20
122.99197723379
 11
269.307953163233
 21
122.99197723379
  0
CIRCLE
  5
321
100
AcDbEntity
  8
0-0
100
AcDbCircle
  6
CONTINUOUS
370
13
 10
270.029640663233
 20
121.741977816602
 40
2.4035896769725
  0
CIRCLE
  5
322
100
AcDbEntity
  8
0-0
100
AcDbCircle
  6
CONTINUOUS
370
13
 10
270.029640663233
 20
121.741977816602
 40
2.74999999999989
  0
LINE
  5
323
100
AcDbEntity
  8
0-0
100
AcDbLine
  6
CONTINUOUS
370
13
 10
268.586265663233
 20
121.741977816602
 11
269.307953163233
 21
120.491978399415
  0
LINE
  5
324
100
AcDbEntity
  8
0-0
100
AcDbLine
  6
CONTINUOUS
370
13
 10
269.307953163233
 20
122.99197723379
 11
268.586265663233
 21
121.741977816602
  0
LINE
  5
325
100
AcDbEntity
  8
0-0
100
AcDbLine
  6
CONTINUOUS
370
13
 10
270.751328163233
 20
120.491978399415
 11
271.473015663233
 21
121.741977816602
  0
LINE
  5
326
100
AcDbEntity
  8
0-0
100
AcDbLine
  6
CONTINUOUS
370
13
 10
271.473015663233
 20
121.741977816602
 11
270.751328163233
 21
122.99197723379
  0
CIRCLE
  5
327
100
AcDbEntity
  8
0-0
100
AcDbCircle
  6
BYLAYER
370
13
 10
445.029640663233
 20
87.2419778166025
 40
2.25
  0
CIRCLE
  5
328
100
AcDbEntity
  8
0-0
100
AcDbCircle
  6
BYLAYER
370
13
 10
445.029640663233
 20
87.2419778166025
 40
1.99
  0
LINE
  5
329
100
AcDbEntity
  8
0-0
100
AcDbLine
  6
BYLAYER
370
13
 10
445.029640663233
 20
86.0872772782232
 11
444.029640663233
 21
86.6646275474129
  0
LINE
  5
32A
100
AcDbEntity
  8
0-0
100
AcDbLine
  6
BYLAYER
370
13
 10
444.029640663233
 20
86.6646275474129
 11
444.029640663233
 21
87.8193280857921
  0
LINE
  5
32B
100
AcDbEntity
  8
0-0
100
AcDbLine
  6
BYLAYER
370
13
 10
444.029640663233
 20
87.8193280857921
 11
445.029640663233
 21
88.3966783549817
  0
LINE
  5
32C
100
AcDbEntity
  8
0-0
100
AcDbLine
  6
BYLAYER
370
13
 10
445.029640663233
 20
88.3966783549817
 11
446.029640663233
 21
87.8193280857921
  0
LINE
  5
32D
100
AcDbEntity
  8
0-0
100
AcDbLine
  6
BYLAYER
370
13
 10
446.029640663233
 20
87.8193280857921
 11
446.029640663233
 21
86.6646275474129
  0
LINE
  5
32E
100
AcDbEntity
  8
0-0
100
AcDbLine
  6
BYLAYER
370
13
 10
446.029640663233
 20
86.6646275474129
 11
445.029640663233
 21
86.0872772782232
  0
CIRCLE
  5
32F
100
AcDbEntity
  8
0-0
100
AcDbCircle
  6
BYLAYER
370
13
 10
445.029640663233
 20
123.241977816602
 40
2.25
  0
CIRCLE
  5
330
100
AcDbEntity
  8
0-0
100
AcDbCircle
  6
BYLAYER
370
13
 10
445.029640663233
 20
123.241977816602
 40
1.99
  0
LINE
  5
331
100
AcDbEntity
  8
0-0
100
AcDbLine
  6
BYLAYER
370
13
 10
445.029640663233
 20
122.087277278223
 11
444.029640663233
 21
122.664627547413
  0
LINE
  5
332
100
AcDbEntity
  8
0-0
100
AcDbLine
  6
BYLAYER
370
13
 10
444.029640663233
 20
122.664627547413
 11
444.029640663233
 21
123.819328085792
  0
LINE
  5
333
100
AcDbEntity
  8
0-0
100
AcDbLine
  6
BYLAYER
370
13
 10
444.029640663233
 20
123.819328085792
 11
445.029640663233
 21
124.396678354982
  0
LINE
  5
334
100
AcDbEntity
  8
0-0
100
AcDbLine
  6
BYLAYER
370
13
 10
445.029640663233
 20
124.396678354982
 11
446.029640663233
 21
123.819328085792
  0
LINE
  5
335
100
AcDbEntity
  8
0-0
100
AcDbLine
  6
BYLAYER
370
13
 10
446.029640663233
 20
123.819328085792
 11
446.029640663233
 21
122.664627547413
  0
LINE
  5
336
100
AcDbEntity
  8
0-0
100
AcDbLine
  6
BYLAYER
370
13
 10
446.029640663233
 20
122.664627547413
 11
445.029640663233
 21
122.087277278223
  0
CIRCLE
  5
337
100
AcDbEntity
  8
0-0
100
AcDbCircle
  6
CONTINUOUS
370
40
 10
423.029640663233
 20
115.741977816602
 40
1.65
  0
CIRCLE
  5
338
100
AcDbEntity
  8
0-0
100
AcDbCircle
  6
CONTINUOUS
370
40
 10
423.029640663233
 20
85.7419778166025
 40
1.65
  0
CIRCLE
  5
339
100
AcDbEntity
  8
0-0
100
AcDbCircle
  6
CONTINUOUS
370
20
 10
423.029640663233
 20
85.7419778166025
 40
2
  0
CIRCLE
  5
33A
100
AcDbEntity
  8
0-0
100
AcDbCircle
  6
CONTINUOUS
370
20
 10
423.029640663233
 20
115.741977816602
 40
2
  0
LINE
  5
33B
100
AcDbEntity
  8
0-0
100
AcDbLine
  6
CONTINUOUS
370
13
 10
212.029640663233
 20
368.922152225475
 11
212.029640663233
 21
310.922152225476
  0
LINE
  5
33C
100
AcDbEntity
  8
0-0
100
AcDbLine
  6
CONTINUOUS
370
13
 10
213.029640663233
 20
309.922152225476
 11
223.029640663233
 21
309.922152225476
  0
LINE
  5
33D
100
AcDbEntity
  8
0-0
100
AcDbLine
  6
CONTINUOUS
370
13
 10
223.029640663233
 20
309.922152225476
 11
224.029640663233
 21
310.922152225476
  0
LINE
  5
33E
100
AcDbEntity
  8
0-0
100
AcDbLine
  6
CONTINUOUS
370
13
 10
212.029640663233
 20
310.922152225476
 11
213.029640663233
 21
309.922152225476
  0
LINE
  5
33F
100
AcDbEntity
  8
0-0
100
AcDbLine
  6
CONTINUOUS
370
13
 10
223.029640663233
 20
369.922152225475
 11
213.029640663233
 21
369.922152225475
  0
LINE
  5
340
100
AcDbEntity
  8
0-0
100
AcDbLine
  6
CONTINUOUS
370
13
 10
224.029640663233
 20
368.922152225475
 11
223.029640663233
 21
369.922152225475
  0
LINE
  5
341
100
AcDbEntity
  8
0-0
100
AcDbLine
  6
CONTINUOUS
370
13
 10
213.029640663233
 20
369.922152225475
 11
212.029640663233
 21
368.922152225475
  0
LINE
  5
342
100
AcDbEntity
  8
0-0
100
AcDbLine
  6
CONTINUOUS
370
13
 10
224.029640663233
 20
276.090531663071
 11
224.029640663233
 21
271.586209003139
  0
LINE
  5
343
100
AcDbEntity
  8
0-0
100
AcDbLine
  6
CONTINUOUS
370
13
 10
212.029640663233
 20
276.090531663071
 11
212.029640663233
 21
271.586209003139
  0
LINE
  5
344
100
AcDbEntity
  8
0-0
100
AcDbLine
  6
CONTINUOUS
370
13
 10
212.029640663233
 20
271.586176231906
 11
224.029640663233
 21
271.586176231906
  0
LINE
  5
345
100
AcDbEntity
  8
0-0
100
AcDbLine
  6
CONTINUOUS
370
13
 10
212.029640663233
 20
272.586176231906
 11
224.029640663233
 21
272.586176231906
  0
LINE
  5
346
100
AcDbEntity
  8
0-0
100
AcDbLine
  6
CONTINUOUS
370
13
 10
213.029640663233
 20
272.586176231906
 11
213.029640663233
 21
271.586176231906
  0
LINE
  5
347
100
AcDbEntity
  8
0-0
100
AcDbLine
  6
CONTINUOUS
370
13
 10
223.029640663233
 20
272.586176231906
 11
223.029640663233
 21
271.586176231906
  0
LINE
  5
348
100
AcDbEntity
  8
0-0
100
AcDbLine
  6
CONTINUOUS
370
13
 10
51.4199907692041
 20
272.586176231906
 11
35.4199907692041
 21
272.586176231906
  0
LINE
  5
349
100
AcDbEntity
  8
0-0
100
AcDbLine
  6
CONTINUOUS
370
13
 10
51.2928242216886
 20
271.586176231906
 11
35.4199907692041
 21
271.586176231906
  0
LINE
  5
34A
100
AcDbEntity
  8
0-0
100
AcDbLine
  6
CONTINUOUS
370
13
 10
36.4199907692041
 20
271.586176231906
 11
36.4199907692041
 21
272.586176231906
  0
LINE
  5
34B
100
AcDbEntity
  8
0-0
100
AcDbLine
  6
CONTINUOUS
370
13
 10
35.4199907692041
 20
271.586176231906
 11
35.4199907692041
 21
272.586176231906
  0
LINE
  5
34C
100
AcDbEntity
  8
0-0
100
AcDbLine
  6
HIDDEN
370
13
 10
39.9199907692038
 20
271.586176231906
 11
39.9199907692038
 21
272.586176231906
  0
LINE
  5
34D
100
AcDbEntity
  8
0-0
100
AcDbLine
  6
HIDDEN
370
13
 10
44.9199907692041
 20
271.586176231906
 11
44.9199907692041
 21
272.586176231906
  0
LINE
  5
34E
100
AcDbEntity
  8
0-0
100
AcDbLine
  6
CONTINUOUS
370
13
 10
79.4199907692044
 20
272.586176231906
 11
95.419990769204
 21
272.586176231906
  0
LINE
  5
34F
100
AcDbEntity
  8
0-0
100
AcDbLine
  6
CONTINUOUS
370
13
 10
79.5471573167194
 20
271.586176231906
 11
95.419990769204
 21
271.586176231906
  0
LINE
  5
350
100
AcDbEntity
  8
0-0
100
AcDbLine
  6
CONTINUOUS
370
13
 10
94.4199907692034
 20
271.586176231906
 11
94.4199907692034
 21
272.586176231906
  0
LINE
  5
351
100
AcDbEntity
  8
0-0
100
AcDbLine
  6
CONTINUOUS
370
13
 10
95.4199907692043
 20
271.586176231906
 11
95.4199907692043
 21
272.586176231906
  0
LINE
  5
352
100
AcDbEntity
  8
0-0
100
AcDbLine
  6
BYLAYER
370
13
 10
41.8494907692125
 20
280.621751752338
 11
44.9904907692126
 21
280.621751752338
  0
LINE
  5
353
100
AcDbEntity
  8
0-0
100
AcDbLine
  6
BYLAYER
370
13
 10
44.9904907692126
 20
280.621751752338
 11
45.4199907692126
 21
280.192251752338
  0
LINE
  5
354
100
AcDbEntity
  8
0-0
100
AcDbLine
  6
BYLAYER
370
13
 10
41.4199907692126
 20
280.192251752338
 11
41.8494907692125
 21
280.621751752338
  0
LINE
  5
355
100
AcDbEntity
  8
0-0
100
AcDbLine
  6
BYLAYER
370
13
 10
41.4199907692126
 20
280.192251752338
 11
45.4199907692126
 21
280.192251752338
  0
LINE
  5
356
100
AcDbEntity
  8
0-0
100
AcDbLine
  6
BYLAYER
370
13
 10
45.4199907692126
 20
259.921751752338
 11
44.9904907692126
 21
260.621751752338
  0
LINE
  5
357
100
AcDbEntity
  8
0-0
100
AcDbLine
  6
BYLAYER
370
13
 10
45.4199907692126
 20
260.621751752338
 11
41.4199907692126
 21
260.621751752338
  0
LINE
  5
358
100
AcDbEntity
  8
0-0
100
AcDbLine
  6
BYLAYER
370
13
 10
41.4199907692126
 20
259.921751752338
 11
41.8494907692125
 21
260.621751752338
  0
LINE
  5
359
100
AcDbEntity
  8
0-0
100
AcDbLine
  6
BYLAYER
370
13
 10
85.8494907692125
 20
280.621751752338
 11
88.9904907692126
 21
280.621751752338
  0
LINE
  5
35A
100
AcDbEntity
  8
0-0
100
AcDbLine
  6
BYLAYER
370
13
 10
88.9904907692126
 20
280.621751752338
 11
89.4199907692126
 21
280.192251752338
  0
LINE
  5
35B
100
AcDbEntity
  8
0-0
100
AcDbLine
  6
BYLAYER
370
13
 10
85.4199907692126
 20
280.192251752338
 11
85.8494907692125
 21
280.621751752338
  0
LINE
  5
35C
100
AcDbEntity
  8
0-0
100
AcDbLine
  6
BYLAYER
370
13
 10
85.4199907692126
 20
280.192251752338
 11
89.4199907692126
 21
280.192251752338
  0
LINE
  5
35D
100
AcDbEntity
  8
0-0
100
AcDbLine
  6
BYLAYER
370
13
 10
89.4199907692126
 20
259.921751752338
 11
88.9904907692126
 21
260.621751752338
  0
LINE
  5
35E
100
AcDbEntity
  8
0-0
100
AcDbLine
  6
BYLAYER
370
13
 10
89.4199907692126
 20
260.621751752338
 11
85.4199907692126
 21
260.621751752338
  0
LINE
  5
35F
100
AcDbEntity
  8
0-0
100
AcDbLine
  6
BYLAYER
370
13
 10
85.4199907692126
 20
259.921751752338
 11
85.8494907692125
 21
260.621751752338
  0
ARC
  5
360
100
AcDbEntity
  8
0-0
100
AcDbCircle
  6
BYLAYER
370
13
 10
219.779640663233
 20
234.709351663685
 40
5.05466508865356
100
AcDbArc
 50
69.7444458007848
 51
110.255554199215
  0
LINE
  5
361
100
AcDbEntity
  8
0-0
100
AcDbLine
  6
BYLAYER
370
13
 10
221.529640663233
 20
236.621751752338
 11
214.529640663233
 21
236.621751752338
  0
LINE
  5
362
100
AcDbEntity
  8
0-0
100
AcDbLine
  6
BYLAYER
370
13
 10
221.429640663232
 20
239.821751752338
 11
214.629640663232
 21
239.821751752338
  0
LINE
  5
363
100
AcDbEntity
  8
0-0
100
AcDbLine
  6
BYLAYER
370
13
 10
218.029640663233
 20
236.621751752338
 11
218.029640663233
 21
239.451410594838
  0
CIRCLE
  5
364
100
AcDbEntity
  8
0-0
100
AcDbCircle
  6
BYLAYER
370
13
 10
218.029640663233
 20
361.922152225475
 40
1.62099999999998
  0
CIRCLE
  5
365
100
AcDbEntity
  8
0-0
100
AcDbCircle
  6
BYLAYER
370
13
 10
218.029640663233
 20
361.922152225475
 40
2
  0
LINE
  5
366
100
AcDbEntity
  8
0-0
100
AcDbLine
  6
BYLAYER
370
13
 10
214.529640663233
 20
236.621751752338
 11
214.529640663233
 21
239.764016752338
  0
LINE
  5
367
100
AcDbEntity
  8
0-0
100
AcDbLine
  6
BYLAYER
370
13
 10
214.529640663233
 20
239.764016752338
 11
214.629640663232
 21
239.821751752338
  0
ARC
  5
368
100
AcDbEntity
  8
0-0
100
AcDbCircle
  6
BYLAYER
370
13
 10
216.279640663233
 20
234.709351663685
 40
5.05466508865356
100
AcDbArc
 50
69.7444458007848
 51
110.255554199215
  0
LINE
  5
369
100
AcDbEntity
  8
0-0
100
AcDbLine
  6
BYLAYER
370
13
 10
221.529640663233
 20
236.621751752338
 11
221.529640663233
 21
239.764016752338
  0
LINE
  5
36A
100
AcDbEntity
  8
0-0
100
AcDbLine
  6
BYLAYER
370
13
 10
221.529640663233
 20
239.764016752338
 11
221.429640663232
 21
239.821751752338
  0
LINE
  5
36B
100
AcDbEntity
  8
0-0
100
AcDbLine
  6
BYLAYER
370
13
 10
216.459140663233
 20
280.621751752338
 11
216.029640663233
 21
280.192251752338
  0
LINE
  5
36C
100
AcDbEntity
  8
0-0
100
AcDbLine
  6
BYLAYER
370
13
 10
220.029640663233
 20
280.192251752338
 11
219.600140663233
 21
280.621751752338
  0
LINE
  5
36D
100
AcDbEntity
  8
0-0
100
AcDbLine
  6
BYLAYER
370
13
 10
219.600140663233
 20
280.621751752338
 11
216.459140663233
 21
280.621751752338
  0
LINE
  5
36E
100
AcDbEntity
  8
0-0
100
AcDbLine
  6
BYLAYER
370
13
 10
220.029640663233
 20
280.192251752338
 11
216.029640663233
 21
280.192251752338
  0
LINE
  5
36F
100
AcDbEntity
  8
0-0
100
AcDbLine
  6
BYLAYER
370
13
 10
220.029640663233
 20
259.921751752338
 11
219.600140663233
 21
260.621751752338
  0
LINE
  5
370
100
AcDbEntity
  8
0-0
100
AcDbLine
  6
BYLAYER
370
13
 10
220.029640663233
 20
260.621751752338
 11
216.029640663233
 21
260.621751752338
  0
LINE
  5
371
100
AcDbEntity
  8
0-0
100
AcDbLine
  6
BYLAYER
370
13
 10
219.600140663233
 20
239.819235306854
 11
219.600140663233
 21
243.621751752338
  0
LINE
  5
372
100
AcDbEntity
  8
0-0
100
AcDbLine
  6
BYLAYER
370
13
 10
220.029640663233
 20
244.321751752338
 11
219.600140663233
 21
243.621751752338
  0
LINE
  5
373
100
AcDbEntity
  8
0-0
100
AcDbLine
  6
BYLAYER
370
13
 10
220.029640663233
 20
243.621751752338
 11
216.029640663233
 21
243.621751752338
  0
LINE
  5
374
100
AcDbEntity
  8
0-0
100
AcDbLine
  6
BYLAYER
370
13
 10
216.029640663233
 20
259.921751752338
 11
216.459140663233
 21
260.621751752338
  0
LINE
  5
375
100
AcDbEntity
  8
0-0
100
AcDbLine
  6
BYLAYER
370
13
 10
216.459140663233
 20
239.821751752338
 11
216.459140663233
 21
243.621751752338
  0
LINE
  5
376
100
AcDbEntity
  8
0-0
100
AcDbLine
  6
BYLAYER
370
13
 10
216.029640663233
 20
244.321751752338
 11
216.459140663233
 21
243.621751752338
  0
CIRCLE
  5
377
100
AcDbEntity
  8
0-0
100
AcDbCircle
  6
BYLAYER
370
13
 10
218.029640663233
 20
317.922152225475
 40
1.62099999999998
  0
CIRCLE
  5
378
100
AcDbEntity
  8
0-0
100
AcDbCircle
  6
BYLAYER
370
13
 10
218.029640663233
 20
317.922152225475
 40
2
  0
LINE
  5
379
100
AcDbEntity
  8
0-0
100
AcDbLine
  6
CONTINUOUS
 62
7
370
30
 10
38.9199907692126
 20
279.586176231906
 11
38.4199907692126
 21
279.086176231906
  0
LINE
  5
37A
100
AcDbEntity
  8
0-0
100
AcDbLine
  6
CONTINUOUS
 62
7
370
30
 10
38.4199907692126
 20
279.086176231906
 11
38.4199907692126
 21
274.086176231906
  0
LINE
  5
37B
100
AcDbEntity
  8
0-0
100
AcDbLine
  6
CONTINUOUS
 62
7
370
30
 10
38.9199907692126
 20
274.086176231906
 11
38.9199907692126
 21
272.586176231906
  0
LINE
  5
37C
100
AcDbEntity
  8
0-0
100
AcDbLine
  6
CONTINUOUS
 62
7
370
30
 10
47.9199907692126
 20
279.586176231906
 11
48.4199907692126
 21
279.086176231906
  0
LINE
  5
37D
100
AcDbEntity
  8
0-0
100
AcDbLine
  6
CONTINUOUS
 62
7
370
30
 10
38.9199907692126
 20
279.586176231906
 11
43.4199907692126
 21
279.586176231906
  0
LINE
  5
37E
100
AcDbEntity
  8
0-0
100
AcDbLine
  6
CONTINUOUS
 62
7
370
30
 10
48.4199907692126
 20
279.086176231906
 11
38.4199907692126
 21
279.086176231906
  0
LINE
  5
37F
100
AcDbEntity
  8
0-0
100
AcDbLine
  6
CONTINUOUS
 62
7
370
30
 10
48.4199907692126
 20
279.086176231906
 11
48.4199907692126
 21
274.086176231906
  0
LINE
  5
380
100
AcDbEntity
  8
0-0
100
AcDbLine
  6
CONTINUOUS
 62
7
370
30
 10
38.4199907692126
 20
274.086176231906
 11
47.9199907692126
 21
274.086176231906
  0
LINE
  5
381
100
AcDbEntity
  8
0-0
100
AcDbLine
  6
CONTINUOUS
 62
7
370
30
 10
47.9199907692126
 20
274.086176231906
 11
47.9199907692126
 21
272.586176231906
  0
LINE
  5
382
100
AcDbEntity
  8
0-0
100
AcDbLine
  6
CONTINUOUS
 62
7
370
30
 10
38.9199907692126
 20
272.586176231906
 11
43.4199907692127
 21
272.586176231906
  0
LINE
  5
383
100
AcDbEntity
  8
0-0
100
AcDbLine
  6
CONTINUOUS
 62
7
370
30
 10
43.4199907692126
 20
279.586176231906
 11
45.4199907692126
 21
279.586176231906
  0
LINE
  5
384
100
AcDbEntity
  8
0-0
100
AcDbLine
  6
CONTINUOUS
 62
7
370
30
 10
45.4199907692126
 20
272.586176231906
 11
43.4199907692127
 21
272.586176231906
  0
LINE
  5
385
100
AcDbEntity
  8
0-0
100
AcDbLine
  6
CONTINUOUS
 62
7
370
30
 10
47.9199907692126
 20
272.586176231906
 11
45.4199907692126
 21
272.586176231906
  0
LINE
  5
386
100
AcDbEntity
  8
0-0
100
AcDbLine
  6
CONTINUOUS
 62
7
370
30
 10
45.4199907692126
 20
279.586176231906
 11
47.9199907692126
 21
279.586176231906
  0
LINE
  5
387
100
AcDbEntity
  8
0-0
100
AcDbLine
  6
CONTINUOUS
 62
7
370
30
 10
48.4199907692126
 20
274.086176231906
 11
47.9199907692126
 21
274.086176231906
  0
LINE
  5
388
100
AcDbEntity
  8
0-0
100
AcDbLine
  6
CONTINUOUS
 62
7
370
30
 10
45.412090454443
 20
279.586176231906
 11
43.4199907692126
 21
279.586176231906
  0
LINE
  5
389
100
AcDbEntity
  8
0-0
100
AcDbLine
  6
BYLAYER
370
13
 10
43.0042104865948
 20
279.086176231906
 11
43.0042104865948
 21
274.086176231906
  0
LINE
  5
38A
100
AcDbEntity
  8
0-0
100
AcDbLine
  6
BYLAYER
370
13
 10
42.6042104865948
 20
279.086176231906
 11
42.6042104865948
 21
274.086176231906
  0
LINE
  5
38B
100
AcDbEntity
  8
0-0
100
AcDbLine
  6
BYLAYER
370
13
 10
42.2042104865948
 20
279.086176231906
 11
42.2042104865948
 21
274.086176231906
  0
LINE
  5
38C
100
AcDbEntity
  8
0-0
100
AcDbLine
  6
BYLAYER
370
13
 10
41.8042104865948
 20
279.086176231906
 11
41.8042104865948
 21
274.086176231906
  0
LINE
  5
38D
100
AcDbEntity
  8
0-0
100
AcDbLine
  6
BYLAYER
370
13
 10
41.4042104865948
 20
279.086176231906
 11
41.4042104865948
 21
274.086176231906
  0
LINE
  5
38E
100
AcDbEntity
  8
0-0
100
AcDbLine
  6
BYLAYER
370
13
 10
41.0042104865948
 20
279.086176231906
 11
41.0042104865948
 21
274.086176231906
  0
LINE
  5
38F
100
AcDbEntity
  8
0-0
100
AcDbLine
  6
BYLAYER
370
13
 10
40.6042104865948
 20
279.086176231906
 11
40.6042104865948
 21
274.086176231906
  0
LINE
  5
390
100
AcDbEntity
  8
0-0
100
AcDbLine
  6
BYLAYER
370
13
 10
40.2042104865948
 20
279.086176231906
 11
40.2042104865948
 21
274.086176231906
  0
LINE
  5
391
100
AcDbEntity
  8
0-0
100
AcDbLine
  6
BYLAYER
370
13
 10
39.8042104865948
 20
279.086176231906
 11
39.8042104865948
 21
274.086176231906
  0
LINE
  5
392
100
AcDbEntity
  8
0-0
100
AcDbLine
  6
BYLAYER
370
13
 10
39.4042104865948
 20
279.086176231906
 11
39.4042104865948
 21
274.086176231906
  0
LINE
  5
393
100
AcDbEntity
  8
0-0
100
AcDbLine
  6
BYLAYER
370
13
 10
39.0042104865948
 20
279.086176231906
 11
39.0042104865948
 21
274.086176231906
  0
CIRCLE
  5
394
100
AcDbEntity
  8
0-0
100
AcDbCircle
  6
CONTINUOUS
 62
7
370
30
 10
218.029640663233
 20
361.922152225475
 40
4.5
  0
CIRCLE
  5
395
100
AcDbEntity
  8
0-0
100
AcDbCircle
  6
CONTINUOUS
 62
7
370
30
 10
218.029640663233
 20
361.922152225475
 40
2.00000000000002
  0
CIRCLE
  5
396
100
AcDbEntity
  8
0-0
100
AcDbCircle
  6
CONTINUOUS
 62
7
370
30
 10
218.029640663233
 20
361.922152225475
 40
1.65
  0
CIRCLE
  5
397
100
AcDbEntity
  8
0-0
100
AcDbCircle
  6
CONTINUOUS
 62
7
370
30
 10
218.029640663233
 20
361.922152225475
 40
5
  0
CIRCLE
  5
398
100
AcDbEntity
  8
0-0
100
AcDbCircle
  6
CONTINUOUS
 62
7
370
30
 10
218.029640663233
 20
317.922152225475
 40
4.5
  0
CIRCLE
  5
399
100
AcDbEntity
  8
0-0
100
AcDbCircle
  6
CONTINUOUS
 62
7
370
30
 10
218.029640663233
 20
317.922152225475
 40
2.00000000000002
  0
CIRCLE
  5
39A
100
AcDbEntity
  8
0-0
100
AcDbCircle
  6
CONTINUOUS
 62
7
370
30
 10
218.029640663233
 20
317.922152225475
 40
1.65
  0
CIRCLE
  5
39B
100
AcDbEntity
  8
0-0
100
AcDbCircle
  6
CONTINUOUS
 62
7
370
30
 10
218.029640663233
 20
317.922152225475
 40
5
  0
LINE
  5
39C
100
AcDbEntity
  8
0-0
100
AcDbLine
  6
CONTINUOUS
 62
7
370
30
 10
82.9199907692126
 20
279.586176231906
 11
82.4199907692126
 21
279.086176231906
  0
LINE
  5
39D
100
AcDbEntity
  8
0-0
100
AcDbLine
  6
CONTINUOUS
 62
7
370
30
 10
82.4199907692126
 20
279.086176231906
 11
82.4199907692126
 21
274.086176231906
  0
LINE
  5
39E
100
AcDbEntity
  8
0-0
100
AcDbLine
  6
CONTINUOUS
 62
7
370
30
 10
82.9199907692126
 20
274.086176231906
 11
82.9199907692126
 21
272.586176231906
  0
LINE
  5
39F
100
AcDbEntity
  8
0-0
100
AcDbLine
  6
CONTINUOUS
 62
7
370
30
 10
91.9199907692126
 20
279.586176231906
 11
92.4199907692126
 21
279.086176231906
  0
LINE
  5
3A0
100
AcDbEntity
  8
0-0
100
AcDbLine
  6
CONTINUOUS
 62
7
370
30
 10
82.9199907692126
 20
279.586176231906
 11
87.4199907692126
 21
279.586176231906
  0
LINE
  5
3A1
100
AcDbEntity
  8
0-0
100
AcDbLine
  6
CONTINUOUS
 62
7
370
30
 10
92.4199907692126
 20
279.086176231906
 11
82.4199907692126
 21
279.086176231906
  0
LINE
  5
3A2
100
AcDbEntity
  8
0-0
100
AcDbLine
  6
CONTINUOUS
 62
7
370
30
 10
92.4199907692126
 20
279.086176231906
 11
92.4199907692126
 21
274.086176231906
  0
LINE
  5
3A3
100
AcDbEntity
  8
0-0
100
AcDbLine
  6
CONTINUOUS
 62
7
370
30
 10
82.4199907692126
 20
274.086176231906
 11
91.9199907692126
 21
274.086176231906
  0
LINE
  5
3A4
100
AcDbEntity
  8
0-0
100
AcDbLine
  6
CONTINUOUS
 62
7
370
30
 10
91.9199907692126
 20
274.086176231906
 11
91.9199907692126
 21
272.586176231906
  0
LINE
  5
3A5
100
AcDbEntity
  8
0-0
100
AcDbLine
  6
CONTINUOUS
 62
7
370
30
 10
82.9199907692126
 20
272.586176231906
 11
87.4199907692127
 21
272.586176231906
  0
LINE
  5
3A6
100
AcDbEntity
  8
0-0
100
AcDbLine
  6
CONTINUOUS
 62
7
370
30
 10
87.4199907692126
 20
279.586176231906
 11
89.4199907692126
 21
279.586176231906
  0
LINE
  5
3A7
100
AcDbEntity
  8
0-0
100
AcDbLine
  6
CONTINUOUS
 62
7
370
30
 10
89.4199907692126
 20
272.586176231906
 11
87.4199907692127
 21
272.586176231906
  0
LINE
  5
3A8
100
AcDbEntity
  8
0-0
100
AcDbLine
  6
CONTINUOUS
 62
7
370
30
 10
91.9199907692126
 20
272.586176231906
 11
89.4199907692126
 21
272.586176231906
  0
LINE
  5
3A9
100
AcDbEntity
  8
0-0
100
AcDbLine
  6
CONTINUOUS
 62
7
370
30
 10
89.4199907692126
 20
279.586176231906
 11
91.9199907692126
 21
279.586176231906
  0
LINE
  5
3AA
100
AcDbEntity
  8
0-0
100
AcDbLine
  6
CONTINUOUS
 62
7
370
30
 10
92.4199907692126
 20
274.086176231906
 11
91.9199907692126
 21
274.086176231906
  0
LINE
  5
3AB
100
AcDbEntity
  8
0-0
100
AcDbLine
  6
CONTINUOUS
 62
7
370
30
 10
89.412090454443
 20
279.586176231906
 11
87.4199907692126
 21
279.586176231906
  0
LINE
  5
3AC
100
AcDbEntity
  8
0-0
100
AcDbLine
  6
BYLAYER
370
13
 10
87.0042104865948
 20
279.086176231906
 11
87.0042104865948
 21
274.086176231906
  0
LINE
  5
3AD
100
AcDbEntity
  8
0-0
100
AcDbLine
  6
BYLAYER
370
13
 10
86.6042104865948
 20
279.086176231906
 11
86.6042104865948
 21
274.086176231906
  0
LINE
  5
3AE
100
AcDbEntity
  8
0-0
100
AcDbLine
  6
BYLAYER
370
13
 10
86.2042104865948
 20
279.086176231906
 11
86.2042104865948
 21
274.086176231906
  0
LINE
  5
3AF
100
AcDbEntity
  8
0-0
100
AcDbLine
  6
BYLAYER
370
13
 10
85.8042104865947
 20
279.086176231906
 11
85.8042104865947
 21
274.086176231906
  0
LINE
  5
3B0
100
AcDbEntity
  8
0-0
100
AcDbLine
  6
BYLAYER
370
13
 10
85.4042104865948
 20
279.086176231906
 11
85.4042104865948
 21
274.086176231906
  0
LINE
  5
3B1
100
AcDbEntity
  8
0-0
100
AcDbLine
  6
BYLAYER
370
13
 10
85.0042104865948
 20
279.086176231906
 11
85.0042104865948
 21
274.086176231906
  0
LINE
  5
3B2
100
AcDbEntity
  8
0-0
100
AcDbLine
  6
BYLAYER
370
13
 10
84.6042104865948
 20
279.086176231906
 11
84.6042104865948
 21
274.086176231906
  0
LINE
  5
3B3
100
AcDbEntity
  8
0-0
100
AcDbLine
  6
BYLAYER
370
13
 10
84.2042104865948
 20
279.086176231906
 11
84.2042104865948
 21
274.086176231906
  0
LINE
  5
3B4
100
AcDbEntity
  8
0-0
100
AcDbLine
  6
BYLAYER
370
13
 10
83.8042104865947
 20
279.086176231906
 11
83.8042104865947
 21
274.086176231906
  0
LINE
  5
3B5
100
AcDbEntity
  8
0-0
100
AcDbLine
  6
BYLAYER
370
13
 10
83.4042104865948
 20
279.086176231906
 11
83.4042104865948
 21
274.086176231906
  0
LINE
  5
3B6
100
AcDbEntity
  8
0-0
100
AcDbLine
  6
BYLAYER
370
13
 10
83.0042104865948
 20
279.086176231906
 11
83.0042104865948
 21
274.086176231906
  0
LINE
  5
3B7
100
AcDbEntity
  8
0-0
100
AcDbLine
  6
CONTINUOUS
 62
7
370
30
 10
213.529640663233
 20
279.586176231906
 11
213.029640663233
 21
279.086176231906
  0
LINE
  5
3B8
100
AcDbEntity
  8
0-0
100
AcDbLine
  6
CONTINUOUS
 62
7
370
30
 10
213.029640663233
 20
279.086176231906
 11
213.029640663233
 21
274.086176231906
  0
LINE
  5
3B9
100
AcDbEntity
  8
0-0
100
AcDbLine
  6
CONTINUOUS
 62
7
370
30
 10
213.529640663233
 20
274.086176231906
 11
213.529640663233
 21
272.586176231906
  0
LINE
  5
3BA
100
AcDbEntity
  8
0-0
100
AcDbLine
  6
CONTINUOUS
 62
7
370
30
 10
222.529640663233
 20
279.586176231906
 11
223.029640663233
 21
279.086176231906
  0
LINE
  5
3BB
100
AcDbEntity
  8
0-0
100
AcDbLine
  6
CONTINUOUS
 62
7
370
30
 10
213.529640663233
 20
279.586176231906
 11
218.029640663233
 21
279.586176231906
  0
LINE
  5
3BC
100
AcDbEntity
  8
0-0
100
AcDbLine
  6
CONTINUOUS
 62
7
370
30
 10
223.029640663233
 20
279.086176231906
 11
213.029640663233
 21
279.086176231906
  0
LINE
  5
3BD
100
AcDbEntity
  8
0-0
100
AcDbLine
  6
CONTINUOUS
 62
7
370
30
 10
223.029640663233
 20
279.086176231906
 11
223.029640663233
 21
274.086176231906
  0
LINE
  5
3BE
100
AcDbEntity
  8
0-0
100
AcDbLine
  6
CONTINUOUS
 62
7
370
30
 10
213.029640663233
 20
274.086176231906
 11
222.529640663233
 21
274.086176231906
  0
LINE
  5
3BF
100
AcDbEntity
  8
0-0
100
AcDbLine
  6
CONTINUOUS
 62
7
370
30
 10
222.529640663233
 20
274.086176231906
 11
222.529640663233
 21
272.586176231906
  0
LINE
  5
3C0
100
AcDbEntity
  8
0-0
100
AcDbLine
  6
CONTINUOUS
 62
7
370
30
 10
213.529640663233
 20
272.586176231906
 11
218.029640663233
 21
272.586176231906
  0
LINE
  5
3C1
100
AcDbEntity
  8
0-0
100
AcDbLine
  6
CONTINUOUS
 62
7
370
30
 10
218.029640663233
 20
279.586176231906
 11
220.029640663233
 21
279.586176231906
  0
LINE
  5
3C2
100
AcDbEntity
  8
0-0
100
AcDbLine
  6
CONTINUOUS
 62
7
370
30
 10
220.029640663233
 20
272.586176231906
 11
218.029640663233
 21
272.586176231906
  0
LINE
  5
3C3
100
AcDbEntity
  8
0-0
100
AcDbLine
  6
CONTINUOUS
 62
7
370
30
 10
222.529640663233
 20
272.586176231906
 11
220.029640663233
 21
272.586176231906
  0
LINE
  5
3C4
100
AcDbEntity
  8
0-0
100
AcDbLine
  6
CONTINUOUS
 62
7
370
30
 10
220.029640663233
 20
279.586176231906
 11
222.529640663233
 21
279.586176231906
  0
LINE
  5
3C5
100
AcDbEntity
  8
0-0
100
AcDbLine
  6
CONTINUOUS
 62
7
370
30
 10
223.029640663233
 20
274.086176231906
 11
222.529640663233
 21
274.086176231906
  0
LINE
  5
3C6
100
AcDbEntity
  8
0-0
100
AcDbLine
  6
CONTINUOUS
 62
7
370
30
 10
220.029640663233
 20
279.586176231906
 11
220.021740348463
 21
279.586176231906
  0
LINE
  5
3C7
100
AcDbEntity
  8
0-0
100
AcDbLine
  6
CONTINUOUS
 62
7
370
30
 10
220.021740348463
 20
279.586176231906
 11
218.029640663233
 21
279.586176231906
  0
LINE
  5
3C8
100
AcDbEntity
  8
0-0
100
AcDbLine
  6
BYLAYER
370
13
 10
217.613860380615
 20
279.086176231906
 11
217.613860380615
 21
274.086176231906
  0
LINE
  5
3C9
100
AcDbEntity
  8
0-0
100
AcDbLine
  6
BYLAYER
370
13
 10
217.213860380615
 20
279.086176231906
 11
217.213860380615
 21
274.086176231906
  0
LINE
  5
3CA
100
AcDbEntity
  8
0-0
100
AcDbLine
  6
BYLAYER
370
13
 10
216.813860380615
 20
279.086176231906
 11
216.813860380615
 21
274.086176231906
  0
LINE
  5
3CB
100
AcDbEntity
  8
0-0
100
AcDbLine
  6
BYLAYER
370
13
 10
216.413860380615
 20
279.086176231906
 11
216.413860380615
 21
274.086176231906
  0
LINE
  5
3CC
100
AcDbEntity
  8
0-0
100
AcDbLine
  6
BYLAYER
370
13
 10
216.013860380615
 20
279.086176231906
 11
216.013860380615
 21
274.086176231906
  0
LINE
  5
3CD
100
AcDbEntity
  8
0-0
100
AcDbLine
  6
BYLAYER
370
13
 10
215.613860380615
 20
279.086176231906
 11
215.613860380615
 21
274.086176231906
  0
LINE
  5
3CE
100
AcDbEntity
  8
0-0
100
AcDbLine
  6
BYLAYER
370
13
 10
215.213860380615
 20
279.086176231906
 11
215.213860380615
 21
274.086176231906
  0
LINE
  5
3CF
100
AcDbEntity
  8
0-0
100
AcDbLine
  6
BYLAYER
370
13
 10
214.813860380615
 20
279.086176231906
 11
214.813860380615
 21
274.086176231906
  0
LINE
  5
3D0
100
AcDbEntity
  8
0-0
100
AcDbLine
  6
BYLAYER
370
13
 10
214.413860380615
 20
279.086176231906
 11
214.413860380615
 21
274.086176231906
  0
LINE
  5
3D1
100
AcDbEntity
  8
0-0
100
AcDbLine
  6
BYLAYER
370
13
 10
214.013860380615
 20
279.086176231906
 11
214.013860380615
 21
274.086176231906
  0
LINE
  5
3D2
100
AcDbEntity
  8
0-0
100
AcDbLine
  6
BYLAYER
370
13
 10
213.613860380615
 20
279.086176231906
 11
213.613860380615
 21
274.086176231906
  0
LINE
  5
3D3
100
AcDbEntity
  8
0-0
100
AcDbLine
  6
BYLAYER
370
13
 10
510.959483055765
 20
280.621751752338
 11
514.100483055765
 21
280.621751752338
  0
LINE
  5
3D4
100
AcDbEntity
  8
0-0
100
AcDbLine
  6
BYLAYER
370
13
 10
514.100483055765
 20
280.621751752338
 11
514.529983055765
 21
280.192251752338
  0
LINE
  5
3D5
100
AcDbEntity
  8
0-0
100
AcDbLine
  6
BYLAYER
370
13
 10
510.529983055765
 20
280.192251752338
 11
510.959483055765
 21
280.621751752338
  0
LINE
  5
3D6
100
AcDbEntity
  8
0-0
100
AcDbLine
  6
BYLAYER
370
13
 10
510.529983055765
 20
280.192251752338
 11
514.529983055765
 21
280.192251752338
  0
LINE
  5
3D7
100
AcDbEntity
  8
0-0
100
AcDbLine
  6
BYLAYER
370
13
 10
514.529983055765
 20
280.192251752338
 11
514.529983055765
 21
279.586176231906
  0
LINE
  5
3D8
100
AcDbEntity
  8
0-0
100
AcDbLine
  6
BYLAYER
370
13
 10
514.100483055765
 20
280.621751752338
 11
514.100483055764
 21
279.586176231906
  0
LINE
  5
3D9
100
AcDbEntity
  8
0-0
100
AcDbLine
  6
BYLAYER
370
13
 10
510.959483055765
 20
280.621751752338
 11
510.959483055765
 21
279.586176231906
  0
LINE
  5
3DA
100
AcDbEntity
  8
0-0
100
AcDbLine
  6
BYLAYER
370
13
 10
554.959483055765
 20
280.621751752338
 11
558.100483055765
 21
280.621751752338
  0
LINE
  5
3DB
100
AcDbEntity
  8
0-0
100
AcDbLine
  6
BYLAYER
370
13
 10
558.100483055765
 20
280.621751752338
 11
558.529983055765
 21
280.192251752338
  0
LINE
  5
3DC
100
AcDbEntity
  8
0-0
100
AcDbLine
  6
BYLAYER
370
13
 10
554.529983055765
 20
280.192251752338
 11
554.959483055765
 21
280.621751752338
  0
LINE
  5
3DD
100
AcDbEntity
  8
0-0
100
AcDbLine
  6
BYLAYER
370
13
 10
554.529983055765
 20
280.192251752338
 11
558.529983055765
 21
280.192251752338
  0
LINE
  5
3DE
100
AcDbEntity
  8
0-0
100
AcDbLine
  6
BYLAYER
370
13
 10
554.529983055765
 20
279.586176231906
 11
554.529983055765
 21
280.192251752338
  0
LINE
  5
3DF
100
AcDbEntity
  8
0-0
100
AcDbLine
  6
BYLAYER
370
13
 10
558.100483055765
 20
280.621751752338
 11
558.100483055765
 21
279.586176231906
  0
LINE
  5
3E0
100
AcDbEntity
  8
0-0
100
AcDbLine
  6
BYLAYER
370
13
 10
554.959483055765
 20
280.621751752338
 11
554.959483055765
 21
279.586176231906
  0
LINE
  5
3E1
100
AcDbEntity
  8
0-0
100
AcDbLine
  6
CONTINUOUS
 62
7
370
30
 10
508.029983055765
 20
279.586176231906
 11
507.529983055765
 21
279.086176231906
  0
LINE
  5
3E2
100
AcDbEntity
  8
0-0
100
AcDbLine
  6
CONTINUOUS
 62
7
370
30
 10
507.529983055765
 20
279.086176231906
 11
507.529983055765
 21
274.086176231906
  0
LINE
  5
3E3
100
AcDbEntity
  8
0-0
100
AcDbLine
  6
CONTINUOUS
 62
7
370
30
 10
508.029983055765
 20
274.086176231906
 11
508.029983055765
 21
272.586176231906
  0
LINE
  5
3E4
100
AcDbEntity
  8
0-0
100
AcDbLine
  6
CONTINUOUS
 62
7
370
30
 10
517.029983055765
 20
279.586176231906
 11
517.529983055765
 21
279.086176231906
  0
LINE
  5
3E5
100
AcDbEntity
  8
0-0
100
AcDbLine
  6
CONTINUOUS
 62
7
370
30
 10
508.029983055765
 20
279.586176231906
 11
512.529983055765
 21
279.586176231906
  0
LINE
  5
3E6
100
AcDbEntity
  8
0-0
100
AcDbLine
  6
CONTINUOUS
 62
7
370
30
 10
517.529983055765
 20
279.086176231906
 11
507.529983055765
 21
279.086176231906
  0
LINE
  5
3E7
100
AcDbEntity
  8
0-0
100
AcDbLine
  6
CONTINUOUS
 62
7
370
30
 10
517.529983055765
 20
279.086176231906
 11
517.529983055765
 21
274.086176231906
  0
LINE
  5
3E8
100
AcDbEntity
  8
0-0
100
AcDbLine
  6
CONTINUOUS
 62
7
370
30
 10
507.529983055765
 20
274.086176231906
 11
517.029983055765
 21
274.086176231906
  0
LINE
  5
3E9
100
AcDbEntity
  8
0-0
100
AcDbLine
  6
CONTINUOUS
 62
7
370
30
 10
517.029983055765
 20
274.086176231906
 11
517.029983055765
 21
272.633551821958
  0
LINE
  5
3EA
100
AcDbEntity
  8
0-0
100
AcDbLine
  6
CONTINUOUS
 62
7
370
30
 10
508.029983055765
 20
272.586176231906
 11
512.529983055765
 21
272.586176231906
  0
LINE
  5
3EB
100
AcDbEntity
  8
0-0
100
AcDbLine
  6
CONTINUOUS
 62
7
370
30
 10
512.529983055765
 20
279.586176231906
 11
514.529983055765
 21
279.586176231906
  0
LINE
  5
3EC
100
AcDbEntity
  8
0-0
100
AcDbLine
  6
CONTINUOUS
 62
7
370
30
 10
514.529983055765
 20
272.586176231906
 11
512.529983055765
 21
272.586176231906
  0
LINE
  5
3ED
100
AcDbEntity
  8
0-0
100
AcDbLine
  6
CONTINUOUS
 62
7
370
30
 10
516.843230267278
 20
272.586176231906
 11
514.529983055765
 21
272.586176231906
  0
LINE
  5
3EE
100
AcDbEntity
  8
0-0
100
AcDbLine
  6
CONTINUOUS
 62
7
370
30
 10
514.529983055765
 20
279.586176231906
 11
517.029983055765
 21
279.586176231906
  0
LINE
  5
3EF
100
AcDbEntity
  8
0-0
100
AcDbLine
  6
CONTINUOUS
 62
7
370
30
 10
517.529983055765
 20
274.086176231906
 11
517.029983055765
 21
274.086176231906
  0
LINE
  5
3F0
100
AcDbEntity
  8
0-0
100
AcDbLine
  6
CONTINUOUS
 62
7
370
30
 10
514.529983055765
 20
279.586176231906
 11
514.522082740995
 21
279.586176231906
  0
LINE
  5
3F1
100
AcDbEntity
  8
0-0
100
AcDbLine
  6
CONTINUOUS
 62
7
370
30
 10
514.522082740995
 20
279.586176231906
 11
512.529983055765
 21
279.586176231906
  0
LINE
  5
3F2
100
AcDbEntity
  8
0-0
100
AcDbLine
  6
BYLAYER
370
13
 10
512.114202773147
 20
279.086176231906
 11
512.114202773147
 21
274.086176231906
  0
LINE
  5
3F3
100
AcDbEntity
  8
0-0
100
AcDbLine
  6
BYLAYER
370
13
 10
511.714202773147
 20
279.086176231906
 11
511.714202773147
 21
274.086176231906
  0
LINE
  5
3F4
100
AcDbEntity
  8
0-0
100
AcDbLine
  6
BYLAYER
370
13
 10
511.314202773147
 20
279.086176231906
 11
511.314202773147
 21
274.086176231906
  0
LINE
  5
3F5
100
AcDbEntity
  8
0-0
100
AcDbLine
  6
BYLAYER
370
13
 10
510.914202773147
 20
279.086176231906
 11
510.914202773147
 21
274.086176231906
  0
LINE
  5
3F6
100
AcDbEntity
  8
0-0
100
AcDbLine
  6
BYLAYER
370
13
 10
510.514202773147
 20
279.086176231906
 11
510.514202773147
 21
274.086176231906
  0
LINE
  5
3F7
100
AcDbEntity
  8
0-0
100
AcDbLine
  6
BYLAYER
370
13
 10
510.114202773147
 20
279.086176231906
 11
510.114202773147
 21
274.086176231906
  0
LINE
  5
3F8
100
AcDbEntity
  8
0-0
100
AcDbLine
  6
BYLAYER
370
13
 10
509.714202773147
 20
279.086176231906
 11
509.714202773147
 21
274.086176231906
  0
LINE
  5
3F9
100
AcDbEntity
  8
0-0
100
AcDbLine
  6
BYLAYER
370
13
 10
509.314202773147
 20
279.086176231906
 11
509.314202773147
 21
274.086176231906
  0
LINE
  5
3FA
100
AcDbEntity
  8
0-0
100
AcDbLine
  6
BYLAYER
370
13
 10
508.914202773147
 20
279.086176231906
 11
508.914202773147
 21
274.086176231906
  0
LINE
  5
3FB
100
AcDbEntity
  8
0-0
100
AcDbLine
  6
BYLAYER
370
13
 10
508.514202773147
 20
279.086176231906
 11
508.514202773147
 21
274.086176231906
  0
LINE
  5
3FC
100
AcDbEntity
  8
0-0
100
AcDbLine
  6
BYLAYER
370
13
 10
508.114202773147
 20
279.086176231906
 11
508.114202773147
 21
274.086176231906
  0
LINE
  5
3FD
100
AcDbEntity
  8
0-0
100
AcDbLine
  6
CONTINUOUS
 62
7
370
30
 10
552.029983055765
 20
279.586176231906
 11
551.529983055765
 21
279.086176231906
  0
LINE
  5
3FE
100
AcDbEntity
  8
0-0
100
AcDbLine
  6
CONTINUOUS
 62
7
370
30
 10
551.529983055765
 20
279.086176231906
 11
551.529983055765
 21
274.086176231906
  0
LINE
  5
3FF
100
AcDbEntity
  8
0-0
100
AcDbLine
  6
CONTINUOUS
 62
7
370
30
 10
552.029983055765
 20
274.086176231906
 11
552.029983055765
 21
272.632970764748
  0
LINE
  5
400
100
AcDbEntity
  8
0-0
100
AcDbLine
  6
CONTINUOUS
 62
7
370
30
 10
561.029983055765
 20
279.586176231906
 11
561.529983055765
 21
279.086176231906
  0
LINE
  5
401
100
AcDbEntity
  8
0-0
100
AcDbLine
  6
CONTINUOUS
 62
7
370
30
 10
552.029983055765
 20
279.586176231906
 11
556.529983055765
 21
279.586176231906
  0
LINE
  5
402
100
AcDbEntity
  8
0-0
100
AcDbLine
  6
CONTINUOUS
 62
7
370
30
 10
561.529983055765
 20
279.086176231906
 11
551.529983055765
 21
279.086176231906
  0
LINE
  5
403
100
AcDbEntity
  8
0-0
100
AcDbLine
  6
CONTINUOUS
 62
7
370
30
 10
561.529983055765
 20
279.086176231906
 11
561.529983055765
 21
274.086176231906
  0
LINE
  5
404
100
AcDbEntity
  8
0-0
100
AcDbLine
  6
CONTINUOUS
 62
7
370
30
 10
551.529983055765
 20
274.086176231906
 11
561.029983055765
 21
274.086176231906
  0
LINE
  5
405
100
AcDbEntity
  8
0-0
100
AcDbLine
  6
CONTINUOUS
 62
7
370
30
 10
561.029983055765
 20
274.086176231906
 11
561.029983055765
 21
272.586176231906
  0
LINE
  5
406
100
AcDbEntity
  8
0-0
100
AcDbLine
  6
CONTINUOUS
 62
7
370
30
 10
552.187127999703
 20
272.586176231906
 11
556.529983055765
 21
272.586176231906
  0
LINE
  5
407
100
AcDbEntity
  8
0-0
100
AcDbLine
  6
CONTINUOUS
 62
7
370
30
 10
556.529983055765
 20
279.586176231906
 11
558.529983055765
 21
279.586176231906
  0
LINE
  5
408
100
AcDbEntity
  8
0-0
100
AcDbLine
  6
CONTINUOUS
 62
7
370
30
 10
558.529983055765
 20
272.586176231906
 11
556.529983055765
 21
272.586176231906
  0
LINE
  5
409
100
AcDbEntity
  8
0-0
100
AcDbLine
  6
CONTINUOUS
 62
7
370
30
 10
561.029983055765
 20
272.586176231906
 11
558.529983055765
 21
272.586176231906
  0
LINE
  5
40A
100
AcDbEntity
  8
0-0
100
AcDbLine
  6
CONTINUOUS
 62
7
370
30
 10
558.529983055765
 20
279.586176231906
 11
561.029983055765
 21
279.586176231906
  0
LINE
  5
40B
100
AcDbEntity
  8
0-0
100
AcDbLine
  6
CONTINUOUS
 62
7
370
30
 10
561.529983055765
 20
274.086176231906
 11
561.029983055765
 21
274.086176231906
  0
LINE
  5
40C
100
AcDbEntity
  8
0-0
100
AcDbLine
  6
CONTINUOUS
 62
7
370
30
 10
558.522082740995
 20
279.586176231906
 11
556.529983055765
 21
279.586176231906
  0
LINE
  5
40D
100
AcDbEntity
  8
0-0
100
AcDbLine
  6
BYLAYER
370
13
 10
556.114202773147
 20
279.086176231906
 11
556.114202773147
 21
274.086176231906
  0
LINE
  5
40E
100
AcDbEntity
  8
0-0
100
AcDbLine
  6
BYLAYER
370
13
 10
555.714202773147
 20
279.086176231906
 11
555.714202773147
 21
274.086176231906
  0
LINE
  5
40F
100
AcDbEntity
  8
0-0
100
AcDbLine
  6
BYLAYER
370
13
 10
555.314202773147
 20
279.086176231906
 11
555.314202773147
 21
274.086176231906
  0
LINE
  5
410
100
AcDbEntity
  8
0-0
100
AcDbLine
  6
BYLAYER
370
13
 10
554.914202773147
 20
279.086176231906
 11
554.914202773147
 21
274.086176231906
  0
LINE
  5
411
100
AcDbEntity
  8
0-0
100
AcDbLine
  6
BYLAYER
370
13
 10
554.514202773147
 20
279.086176231906
 11
554.514202773147
 21
274.086176231906
  0
LINE
  5
412
100
AcDbEntity
  8
0-0
100
AcDbLine
  6
BYLAYER
370
13
 10
554.114202773147
 20
279.086176231906
 11
554.114202773147
 21
274.086176231906
  0
LINE
  5
413
100
AcDbEntity
  8
0-0
100
AcDbLine
  6
BYLAYER
370
13
 10
553.714202773147
 20
279.086176231906
 11
553.714202773147
 21
274.086176231906
  0
LINE
  5
414
100
AcDbEntity
  8
0-0
100
AcDbLine
  6
BYLAYER
370
13
 10
553.314202773147
 20
279.086176231906
 11
553.314202773147
 21
274.086176231906
  0
LINE
  5
415
100
AcDbEntity
  8
0-0
100
AcDbLine
  6
BYLAYER
370
13
 10
552.914202773147
 20
279.086176231906
 11
552.914202773147
 21
274.086176231906
  0
LINE
  5
416
100
AcDbEntity
  8
0-0
100
AcDbLine
  6
BYLAYER
370
13
 10
552.514202773147
 20
279.086176231906
 11
552.514202773147
 21
274.086176231906
  0
LINE
  5
417
100
AcDbEntity
  8
0-0
100
AcDbLine
  6
BYLAYER
370
13
 10
552.114202773147
 20
279.086176231906
 11
552.114202773147
 21
274.086176231906
  0
LINE
  5
418
100
AcDbEntity
  8
0-0
100
AcDbLine
  6
CONTINUOUS
370
50
 10
458.329640663233
 20
333.422152225475
 11
458.329640663233
 21
346.422152225475
  0
LINE
  5
419
100
AcDbEntity
  8
0-0
100
AcDbLine
  6
CONTINUOUS
370
50
 10
457.329640663233
 20
347.422152225475
 11
449.229640663233
 21
347.422152225475
  0
LINE
  5
41A
100
AcDbEntity
  8
0-0
100
AcDbLine
  6
CONTINUOUS
370
50
 10
457.329640663233
 20
332.422152225475
 11
449.229640663233
 21
332.422152225475
  0
LINE
  5
41B
100
AcDbEntity
  8
0-0
100
AcDbLine
  6
CONTINUOUS
370
50
 10
458.329640663233
 20
346.422152225475
 11
457.329640663233
 21
347.422152225475
  0
LINE
  5
41C
100
AcDbEntity
  8
0-0
100
AcDbLine
  6
CONTINUOUS
370
50
 10
457.329640663233
 20
332.422152225475
 11
458.329640663233
 21
333.422152225475
  0
LINE
  5
41D
100
AcDbEntity
  8
0-0
100
AcDbLine
  6
CONTINUOUS
370
50
 10
457.329640663233
 20
347.422152225475
 11
457.329640663233
 21
332.422152225475
  0
CIRCLE
  5
41E
100
AcDbEntity
  8
0-0
100
AcDbCircle
  6
CONTINUOUS
370
20
 10
452.829640663233
 20
339.922152225475
 40
1.5
  0
CIRCLE
  5
41F
100
AcDbEntity
  8
0-0
100
AcDbCircle
  6
CONTINUOUS
370
40
 10
452.829640663233
 20
339.922152225475
 40
1.25
  0
LINE
  5
420
100
AcDbEntity
  8
0-0
100
AcDbLine
  6
CONTINUOUS
370
50
 10
458.329640663233
 20
94.2419778166025
 11
458.329640663233
 21
107.241977816602
  0
LINE
  5
421
100
AcDbEntity
  8
0-0
100
AcDbLine
  6
CONTINUOUS
370
50
 10
457.329640663233
 20
108.241977816602
 11
453.929640663233
 21
108.241977816602
  0
LINE
  5
422
100
AcDbEntity
  8
0-0
100
AcDbLine
  6
CONTINUOUS
370
50
 10
457.329640663233
 20
93.2419778166025
 11
454.029640663233
 21
93.2419778166025
  0
LINE
  5
423
100
AcDbEntity
  8
0-0
100
AcDbLine
  6
CONTINUOUS
370
50
 10
458.329640663233
 20
107.241977816602
 11
457.329640663233
 21
108.241977816602
  0
LINE
  5
424
100
AcDbEntity
  8
0-0
100
AcDbLine
  6
CONTINUOUS
370
50
 10
457.329640663233
 20
93.2419778166025
 11
458.329640663233
 21
94.2419778166025
  0
LINE
  5
425
100
AcDbEntity
  8
0-0
100
AcDbLine
  6
CONTINUOUS
370
50
 10
457.329640663233
 20
108.241977816602
 11
457.329640663233
 21
93.2419778166025
  0
LINE
  5
426
100
AcDbEntity
  8
0-0
100
AcDbLine
  6
CONTINUOUS
370
50
 10
458.329640663233
 20
187.521751752339
 11
458.329640663233
 21
200.521751752339
  0
LINE
  5
427
100
AcDbEntity
  8
0-0
100
AcDbLine
  6
CONTINUOUS
370
50
 10
457.329640663233
 20
201.521751752339
 11
457.329640663233
 21
186.521751752339
  0
LINE
  5
428
100
AcDbEntity
  8
0-0
100
AcDbLine
  6
CONTINUOUS
370
50
 10
309.529640663233
 20
334.438394582531
 11
309.529640663233
 21
345.418833501016
  0
LINE
  5
429
100
AcDbEntity
  8
0-0
100
AcDbLine
  6
CONTINUOUS
370
50
 10
39.420511222646
 20
164.521751752338
 11
66.422824385996
 21
164.521751752338
  0
LINE
  5
42A
100
AcDbEntity
  8
0-0
100
AcDbLine
  6
CONTINUOUS
370
50
 10
72.422824385996
 20
164.521751752338
 11
91.420511222646
 21
164.521751752338
  0
LINE
  5
42B
100
AcDbEntity
  8
0-0
100
AcDbLine
  6
CONTINUOUS
370
50
 10
229.029640663233
 20
158.621751752338
 11
448.529640663233
 21
158.621751752338
  0
LINE
  5
42C
100
AcDbEntity
  8
0-0
100
AcDbLine
  6
CONTINUOUS
370
50
 10
560.729983055757
 20
158.621751752338
 11
562.229983055757
 21
158.621751752338
  0
LINE
  5
42D
100
AcDbEntity
  8
0-0
100
AcDbLine
  6
CONTINUOUS
370
50
 10
508.329983055757
 20
158.621751752338
 11
506.829983055757
 21
158.621751752338
  0
LINE
  5
42E
100
AcDbEntity
  8
0-0
100
AcDbLine
  6
CONTINUOUS
370
50
 10
37.722824385996
 20
158.621751752338
 11
39.222824385996
 21
158.621751752338
  0
LINE
  5
42F
100
AcDbEntity
  8
0-0
100
AcDbLine
  6
CONTINUOUS
370
50
 10
91.622824385996
 20
158.621751752338
 11
93.122824385996
 21
158.621751752338
  0
LINE
  5
430
100
AcDbEntity
  8
0-0
100
AcDbLine
  6
CONTINUOUS
370
50
 10
449.029640663233
 20
312.222152225475
 11
449.029640663233
 21
367.622152225475
  0
LINE
  5
431
100
AcDbEntity
  8
0-0
100
AcDbLine
  6
CONTINUOUS
370
50
 10
449.029640663233
 20
159.121751752338
 11
449.029640663233
 21
223.621751752338
  0
LINE
  5
432
100
AcDbEntity
  8
0-0
100
AcDbLine
  6
CONTINUOUS
370
50
 10
448.529640663233
 20
158.621751752338
 11
449.029640663233
 21
159.121751752338
  0
LINE
  5
433
100
AcDbEntity
  8
0-0
100
AcDbLine
  6
CONTINUOUS
370
50
 10
266.029640663234
 20
223.621751752338
 11
198.029640663234
 21
223.621751752338
  0
LINE
  5
434
100
AcDbEntity
  8
0-0
100
AcDbLine
  6
CONTINUOUS
370
50
 10
261.029640663234
 20
313.922152225476
 11
261.029640663234
 21
365.922152225476
  0
LINE
  5
435
100
AcDbEntity
  8
0-0
100
AcDbLine
  6
CONTINUOUS
370
50
 10
261.029640663234
 20
251.621751752338
 11
266.029640663234
 21
251.621751752338
  0
LINE
  5
436
100
AcDbEntity
  8
0-0
100
AcDbLine
  6
CONTINUOUS
370
50
 10
261.029640663234
 20
228.621751752338
 11
198.029640663234
 21
228.621751752338
  0
LINE
  5
437
100
AcDbEntity
  8
0-0
100
AcDbLine
  6
CONTINUOUS
370
50
 10
266.029640663234
 20
223.621751752338
 11
266.029640663234
 21
251.621751752338
  0
LINE
  5
438
100
AcDbEntity
  8
0-0
100
AcDbLine
  6
CONTINUOUS
370
50
 10
261.029640663234
 20
228.621751752338
 11
261.029640663234
 21
251.621751752338
  0
LINE
  5
439
100
AcDbEntity
  8
0-0
100
AcDbLine
  6
CONTINUOUS
370
50
 10
258.029640663234
 20
313.923815867874
 11
258.029640663234
 21
365.923815867874
  0
LINE
  5
43A
100
AcDbEntity
  8
0-0
100
AcDbLine
  6
CONTINUOUS
370
50
 10
258.029640663234
 20
228.623415394738
 11
258.029640663234
 21
250.623415394738
  0
LINE
  5
43B
100
AcDbEntity
  8
0-0
100
AcDbLine
  6
CONTINUOUS
370
50
 10
203.029640663234
 20
228.623415394738
 11
258.029640663234
 21
228.623415394738
  0
ARC
  5
43C
100
AcDbEntity
  8
0-0
100
AcDbCircle
  6
CONTINUOUS
370
50
 10
232.529640663234
 20
320.923815867874
 40
3.75
100
AcDbArc
 50
-90
 51
-9.23264748475319
  0
ARC
  5
43D
100
AcDbEntity
  8
0-0
100
AcDbCircle
  6
CONTINUOUS
370
50
 10
228.529640663234
 20
320.923815867874
 40
3.75
100
AcDbArc
 50
-170.767352515247
 51
-90
  0
LINE
  5
43E
100
AcDbEntity
  8
0-0
100
AcDbLine
  6
CONTINUOUS
370
50
 10
228.529640663234
 20
317.173815867874
 11
232.529640663234
 21
317.173815867874
  0
ARC
  5
43F
100
AcDbEntity
  8
0-0
100
AcDbCircle
  6
CONTINUOUS
370
50
 10
232.529640663234
 20
358.923815867874
 40
3.75
100
AcDbArc
 50
9.18114683377251
 51
90
  0
ARC
  5
440
100
AcDbEntity
  8
0-0
100
AcDbCircle
  6
CONTINUOUS
370
50
 10
228.529640663234
 20
358.923815867874
 40
3.75
100
AcDbArc
 50
90
 51
170.818853166227
  0
LINE
  5
441
100
AcDbEntity
  8
0-0
100
AcDbLine
  6
CONTINUOUS
370
50
 10
228.529640663234
 20
362.673815867874
 11
232.529640663234
 21
362.673815867874
  0
CIRCLE
  5
442
100
AcDbEntity
  8
0-0
100
AcDbCircle
  6
CONTINUOUS
370
50
 10
218.029640663233
 20
361.923815867875
 40
1.65
  0
CIRCLE
  5
443
100
AcDbEntity
  8
0-0
100
AcDbCircle
  6
CONTINUOUS
370
50
 10
218.029640663233
 20
317.923815867875
 40
1.65
  0
CIRCLE
  5
444
100
AcDbEntity
  8
0-0
100
AcDbCircle
  6
CONTINUOUS
370
50
 10
218.029640663233
 20
317.923815867875
 40
2
  0
CIRCLE
  5
445
100
AcDbEntity
  8
0-0
100
AcDbCircle
  6
CONTINUOUS
370
50
 10
218.029640663233
 20
361.923815867875
 40
2
  0
LINE
  5
446
100
AcDbEntity
  8
0-0
100
AcDbLine
  6
CONTINUOUS
370
50
 10
211.029640663234
 20
313.923815867874
 11
211.029640663234
 21
320.322152225475
  0
LINE
  5
447
100
AcDbEntity
  8
0-0
100
AcDbLine
  6
CONTINUOUS
370
50
 10
211.029640663234
 20
359.522152225475
 11
211.029640663234
 21
365.923815867874
  0
LINE
  5
448
100
AcDbEntity
  8
0-0
100
AcDbLine
  6
CONTINUOUS
370
50
 10
243.029640663234
 20
236.623415394738
 11
243.029640663234
 21
250.623415394738
  0
LINE
  5
449
100
AcDbEntity
  8
0-0
100
AcDbLine
  6
CONTINUOUS
370
50
 10
243.029640663234
 20
313.923815867874
 11
243.029640663234
 21
320.322152225475
  0
LINE
  5
44A
100
AcDbEntity
  8
0-0
100
AcDbLine
  6
CONTINUOUS
370
50
 10
243.029640663234
 20
359.522152225475
 11
243.029640663234
 21
365.923815867874
  0
LINE
  5
44B
100
AcDbEntity
  8
0-0
100
AcDbLine
  6
CONTINUOUS
370
50
 10
211.029640663234
 20
236.623415394738
 11
211.029640663234
 21
250.623415394738
  0
LINE
  5
44C
100
AcDbEntity
  8
0-0
100
AcDbLine
  6
CONTINUOUS
370
50
 10
203.029640663234
 20
228.623415394738
 11
203.029640663234
 21
250.623415394738
  0
LINE
  5
44D
100
AcDbEntity
  8
0-0
100
AcDbLine
  6
CONTINUOUS
 62
7
370
30
 10
52.9199905828951
 20
172.018816342788
 11
77.9199909554952
 21
172.018816342788
  0
LINE
  5
44E
100
AcDbEntity
  8
0-0
100
AcDbLine
  6
CONTINUOUS
 62
7
370
30
 10
77.9199909554952
 20
172.018816342788
 11
77.9199909554952
 21
171.170284619788
  0
LINE
  5
44F
100
AcDbEntity
  8
0-0
100
AcDbLine
  6
CONTINUOUS
 62
7
370
30
 10
77.9199909554952
 20
171.170284619788
 11
52.9199905828951
 21
171.170284619788
  0
LINE
  5
450
100
AcDbEntity
  8
0-0
100
AcDbLine
  6
CONTINUOUS
 62
7
370
30
 10
52.9199905828951
 20
171.170284619788
 11
52.9199905828951
 21
172.018816342788
  0
LINE
  5
451
100
AcDbEntity
  8
0-0
100
AcDbLine
  6
CONTINUOUS
 62
7
370
30
 10
77.9199909554952
 20
172.018816342788
 11
77.9199909554952
 21
173.021753898088
  0
ARC
  5
452
100
AcDbEntity
  8
0-0
100
AcDbCircle
  6
CONTINUOUS
 62
7
370
30
 10
84.4198895502952
 20
177.773699840088
 40
2.00010093588502
100
AcDbArc
 50
319.4652687336
 51
359.9992769085
  0
LINE
  5
453
100
AcDbEntity
  8
0-0
100
AcDbLine
  6
CONTINUOUS
 62
7
370
30
 10
52.9199905828951
 20
172.018816342788
 11
52.9199905828951
 21
173.021753898088
  0
ARC
  5
454
100
AcDbEntity
  8
0-0
100
AcDbCircle
  6
CONTINUOUS
 62
7
370
30
 10
49.1718905546952
 20
175.021700517888
 40
1.99994661990319
100
AcDbArc
 50
229.4638004762
 51
270.000660647
  0
ARC
  5
455
100
AcDbEntity
  8
0-0
100
AcDbCircle
  6
CONTINUOUS
 62
7
370
30
 10
65.4223039324952
 20
194.024129047188
 40
27.0033108927951
100
AcDbArc
 50
220.5364659123
 51
229.4637495368
  0
ARC
  5
456
100
AcDbEntity
  8
0-0
100
AcDbCircle
  6
CONTINUOUS
 62
7
370
30
 10
46.4200919879952
 20
177.773699840088
 40
2.00010093588503
100
AcDbArc
 50
180.0007230915
 51
220.5347312664
  0
LINE
  5
457
100
AcDbEntity
  8
0-0
100
AcDbLine
  6
CONTINUOUS
 62
7
370
30
 10
44.4199910522951
 20
210.269828906488
 11
44.4199910522951
 21
177.773674598188
  0
ARC
  5
458
100
AcDbEntity
  8
0-0
100
AcDbCircle
  6
CONTINUOUS
 62
7
370
30
 10
46.4200919879952
 20
210.269803664588
 40
2.000100935885
100
AcDbArc
 50
139.4652687336
 51
179.9992769085
  0
ARC
  5
459
100
AcDbEntity
  8
0-0
100
AcDbCircle
  6
CONTINUOUS
 62
7
370
30
 10
65.4223039324952
 20
194.019374457388
 40
27.0033108927951
100
AcDbArc
 50
130.5362504632
 51
139.4635340877
  0
ARC
  5
45A
100
AcDbEntity
  8
0-0
100
AcDbCircle
  6
CONTINUOUS
 62
7
370
30
 10
49.1718905546952
 20
213.021802986788
 40
1.99994661990317
100
AcDbArc
 50
89.999339353
 51
130.5361995238
  0
LINE
  5
45B
100
AcDbEntity
  8
0-0
100
AcDbLine
  6
CONTINUOUS
 62
7
370
30
 10
81.6680679233951
 20
215.021749606588
 11
49.1719136149952
 21
215.021749606588
  0
ARC
  5
45C
100
AcDbEntity
  8
0-0
100
AcDbCircle
  6
CONTINUOUS
 62
7
370
30
 10
81.6680909836952
 20
213.021802986788
 40
1.99994661990317
100
AcDbArc
 50
49.4638004762
 51
90.000660647
  0
ARC
  5
45D
100
AcDbEntity
  8
0-0
100
AcDbCircle
  6
CONTINUOUS
 62
7
370
30
 10
65.4176776058952
 20
194.019374457388
 40
27.0033108927951
100
AcDbArc
 50
40.5364659123
 51
49.4637495368
  0
ARC
  5
45E
100
AcDbEntity
  8
0-0
100
AcDbCircle
  6
CONTINUOUS
 62
7
370
30
 10
84.4198895502952
 20
210.269803664588
 40
2.00010093588502
100
AcDbArc
 50
0.0007230915
 51
40.5347312664
  0
LINE
  5
45F
100
AcDbEntity
  8
0-0
100
AcDbLine
  6
CONTINUOUS
 62
7
370
30
 10
86.4199904860952
 20
177.773674598188
 11
86.4199904860952
 21
210.269828906488
  0
ARC
  5
460
100
AcDbEntity
  8
0-0
100
AcDbCircle
  6
CONTINUOUS
 62
7
370
30
 10
65.4176776058952
 20
194.024129047188
 40
27.0033108927951
100
AcDbArc
 50
310.5362504632
 51
319.4635340877
  0
ARC
  5
461
100
AcDbEntity
  8
0-0
100
AcDbCircle
  6
CONTINUOUS
 62
7
370
30
 10
81.6680909836952
 20
175.021700517888
 40
1.99994661990317
100
AcDbArc
 50
269.999339353
 51
310.5361995238
  0
LINE
  5
462
100
AcDbEntity
  8
0-0
100
AcDbLine
  6
CONTINUOUS
 62
7
370
30
 10
77.9199909554952
 20
173.021753898088
 11
81.6680679233951
 21
173.021753898088
  0
LINE
  5
463
100
AcDbEntity
  8
0-0
100
AcDbLine
  6
CONTINUOUS
 62
7
370
30
 10
49.1719136149952
 20
173.021753898088
 11
52.9199905828951
 21
173.021753898088
  0
LINE
  5
464
100
AcDbEntity
  8
0-0
100
AcDbLine
  6
CONTINUOUS
 62
7
370
30
 10
52.9199905828951
 20
170.373221507488
 11
77.9199909554952
 21
170.373221507488
  0
LINE
  5
465
100
AcDbEntity
  8
0-0
100
AcDbLine
  6
CONTINUOUS
 62
7
370
30
 10
77.9199909554952
 20
170.373221507488
 11
77.9199909554952
 21
171.170284619788
  0
LINE
  5
466
100
AcDbEntity
  8
0-0
100
AcDbLine
  6
CONTINUOUS
 62
7
370
30
 10
52.9199905828951
 20
170.373221507488
 11
52.9199905828951
 21
171.170284619788
  0
LINE
  5
467
100
AcDbEntity
  8
0-0
100
AcDbLine
  6
CONTINUOUS
 62
7
370
30
 10
77.9199909554952
 20
170.021762719588
 11
52.9199905828951
 21
170.021762719588
  0
LINE
  5
468
100
AcDbEntity
  8
0-0
100
AcDbLine
  6
CONTINUOUS
 62
7
370
30
 10
77.9199909554952
 20
170.373221507488
 11
77.9199909554952
 21
170.021762719588
  0
LINE
  5
469
100
AcDbEntity
  8
0-0
100
AcDbLine
  6
CONTINUOUS
 62
7
370
30
 10
52.9199905828951
 20
170.021762719588
 11
52.9199905828951
 21
170.373221507488
  0
LINE
  5
46A
100
AcDbEntity
  8
0-0
100
AcDbLine
  6
CONTINUOUS
370
50
 10
244.029640663233
 20
80.7419778166025
 11
244.029640663233
 21
120.741977816602
  0
LINE
  5
46B
100
AcDbEntity
  8
0-0
100
AcDbLine
  6
CONTINUOUS
370
50
 10
249.029641348633
 20
112.741977291503
 11
249.029641348633
 21
120.741977816602
  0
LINE
  5
46C
100
AcDbEntity
  8
0-0
100
AcDbLine
  6
CONTINUOUS
370
50
 10
249.029641348633
 20
80.7419778166025
 11
249.029641348633
 21
88.7419772915313
  0
LINE
  5
46D
100
AcDbEntity
  8
0-0
100
AcDbLine
  6
CONTINUOUS
370
50
 10
244.029640663233
 20
119.741977816602
 11
249.029641348633
 21
119.741977816602
  0
LINE
  5
46E
100
AcDbEntity
  8
0-0
100
AcDbLine
  6
CONTINUOUS
370
50
 10
249.029641348633
 20
81.7419778166025
 11
244.029640663233
 21
81.7419778166025
  0
CIRCLE
  5
46F
100
AcDbEntity
  8
0-0
100
AcDbCircle
  6
CONTINUOUS
370
20
 10
445.029640663233
 20
356.922152225475
 40
2.75
  0
CIRCLE
  5
470
100
AcDbEntity
  8
0-0
100
AcDbCircle
  6
CONTINUOUS
370
20
 10
445.029640663233
 20
322.922152225475
 40
2.75
  0
CIRCLE
  5
471
100
AcDbEntity
  8
0-0
100
AcDbCircle
  6
CONTINUOUS
370
13
 10
445.029640663233
 20
356.922152225475
 40
2.5
  0
ARC
  5
472
100
AcDbEntity
  8
0-0
100
AcDbCircle
  6
CONTINUOUS
370
13
 10
445.029640663233
 20
356.922152225475
 40
1.45
100
AcDbArc
 50
352.57025669376
 51
0
  0
ARC
  5
473
100
AcDbEntity
  8
0-0
100
AcDbCircle
  6
CONTINUOUS
370
13
 10
445.029640663233
 20
356.922152225475
 40
1.45
100
AcDbArc
 50
0
 51
7.42974330623997
  0
ARC
  5
474
100
AcDbEntity
  8
0-0
100
AcDbCircle
  6
CONTINUOUS
370
13
 10
443.592140663233
 20
358.359652225499
 40
1.25
100
AcDbArc
 50
269.985055223947
 51
0.0149447750821012
  0
ARC
  5
475
100
AcDbEntity
  8
0-0
100
AcDbCircle
  6
CONTINUOUS
370
13
 10
445.029640663233
 20
356.922152225475
 40
1.45
100
AcDbArc
 50
172.57025669376
 51
180
  0
ARC
  5
476
100
AcDbEntity
  8
0-0
100
AcDbCircle
  6
CONTINUOUS
370
13
 10
445.029640663233
 20
356.922152225475
 40
1.45
100
AcDbArc
 50
180
 51
187.42974330624
  0
ARC
  5
477
100
AcDbEntity
  8
0-0
100
AcDbCircle
  6
CONTINUOUS
370
13
 10
445.029640663233
 20
356.922152225475
 40
1.45
100
AcDbArc
 50
262.570256694729
 51
270
  0
ARC
  5
478
100
AcDbEntity
  8
0-0
100
AcDbCircle
  6
CONTINUOUS
370
13
 10
443.592140663233
 20
355.484652225451
 40
1.25
100
AcDbArc
 50
359.985055224918
 51
90.0149447760494
  0
ARC
  5
479
100
AcDbEntity
  8
0-0
100
AcDbCircle
  6
CONTINUOUS
370
13
 10
445.029640663233
 20
356.922152225475
 40
1.45
100
AcDbArc
 50
270
 51
277.429743305271
  0
ARC
  5
47A
100
AcDbEntity
  8
0-0
100
AcDbCircle
  6
CONTINUOUS
370
13
 10
445.029640663233
 20
356.922152225475
 40
1.45
100
AcDbArc
 50
90
 51
97.4297433052711
  0
ARC
  5
47B
100
AcDbEntity
  8
0-0
100
AcDbCircle
  6
CONTINUOUS
370
13
 10
445.029640663233
 20
356.922152225475
 40
1.45
100
AcDbArc
 50
82.5702566947289
 51
90
  0
ARC
  5
47C
100
AcDbEntity
  8
0-0
100
AcDbCircle
  6
CONTINUOUS
370
13
 10
446.467140663233
 20
358.359652225499
 40
1.25
100
AcDbArc
 50
179.985055224918
 51
270.014944776049
  0
ARC
  5
47D
100
AcDbEntity
  8
0-0
100
AcDbCircle
  6
CONTINUOUS
370
13
 10
446.467140663233
 20
355.484652225451
 40
1.25
100
AcDbArc
 50
89.9850552239474
 51
180.014944775082
  0
CIRCLE
  5
47E
100
AcDbEntity
  8
0-0
100
AcDbCircle
  6
CONTINUOUS
370
13
 10
445.029640663233
 20
322.922152225475
 40
2.5
  0
ARC
  5
47F
100
AcDbEntity
  8
0-0
100
AcDbCircle
  6
CONTINUOUS
370
13
 10
445.029640663233
 20
322.922152225475
 40
1.45
100
AcDbArc
 50
352.57025669376
 51
0
  0
ARC
  5
480
100
AcDbEntity
  8
0-0
100
AcDbCircle
  6
CONTINUOUS
370
13
 10
445.029640663233
 20
322.922152225475
 40
1.45
100
AcDbArc
 50
0
 51
7.42974330623997
  0
ARC
  5
481
100
AcDbEntity
  8
0-0
100
AcDbCircle
  6
CONTINUOUS
370
13
 10
443.592140663233
 20
324.359652225499
 40
1.25
100
AcDbArc
 50
269.985055223947
 51
0.0149447750821012
  0
ARC
  5
482
100
AcDbEntity
  8
0-0
100
AcDbCircle
  6
CONTINUOUS
370
13
 10
445.029640663233
 20
322.922152225475
 40
1.45
100
AcDbArc
 50
172.57025669376
 51
180
  0
ARC
  5
483
100
AcDbEntity
  8
0-0
100
AcDbCircle
  6
CONTINUOUS
370
13
 10
445.029640663233
 20
322.922152225475
 40
1.45
100
AcDbArc
 50
180
 51
187.42974330624
  0
ARC
  5
484
100
AcDbEntity
  8
0-0
100
AcDbCircle
  6
CONTINUOUS
370
13
 10
445.029640663233
 20
322.922152225475
 40
1.45
100
AcDbArc
 50
262.570256694729
 51
270
  0
ARC
  5
485
100
AcDbEntity
  8
0-0
100
AcDbCircle
  6
CONTINUOUS
370
13
 10
443.592140663233
 20
321.484652225451
 40
1.25
100
AcDbArc
 50
359.985055224918
 51
90.0149447760494
  0
ARC
  5
486
100
AcDbEntity
  8
0-0
100
AcDbCircle
  6
CONTINUOUS
370
13
 10
445.029640663233
 20
322.922152225475
 40
1.45
100
AcDbArc
 50
270
 51
277.429743305271
  0
ARC
  5
487
100
AcDbEntity
  8
0-0
100
AcDbCircle
  6
CONTINUOUS
370
13
 10
445.029640663233
 20
322.922152225475
 40
1.45
100
AcDbArc
 50
90
 51
97.4297433052711
  0
ARC
  5
488
100
AcDbEntity
  8
0-0
100
AcDbCircle
  6
CONTINUOUS
370
13
 10
445.029640663233
 20
322.922152225475
 40
1.45
100
AcDbArc
 50
82.5702566947289
 51
90
  0
ARC
  5
489
100
AcDbEntity
  8
0-0
100
AcDbCircle
  6
CONTINUOUS
370
13
 10
446.467140663233
 20
324.359652225499
 40
1.25
100
AcDbArc
 50
179.985055224918
 51
270.014944776049
  0
ARC
  5
48A
100
AcDbEntity
  8
0-0
100
AcDbCircle
  6
CONTINUOUS
370
13
 10
446.467140663233
 20
321.484652225451
 40
1.25
100
AcDbArc
 50
89.9850552239474
 51
180.014944775082
  0
LINE
  5
48B
100
AcDbEntity
  8
0-0
100
AcDbLine
  6
CONTINUOUS
370
50
 10
509.029983055757
 20
222.021751752338
 11
560.029983055757
 21
222.021751752338
  0
CIRCLE
  5
48C
100
AcDbEntity
  8
0-0
100
AcDbCircle
  6
CONTINUOUS
370
50
 10
523.529983055758
 20
210.521751752315
 40
3
  0
CIRCLE
  5
48D
100
AcDbEntity
  8
0-0
100
AcDbCircle
  6
CONTINUOUS
370
50
 10
545.52998305572
 20
210.521751752353
 40
3
  0
LINE
  5
48E
100
AcDbEntity
  8
0-0
100
AcDbLine
  6
CONTINUOUS
370
50
 10
449.229640663233
 20
183.521751752338
 11
449.029640663233
 21
183.521751752338
  0
LINE
  5
48F
100
AcDbEntity
  8
0-0
100
AcDbLine
  6
CONTINUOUS
370
50
 10
448.029640663233
 20
158.521751752338
 11
449.229640663233
 21
158.521751752338
  0
LINE
  5
490
100
AcDbEntity
  8
0-0
100
AcDbLine
  6
CONTINUOUS
370
50
 10
448.029640663233
 20
125.241977816602
 11
448.029640663233
 21
85.2419778166025
  0
LINE
  5
491
100
AcDbEntity
  8
0-0
100
AcDbLine
  6
CONTINUOUS
370
50
 10
508.529983055757
 20
221.521751752338
 11
508.529983055757
 21
164.521751752338
  0
LINE
  5
492
100
AcDbEntity
  8
0-0
100
AcDbLine
  6
CONTINUOUS
370
50
 10
560.529983055757
 20
221.521751752338
 11
560.529983055757
 21
164.521751752338
  0
LINE
  5
493
100
AcDbEntity
  8
0-0
100
AcDbLine
  6
CONTINUOUS
370
50
 10
560.529983055757
 20
221.521751752338
 11
560.029983055757
 21
222.021751752338
  0
LINE
  5
494
100
AcDbEntity
  8
0-0
100
AcDbLine
  6
CONTINUOUS
370
50
 10
509.029983055757
 20
222.021751752338
 11
508.529983055757
 21
221.521751752338
  0
CIRCLE
  5
495
100
AcDbEntity
  8
0-0
100
AcDbCircle
  6
CONTINUOUS
370
50
 10
534.529983055739
 20
194.021751752338
 40
8.5
  0
LINE
  5
496
100
AcDbEntity
  8
0-0
100
AcDbLine
  6
CONTINUOUS
370
50
 10
508.529983055757
 20
164.521751752338
 11
510.029983055756
 21
164.521751752338
  0
LINE
  5
497
100
AcDbEntity
  8
0-0
100
AcDbLine
  6
CONTINUOUS
370
50
 10
550.029983055756
 20
164.521751752338
 11
560.529983055757
 21
164.521751752338
  0
LINE
  5
498
100
AcDbEntity
  8
0-0
100
AcDbLine
  6
CONTINUOUS
370
50
 10
449.229640663233
 20
85.2419778166025
 11
449.229640663233
 21
125.241977816602
  0
LINE
  5
499
100
AcDbEntity
  8
0-0
100
AcDbLine
  6
CONTINUOUS
370
50
 10
449.229640663233
 20
158.521751752338
 11
449.229640663233
 21
183.521751752338
  0
LINE
  5
49A
100
AcDbEntity
  8
0-0
100
AcDbLine
  6
CONTINUOUS
370
50
 10
449.229640663233
 20
315.422152225475
 11
449.229640663233
 21
355.422152225475
  0
LINE
  5
49B
100
AcDbEntity
  8
0-0
100
AcDbLine
  6
CONTINUOUS
370
50
 10
520.529983055756
 20
176.521751752338
 11
520.529983055756
 21
166.521751752338
  0
LINE
  5
49C
100
AcDbEntity
  8
0-0
100
AcDbLine
  6
CONTINUOUS
370
50
 10
539.529983055756
 20
176.521751752338
 11
539.529983055756
 21
166.521751752338
  0
LINE
  5
49D
100
AcDbEntity
  8
0-0
100
AcDbLine
  6
CONTINUOUS
370
50
 10
539.529983055756
 20
176.521751752338
 11
520.529983055756
 21
176.521751752338
  0
LINE
  5
49E
100
AcDbEntity
  8
0-0
100
AcDbLine
  6
CONTINUOUS
370
50
 10
539.529983055756
 20
166.521751752338
 11
520.529983055756
 21
166.521751752338
  0
LINE
  5
49F
100
AcDbEntity
  8
0-0
100
AcDbLine
  6
CONTINUOUS
 62
7
370
30
 10
523.864983055756
 20
175.471751752338
 11
536.194983055756
 21
175.471751752338
  0
LINE
  5
4A0
100
AcDbEntity
  8
0-0
100
AcDbLine
  6
CONTINUOUS
 62
7
370
30
 10
524.38710622489
 20
174.871751752338
 11
535.874983055756
 21
174.871751752338
  0
CIRCLE
  5
4A1
100
AcDbEntity
  8
0-0
100
AcDbCircle
  6
CONTINUOUS
 62
7
370
30
 10
542.529983055756
 20
171.521751752338
 40
1.55
  0
LINE
  5
4A2
100
AcDbEntity
  8
0-0
100
AcDbLine
  6
CONTINUOUS
 62
7
370
30
 10
538.16459856178
 20
173.124455397004
 11
537.476923337018
 21
169.224455397005
  0
LINE
  5
4A3
100
AcDbEntity
  8
0-0
100
AcDbLine
  6
CONTINUOUS
 62
7
370
30
 10
537.642475392646
 20
172.524455397004
 11
537.166392544734
 21
169.824455397005
  0
ARC
  5
4A4
100
AcDbEntity
  8
0-0
100
AcDbCircle
  6
CONTINUOUS
 62
7
370
30
 10
535.196777038709
 20
170.171751752338
 40
2
100
AcDbArc
 50
270
 51
350.000000000001
  0
ARC
  5
4A5
100
AcDbEntity
  8
0-0
100
AcDbCircle
  6
CONTINUOUS
 62
7
370
30
 10
535.507307830993
 20
169.571751752338
 40
2
100
AcDbArc
 50
270
 51
350.000000000001
  0
CIRCLE
  5
4A6
100
AcDbEntity
  8
0-0
100
AcDbCircle
  6
CONTINUOUS
 62
7
370
30
 10
528.919983055756
 20
171.521751752338
 40
0.663496257411442
  0
CIRCLE
  5
4A7
100
AcDbEntity
  8
0-0
100
AcDbCircle
  6
CONTINUOUS
 62
7
370
30
 10
531.279983055756
 20
171.521751752338
 40
0.663496257411442
  0
CIRCLE
  5
4A8
100
AcDbEntity
  8
0-0
100
AcDbCircle
  6
CONTINUOUS
 62
7
370
30
 10
533.639983055756
 20
171.521751752338
 40
0.663496257411442
  0
CIRCLE
  5
4A9
100
AcDbEntity
  8
0-0
100
AcDbCircle
  6
CONTINUOUS
 62
7
370
30
 10
535.999983055756
 20
171.521751752338
 40
0.663496257411442
  0
CIRCLE
  5
4AA
100
AcDbEntity
  8
0-0
100
AcDbCircle
  6
CONTINUOUS
 62
7
370
30
 10
530.029983055756
 20
169.124039685338
 40
0.663496257411442
  0
CIRCLE
  5
4AB
100
AcDbEntity
  8
0-0
100
AcDbCircle
  6
CONTINUOUS
 62
7
370
30
 10
532.389983055756
 20
169.124039685338
 40
0.663496257411442
  0
CIRCLE
  5
4AC
100
AcDbEntity
  8
0-0
100
AcDbCircle
  6
CONTINUOUS
 62
7
370
30
 10
534.749983055756
 20
169.124039685338
 40
0.663496257411442
  0
CIRCLE
  5
4AD
100
AcDbEntity
  8
0-0
100
AcDbCircle
  6
CONTINUOUS
 62
7
370
30
 10
517.529983055756
 20
171.521751752338
 40
1.55
  0
ARC
  5
4AE
100
AcDbEntity
  8
0-0
100
AcDbCircle
  6
CONTINUOUS
 62
7
370
30
 10
524.863189072803
 20
170.171751752338
 40
2
100
AcDbArc
 50
189.999999999999
 51
270
  0
LINE
  5
4AF
100
AcDbEntity
  8
0-0
100
AcDbLine
  6
CONTINUOUS
 62
7
370
30
 10
522.417490718866
 20
172.524455397004
 11
522.893573566778
 21
169.824455397005
  0
ARC
  5
4B0
100
AcDbEntity
  8
0-0
100
AcDbCircle
  6
CONTINUOUS
 62
7
370
30
 10
524.552658280519
 20
169.571751752338
 40
2
100
AcDbArc
 50
189.999999999999
 51
270
  0
LINE
  5
4B1
100
AcDbEntity
  8
0-0
100
AcDbLine
  6
CONTINUOUS
 62
7
370
30
 10
521.895367549732
 20
173.124455397004
 11
522.583042774495
 21
169.224455397005
  0
CIRCLE
  5
4B2
100
AcDbEntity
  8
0-0
100
AcDbCircle
  6
CONTINUOUS
 62
7
370
30
 10
526.559983055756
 20
171.521751752338
 40
0.663496257411442
  0
CIRCLE
  5
4B3
100
AcDbEntity
  8
0-0
100
AcDbCircle
  6
CONTINUOUS
 62
7
370
30
 10
525.309983055756
 20
169.124039685338
 40
0.663496257411442
  0
LINE
  5
4B4
100
AcDbEntity
  8
0-0
100
AcDbLine
  6
CONTINUOUS
 62
7
370
30
 10
524.552658280519
 20
167.571751752338
 11
535.507307830993
 21
167.571751752338
  0
LINE
  5
4B5
100
AcDbEntity
  8
0-0
100
AcDbLine
  6
CONTINUOUS
 62
7
370
30
 10
535.196777038709
 20
168.171751752338
 11
524.863189072803
 21
168.171751752338
  0
CIRCLE
  5
4B6
100
AcDbEntity
  8
0-0
100
AcDbCircle
  6
CONTINUOUS
 62
7
370
30
 10
527.669983055756
 20
169.124039685338
 40
0.663496257411442
  0
ARC
  5
4B7
100
AcDbEntity
  8
0-0
100
AcDbCircle
  6
CONTINUOUS
 62
7
370
30
 10
523.864983055756
 20
173.471751752338
 40
2
100
AcDbArc
 50
90
 51
189.999999999999
  0
ARC
  5
4B8
100
AcDbEntity
  8
0-0
100
AcDbCircle
  6
CONTINUOUS
 62
7
370
30
 10
524.38710622489
 20
172.871751752338
 40
2
100
AcDbArc
 50
90
 51
189.999999999999
  0
ARC
  5
4B9
100
AcDbEntity
  8
0-0
100
AcDbCircle
  6
CONTINUOUS
 62
7
370
30
 10
535.672859886622
 20
172.871751752338
 40
2
100
AcDbArc
 50
350.000000000001
 51
90
  0
ARC
  5
4BA
100
AcDbEntity
  8
0-0
100
AcDbCircle
  6
CONTINUOUS
 62
7
370
30
 10
536.194983055756
 20
173.471751752338
 40
2
100
AcDbArc
 50
350.000000000001
 51
90
  0
CIRCLE
  5
4BB
100
AcDbEntity
  8
0-0
100
AcDbCircle
  6
CONTINUOUS
 62
7
370
30
 10
525.309983055756
 20
173.919463819338
 40
0.663496257411442
  0
CIRCLE
  5
4BC
100
AcDbEntity
  8
0-0
100
AcDbCircle
  6
CONTINUOUS
 62
7
370
30
 10
527.669983055756
 20
173.919463819338
 40
0.663496257411442
  0
CIRCLE
  5
4BD
100
AcDbEntity
  8
0-0
100
AcDbCircle
  6
CONTINUOUS
 62
7
370
30
 10
530.029983055756
 20
173.919463819338
 40
0.663496257411442
  0
CIRCLE
  5
4BE
100
AcDbEntity
  8
0-0
100
AcDbCircle
  6
CONTINUOUS
 62
7
370
30
 10
532.389983055756
 20
173.919463819338
 40
0.663496257411442
  0
CIRCLE
  5
4BF
100
AcDbEntity
  8
0-0
100
AcDbCircle
  6
CONTINUOUS
 62
7
370
30
 10
534.749983055756
 20
173.919463819338
 40
0.663496257411442
  0
CIRCLE
  5
4C0
100
AcDbEntity
  8
0-0
100
AcDbCircle
  6
CONTINUOUS
 62
7
370
30
 10
532.389983055756
 20
173.919463819338
 40
0.5
  0
CIRCLE
  5
4C1
100
AcDbEntity
  8
0-0
100
AcDbCircle
  6
CONTINUOUS
 62
7
370
30
 10
534.749983055756
 20
173.919463819338
 40
0.5
  0
CIRCLE
  5
4C2
100
AcDbEntity
  8
0-0
100
AcDbCircle
  6
CONTINUOUS
 62
7
370
30
 10
530.029983055756
 20
173.919463819338
 40
0.5
  0
CIRCLE
  5
4C3
100
AcDbEntity
  8
0-0
100
AcDbCircle
  6
CONTINUOUS
 62
7
370
30
 10
527.669983055756
 20
173.919463819338
 40
0.5
  0
CIRCLE
  5
4C4
100
AcDbEntity
  8
0-0
100
AcDbCircle
  6
CONTINUOUS
 62
7
370
30
 10
525.309983055756
 20
173.919463819338
 40
0.5
  0
CIRCLE
  5
4C5
100
AcDbEntity
  8
0-0
100
AcDbCircle
  6
CONTINUOUS
 62
7
370
30
 10
527.669983055756
 20
169.124039685338
 40
0.5
  0
CIRCLE
  5
4C6
100
AcDbEntity
  8
0-0
100
AcDbCircle
  6
CONTINUOUS
 62
7
370
30
 10
525.309983055756
 20
169.124039685338
 40
0.5
  0
CIRCLE
  5
4C7
100
AcDbEntity
  8
0-0
100
AcDbCircle
  6
CONTINUOUS
 62
7
370
30
 10
526.559983055756
 20
171.521751752338
 40
0.5
  0
CIRCLE
  5
4C8
100
AcDbEntity
  8
0-0
100
AcDbCircle
  6
CONTINUOUS
 62
7
370
30
 10
530.029983055756
 20
169.124039685338
 40
0.5
  0
CIRCLE
  5
4C9
100
AcDbEntity
  8
0-0
100
AcDbCircle
  6
CONTINUOUS
 62
7
370
30
 10
534.749983055756
 20
169.124039685338
 40
0.5
  0
CIRCLE
  5
4CA
100
AcDbEntity
  8
0-0
100
AcDbCircle
  6
CONTINUOUS
 62
7
370
30
 10
532.389983055756
 20
169.124039685338
 40
0.5
  0
CIRCLE
  5
4CB
100
AcDbEntity
  8
0-0
100
AcDbCircle
  6
CONTINUOUS
 62
7
370
30
 10
531.279983055756
 20
171.521751752338
 40
0.5
  0
CIRCLE
  5
4CC
100
AcDbEntity
  8
0-0
100
AcDbCircle
  6
CONTINUOUS
 62
7
370
30
 10
528.919983055756
 20
171.521751752338
 40
0.5
  0
CIRCLE
  5
4CD
100
AcDbEntity
  8
0-0
100
AcDbCircle
  6
CONTINUOUS
 62
7
370
30
 10
535.999983055756
 20
171.521751752338
 40
0.5
  0
CIRCLE
  5
4CE
100
AcDbEntity
  8
0-0
100
AcDbCircle
  6
CONTINUOUS
 62
7
370
30
 10
533.639983055756
 20
171.521751752338
 40
0.5
  0
LINE
  5
4CF
100
AcDbEntity
  8
0-0
100
AcDbLine
  6
CONTINUOUS
370
50
 10
513.029983055756
 20
183.521751752338
 11
547.029983055756
 21
183.521751752338
  0
LINE
  5
4D0
100
AcDbEntity
  8
0-0
100
AcDbLine
  6
CONTINUOUS
370
50
 10
510.029983055756
 20
158.521751752338
 11
550.029983055756
 21
158.521751752338
  0
CIRCLE
  5
4D1
100
AcDbEntity
  8
0-0
100
AcDbCircle
  6
CONTINUOUS
370
20
 10
518.029983055756
 20
161.521751752338
 40
2
  0
CIRCLE
  5
4D2
100
AcDbEntity
  8
0-0
100
AcDbCircle
  6
CONTINUOUS
370
20
 10
542.029983055756
 20
161.521751752338
 40
2
  0
CIRCLE
  5
4D3
100
AcDbEntity
  8
0-0
100
AcDbCircle
  6
CONTINUOUS
370
20
 10
547.029983055756
 20
179.521751752338
 40
2
  0
CIRCLE
  5
4D4
100
AcDbEntity
  8
0-0
100
AcDbCircle
  6
CONTINUOUS
370
20
 10
513.029983055756
 20
179.521751752338
 40
2
  0
ARC
  5
4D5
100
AcDbEntity
  8
0-0
100
AcDbCircle
  6
CONTINUOUS
370
50
 10
547.029983055756
 20
180.521751752338
 40
3
100
AcDbArc
 50
0
 51
90
  0
ARC
  5
4D6
100
AcDbEntity
  8
0-0
100
AcDbCircle
  6
CONTINUOUS
370
50
 10
513.029983055756
 20
180.521751752338
 40
3
100
AcDbArc
 50
90
 51
180
  0
LINE
  5
4D7
100
AcDbEntity
  8
0-0
100
AcDbLine
  6
CONTINUOUS
370
50
 10
189.029640663233
 20
73.0419778166026
 11
189.029640663233
 21
128.441977816602
  0
LINE
  5
4D8
100
AcDbEntity
  8
0-0
100
AcDbLine
  6
CONTINUOUS
370
50
 10
189.029640663233
 20
198.621751752338
 11
189.029640663233
 21
223.621751752338
  0
CIRCLE
  5
4D9
100
AcDbEntity
  8
0-0
100
AcDbCircle
  6
CONTINUOUS
370
40
 10
323.029640663233
 20
115.741977816602
 40
1.65
  0
CIRCLE
  5
4DA
100
AcDbEntity
  8
0-0
100
AcDbCircle
  6
CONTINUOUS
370
40
 10
323.029640663233
 20
85.7419778166025
 40
1.65
  0
CIRCLE
  5
4DB
100
AcDbEntity
  8
0-0
100
AcDbCircle
  6
CONTINUOUS
370
20
 10
323.029640663233
 20
85.7419778166025
 40
2
  0
CIRCLE
  5
4DC
100
AcDbEntity
  8
0-0
100
AcDbCircle
  6
CONTINUOUS
370
20
 10
323.029640663233
 20
115.741977816602
 40
2
  0
ARC
  5
4DD
100
AcDbEntity
  8
0-0
100
AcDbCircle
  6
CONTINUOUS
370
50
 10
250.529640663233
 20
96.2419778166025
 40
1.75
100
AcDbArc
 50
31.0027191338849
 51
-31.0027191338849
  0
LINE
  5
4DE
100
AcDbEntity
  8
0-0
100
AcDbLine
  6
CONTINUOUS
370
50
 10
252.029640663233
 20
74.7419778166025
 11
252.029640663233
 21
126.741977816602
  0
LINE
  5
4DF
100
AcDbEntity
  8
0-0
100
AcDbLine
  6
CONTINUOUS
370
50
 10
252.029640663233
 20
158.621751752338
 11
252.029640663233
 21
158.521751752338
  0
LINE
  5
4E0
100
AcDbEntity
  8
0-0
100
AcDbLine
  6
CONTINUOUS
370
50
 10
66.422824385996
 20
167.521751752338
 11
66.422824385996
 21
164.521751752338
  0
LINE
  5
4E1
100
AcDbEntity
  8
0-0
100
AcDbLine
  6
CONTINUOUS
370
50
 10
72.422824385996
 20
167.521751752338
 11
72.422824385996
 21
164.521751752338
  0
LINE
  5
4E2
100
AcDbEntity
  8
0-0
100
AcDbLine
  6
CONTINUOUS
370
50
 10
250.529640663233
 20
80.7419778166025
 11
244.029640663233
 21
80.7419778166025
  0
LINE
  5
4E3
100
AcDbEntity
  8
0-0
100
AcDbLine
  6
CONTINUOUS
370
50
 10
252.029640663233
 20
88.7419772915313
 11
249.029641348633
 21
88.7419772915313
  0
LINE
  5
4E4
100
AcDbEntity
  8
0-0
100
AcDbLine
  6
CONTINUOUS
370
50
 10
252.029640663233
 20
112.741977291503
 11
249.029641348633
 21
112.741977291503
  0
LINE
  5
4E5
100
AcDbEntity
  8
0-0
100
AcDbLine
  6
CONTINUOUS
370
50
 10
244.029640663233
 20
120.741977816602
 11
252.029640663233
 21
120.741977816602
  0
LINE
  5
4E6
100
AcDbEntity
  8
0-0
100
AcDbLine
  6
CONTINUOUS
370
50
 10
291.029640663233
 20
334.919318608692
 11
291.029640663233
 21
344.919318608692
  0
LINE
  5
4E7
100
AcDbEntity
  8
0-0
100
AcDbLine
  6
CONTINUOUS
370
50
 10
529.529983055748
 20
223.621751752338
 11
529.529983055748
 21
263.52175175234
  0
LINE
  5
4E8
100
AcDbEntity
  8
0-0
100
AcDbLine
  6
CONTINUOUS
370
50
 10
539.529983055748
 20
223.621751752338
 11
539.529983055748
 21
263.52175175234
  0
LINE
  5
4E9
100
AcDbEntity
  8
0-0
100
AcDbLine
  6
CONTINUOUS
370
50
 10
309.529640663233
 20
344.919318608692
 11
291.029640663233
 21
344.919318608692
  0
LINE
  5
4EA
100
AcDbEntity
  8
0-0
100
AcDbLine
  6
CONTINUOUS
370
50
 10
291.029640663233
 20
334.919318608692
 11
309.529640663233
 21
334.919318608692
  0
CIRCLE
  5
4EB
100
AcDbEntity
  8
0-0
100
AcDbCircle
  6
BYLAYER
370
13
 10
45.922824385996
 20
171.021751752338
 40
2.00000000000001
  0
CIRCLE
  5
4EC
100
AcDbEntity
  8
0-0
100
AcDbCircle
  6
BYLAYER
370
13
 10
45.922824385996
 20
171.021751752338
 40
2.50000000000001
  0
CIRCLE
  5
4ED
100
AcDbEntity
  8
0-0
100
AcDbCircle
  6
BYLAYER
370
13
 10
45.922824385996
 20
171.021751752338
 40
2.30000000000001
  0
ARC
  5
4EE
100
AcDbEntity
  8
0-0
100
AcDbCircle
  6
CONTINUOUS
370
50
 10
45.9228243859961
 20
171.021751752338
 40
3.5
100
AcDbArc
 50
73.9949577734316
 51
35.6860742340621
  0
CIRCLE
  5
4EF
100
AcDbEntity
  8
0-0
100
AcDbCircle
  6
BYLAYER
370
13
 10
45.9228243859961
 20
171.021751752338
 40
2.79999999999999
  0
CIRCLE
  5
4F0
100
AcDbEntity
  8
0-0
100
AcDbCircle
  6
BYLAYER
370
13
 10
45.9228243859961
 20
171.021751752338
 40
2.5
  0
ARC
  5
4F1
100
AcDbEntity
  8
0-0
100
AcDbCircle
  6
BYLAYER
370
13
 10
45.9228243859961
 20
171.021751752338
 40
3.49999999999999
100
AcDbArc
 50
73.9949577734306
 51
35.6860742340632
  0
ARC
  5
4F2
100
AcDbEntity
  8
0-0
100
AcDbCircle
  6
BYLAYER
370
13
 10
45.9228243859961
 20
171.021751752338
 40
3.19999999999999
100
AcDbArc
 50
59.114879615439
 51
44.8491202154362
  0
CIRCLE
  5
4F3
100
AcDbEntity
  8
0-0
100
AcDbCircle
  6
CONTINUOUS
370
30
 10
542.529983055756
 20
171.521751752336
 40
1.55
  0
CIRCLE
  5
4F4
100
AcDbEntity
  8
0-0
100
AcDbCircle
  6
BYLAYER
370
13
 10
542.529983055756
 20
171.521751752338
 40
0.890000000000001
  0
CIRCLE
  5
4F5
100
AcDbEntity
  8
0-0
100
AcDbCircle
  6
BYLAYER
370
13
 10
542.529983055756
 20
171.521751752338
 40
1.15
  0
LWPOLYLINE
  5
4F6
100
AcDbEntity
  8
0-0
100
AcDbPolyline
  6
BYLAYER
370
13
 90
     6
 70
     1
 10
541.230944950079
  20
173.771751752338
 10
539.931906844403
  20
171.521751752338
 10
541.230944950079
  20
169.271751752338
 10
543.829021161432
  20
169.271751752338
 10
545.128059267109
  20
171.521751752338
 10
543.829021161433
  20
173.771751752338
  0
CIRCLE
  5
4F7
100
AcDbEntity
  8
0-0
100
AcDbCircle
  6
BYLAYER
370
13
 10
542.529983055756
 20
171.521751752338
 40
2.25
  0
ARC
  5
4F8
100
AcDbEntity
  8
0-0
100
AcDbCircle
  6
CONTINUOUS
370
50
 10
414.029640663233
 20
339.922152225475
 40
5.5
100
AcDbArc
 50
-90
 51
90
  0
LINE
  5
4F9
100
AcDbEntity
  8
0-0
100
AcDbLine
  6
CONTINUOUS
370
50
 10
414.029640663233
 20
345.422152225475
 11
291.029640663233
 21
345.422152225475
  0
LINE
  5
4FA
100
AcDbEntity
  8
0-0
100
AcDbLine
  6
CONTINUOUS
370
50
 10
414.029640663233
 20
334.422152225475
 11
291.029640663233
 21
334.422152225475
  0
LINE
  5
4FB
100
AcDbEntity
  8
0-0
100
AcDbLine
  6
CONTINUOUS
370
50
 10
510.029983055756
 20
180.521751752338
 11
510.029983055756
 21
158.521751752338
  0
LINE
  5
4FC
100
AcDbEntity
  8
0-0
100
AcDbLine
  6
CONTINUOUS
370
50
 10
550.029983055756
 20
180.521751752338
 11
550.029983055756
 21
158.521751752338
  0
ARC
  5
4FD
100
AcDbEntity
  8
0-0
100
AcDbCircle
  6
CONTINUOUS
370
30
 10
452.929640663233
 20
328.272152225475
 40
1
100
AcDbArc
 50
270
 51
360
  0
LINE
  5
4FE
100
AcDbEntity
  8
0-0
100
AcDbLine
  6
CONTINUOUS
370
30
 10
452.929640663233
 20
327.272152225475
 11
449.229640663233
 21
327.272152225475
  0
LINE
  5
4FF
100
AcDbEntity
  8
0-0
100
AcDbLine
  6
CONTINUOUS
370
30
 10
453.929640663233
 20
332.422152225475
 11
453.929640663233
 21
328.272152225475
  0
LINE
  5
500
100
AcDbEntity
  8
0-0
100
AcDbLine
  6
CONTINUOUS
370
30
 10
449.229640663233
 20
350.430199384357
 11
449.684825966871
 21
350.907305768867
  0
LINE
  5
501
100
AcDbEntity
  8
0-0
100
AcDbLine
  6
CONTINUOUS
370
30
 10
449.229640663233
 20
349.808543430125
 11
449.684825966871
 21
349.331437045615
  0
LINE
  5
502
100
AcDbEntity
  8
0-0
100
AcDbLine
  6
CONTINUOUS
370
30
 10
449.229640663233
 20
348.854330661105
 11
449.684825966871
 21
349.331437045615
  0
LINE
  5
503
100
AcDbEntity
  8
0-0
100
AcDbLine
  6
CONTINUOUS
370
30
 10
453.574455359595
 20
350.907305768867
 11
449.684825966871
 21
350.907305768867
  0
LINE
  5
504
100
AcDbEntity
  8
0-0
100
AcDbLine
  6
CONTINUOUS
370
30
 10
453.574455359595
 20
349.331437045615
 11
449.684825966871
 21
349.331437045615
  0
LINE
  5
505
100
AcDbEntity
  8
0-0
100
AcDbLine
  6
CONTINUOUS
370
30
 10
454.029640663233
 20
350.430199384357
 11
453.574455359595
 21
350.907305768867
  0
LINE
  5
506
100
AcDbEntity
  8
0-0
100
AcDbLine
  6
CONTINUOUS
370
30
 10
454.029640663233
 20
348.854330661105
 11
453.574455359595
 21
349.331437045615
  0
LINE
  5
507
100
AcDbEntity
  8
0-0
100
AcDbLine
  6
CONTINUOUS
370
30
 10
454.029640663233
 20
349.808543430125
 11
453.574455359595
 21
349.331437045615
  0
LINE
  5
508
100
AcDbEntity
  8
0-0
100
AcDbLine
  6
CONTINUOUS
370
30
 10
449.229640663233
 20
350.430199384357
 11
449.229640663233
 21
345.414105066594
  0
LINE
  5
509
100
AcDbEntity
  8
0-0
100
AcDbLine
  6
CONTINUOUS
370
30
 10
454.029640663233
 20
350.430199384357
 11
454.029640663233
 21
347.422152225475
  0
LINE
  5
50A
100
AcDbEntity
  8
0-0
100
AcDbLine
  6
CONTINUOUS
370
30
 10
449.229640663233
 20
321.989973789846
 11
449.684825966871
 21
321.512867405336
  0
LINE
  5
50B
100
AcDbEntity
  8
0-0
100
AcDbLine
  6
CONTINUOUS
370
30
 10
449.229640663233
 20
321.035761020826
 11
449.684825966871
 21
321.512867405336
  0
LINE
  5
50C
100
AcDbEntity
  8
0-0
100
AcDbLine
  6
CONTINUOUS
370
30
 10
449.229640663233
 20
320.414105066594
 11
449.684825966871
 21
319.936998682084
  0
LINE
  5
50D
100
AcDbEntity
  8
0-0
100
AcDbLine
  6
CONTINUOUS
370
30
 10
453.574455359595
 20
319.936998682084
 11
449.684825966871
 21
319.936998682084
  0
LINE
  5
50E
100
AcDbEntity
  8
0-0
100
AcDbLine
  6
CONTINUOUS
370
30
 10
453.574455359595
 20
321.512867405336
 11
449.684825966871
 21
321.512867405337
  0
LINE
  5
50F
100
AcDbEntity
  8
0-0
100
AcDbLine
  6
CONTINUOUS
370
30
 10
454.029640663233
 20
321.035761020826
 11
453.574455359595
 21
321.512867405337
  0
LINE
  5
510
100
AcDbEntity
  8
0-0
100
AcDbLine
  6
CONTINUOUS
370
30
 10
454.029640663233
 20
321.989973789846
 11
453.574455359595
 21
321.512867405337
  0
LINE
  5
511
100
AcDbEntity
  8
0-0
100
AcDbLine
  6
CONTINUOUS
370
30
 10
454.029640663233
 20
320.414105066594
 11
453.574455359595
 21
319.936998682084
  0
LINE
  5
512
100
AcDbEntity
  8
0-0
100
AcDbLine
  6
CONTINUOUS
370
30
 10
449.229640663233
 20
325.430199384357
 11
449.684825966871
 21
325.907305768867
  0
LINE
  5
513
100
AcDbEntity
  8
0-0
100
AcDbLine
  6
CONTINUOUS
370
30
 10
449.229640663233
 20
324.808543430124
 11
449.684825966871
 21
324.331437045614
  0
LINE
  5
514
100
AcDbEntity
  8
0-0
100
AcDbLine
  6
CONTINUOUS
370
30
 10
449.229640663233
 20
323.854330661104
 11
449.684825966871
 21
324.331437045614
  0
LINE
  5
515
100
AcDbEntity
  8
0-0
100
AcDbLine
  6
CONTINUOUS
370
30
 10
453.574455359595
 20
325.907305768867
 11
449.684825966871
 21
325.907305768867
  0
LINE
  5
516
100
AcDbEntity
  8
0-0
100
AcDbLine
  6
CONTINUOUS
370
30
 10
453.574455359595
 20
324.331437045615
 11
449.684825966871
 21
324.331437045614
  0
LINE
  5
517
100
AcDbEntity
  8
0-0
100
AcDbLine
  6
CONTINUOUS
370
30
 10
454.029640663233
 20
325.430199384357
 11
453.574455359595
 21
325.907305768867
  0
LINE
  5
518
100
AcDbEntity
  8
0-0
100
AcDbLine
  6
CONTINUOUS
370
30
 10
454.029640663233
 20
323.854330661104
 11
453.574455359595
 21
324.331437045615
  0
LINE
  5
519
100
AcDbEntity
  8
0-0
100
AcDbLine
  6
CONTINUOUS
370
30
 10
454.029640663233
 20
324.808543430124
 11
453.574455359595
 21
324.331437045615
  0
LINE
  5
51A
100
AcDbEntity
  8
0-0
100
AcDbLine
  6
CONTINUOUS
370
30
 10
449.229640663233
 20
325.430199384357
 11
449.229640663233
 21
320.414105066594
  0
LINE
  5
51B
100
AcDbEntity
  8
0-0
100
AcDbLine
  6
CONTINUOUS
370
30
 10
454.029640663233
 20
325.430199384357
 11
454.029640663233
 21
320.414105066594
  0
LINE
  5
51C
100
AcDbEntity
  8
0-0
100
AcDbLine
  6
CONTINUOUS
370
50
 10
449.229640663233
 20
355.422152225475
 11
449.029640663233
 21
355.422152225475
  0
LINE
  5
51D
100
AcDbEntity
  8
0-0
100
AcDbLine
  6
CONTINUOUS
370
50
 10
449.029640663233
 20
315.422152225475
 11
449.229640663233
 21
315.422152225475
  0
LINE
  5
51E
100
AcDbEntity
  8
0-0
100
AcDbLine
  6
CONTINUOUS
370
50
 10
449.229640663233
 20
125.241977816602
 11
448.029640663233
 21
125.241977816602
  0
LINE
  5
51F
100
AcDbEntity
  8
0-0
100
AcDbLine
  6
CONTINUOUS
370
50
 10
448.029640663233
 20
85.2419778166025
 11
449.229640663233
 21
85.2419778166025
  0
ARC
  5
520
100
AcDbEntity
  8
0-0
100
AcDbCircle
  6
CONTINUOUS
370
30
 10
452.929640663233
 20
98.0919778166024
 40
1
100
AcDbArc
 50
270
 51
360
  0
LINE
  5
521
100
AcDbEntity
  8
0-0
100
AcDbLine
  6
CONTINUOUS
370
30
 10
452.929640663233
 20
97.0919778166024
 11
449.229640663233
 21
97.0919778166024
  0
ARC
  5
522
100
AcDbEntity
  8
0-0
100
AcDbCircle
  6
CONTINUOUS
370
30
 10
452.929640663233
 20
112.391977816602
 40
1
100
AcDbArc
 50
0
 51
89.9999999999934
  0
LINE
  5
523
100
AcDbEntity
  8
0-0
100
AcDbLine
  6
CONTINUOUS
370
30
 10
449.229640663233
 20
113.391977816603
 11
452.929640663233
 21
113.391977816602
  0
LINE
  5
524
100
AcDbEntity
  8
0-0
100
AcDbLine
  6
CONTINUOUS
370
30
 10
453.929640663233
 20
112.391977816602
 11
453.929640663233
 21
98.0919778166024
  0
LINE
  5
525
100
AcDbEntity
  8
0-0
100
AcDbLine
  6
CONTINUOUS
370
30
 10
449.229640663233
 20
116.809799380974
 11
449.684825966871
 21
116.332692996464
  0
LINE
  5
526
100
AcDbEntity
  8
0-0
100
AcDbLine
  6
CONTINUOUS
370
30
 10
449.229640663233
 20
115.855586611954
 11
449.684825966871
 21
116.332692996464
  0
LINE
  5
527
100
AcDbEntity
  8
0-0
100
AcDbLine
  6
CONTINUOUS
370
30
 10
449.229640663233
 20
115.233930657721
 11
449.684825966871
 21
114.756824273211
  0
LINE
  5
528
100
AcDbEntity
  8
0-0
100
AcDbLine
  6
CONTINUOUS
370
30
 10
453.574455359595
 20
114.756824273212
 11
449.684825966871
 21
114.756824273211
  0
LINE
  5
529
100
AcDbEntity
  8
0-0
100
AcDbLine
  6
CONTINUOUS
370
30
 10
453.574455359595
 20
116.332692996464
 11
449.684825966871
 21
116.332692996464
  0
LINE
  5
52A
100
AcDbEntity
  8
0-0
100
AcDbLine
  6
CONTINUOUS
370
30
 10
454.029640663233
 20
115.855586611954
 11
453.574455359595
 21
116.332692996464
  0
LINE
  5
52B
100
AcDbEntity
  8
0-0
100
AcDbLine
  6
CONTINUOUS
370
30
 10
454.029640663233
 20
116.809799380974
 11
453.574455359595
 21
116.332692996464
  0
LINE
  5
52C
100
AcDbEntity
  8
0-0
100
AcDbLine
  6
CONTINUOUS
370
30
 10
454.029640663233
 20
115.233930657722
 11
453.574455359595
 21
114.756824273212
  0
LINE
  5
52D
100
AcDbEntity
  8
0-0
100
AcDbLine
  6
CONTINUOUS
370
30
 10
449.229640663233
 20
120.250024975484
 11
449.684825966871
 21
120.727131359994
  0
LINE
  5
52E
100
AcDbEntity
  8
0-0
100
AcDbLine
  6
CONTINUOUS
370
30
 10
449.229640663233
 20
119.628369021252
 11
449.684825966871
 21
119.151262636742
  0
LINE
  5
52F
100
AcDbEntity
  8
0-0
100
AcDbLine
  6
CONTINUOUS
370
30
 10
449.229640663233
 20
118.674156252232
 11
449.684825966871
 21
119.151262636742
  0
LINE
  5
530
100
AcDbEntity
  8
0-0
100
AcDbLine
  6
CONTINUOUS
370
30
 10
453.574455359595
 20
120.727131359994
 11
449.684825966871
 21
120.727131359994
  0
LINE
  5
531
100
AcDbEntity
  8
0-0
100
AcDbLine
  6
CONTINUOUS
370
30
 10
453.574455359595
 20
119.151262636742
 11
449.684825966871
 21
119.151262636741
  0
LINE
  5
532
100
AcDbEntity
  8
0-0
100
AcDbLine
  6
CONTINUOUS
370
30
 10
454.029640663233
 20
120.250024975484
 11
453.574455359595
 21
120.727131359994
  0
LINE
  5
533
100
AcDbEntity
  8
0-0
100
AcDbLine
  6
CONTINUOUS
370
30
 10
454.029640663233
 20
118.674156252232
 11
453.574455359595
 21
119.151262636742
  0
LINE
  5
534
100
AcDbEntity
  8
0-0
100
AcDbLine
  6
CONTINUOUS
370
30
 10
454.029640663233
 20
119.628369021252
 11
453.574455359595
 21
119.151262636742
  0
LINE
  5
535
100
AcDbEntity
  8
0-0
100
AcDbLine
  6
CONTINUOUS
370
30
 10
449.229640663233
 20
120.250024975484
 11
449.229640663233
 21
115.233930657721
  0
LINE
  5
536
100
AcDbEntity
  8
0-0
100
AcDbLine
  6
CONTINUOUS
370
30
 10
454.029640663233
 20
120.250024975484
 11
454.029640663233
 21
115.233930657722
  0
LINE
  5
537
100
AcDbEntity
  8
0-0
100
AcDbLine
  6
CONTINUOUS
370
30
 10
449.229640663233
 20
91.8097993809732
 11
449.684825966871
 21
91.3326929964633
  0
LINE
  5
538
100
AcDbEntity
  8
0-0
100
AcDbLine
  6
CONTINUOUS
370
30
 10
449.229640663233
 20
90.8555866119535
 11
449.684825966871
 21
91.3326929964633
  0
LINE
  5
539
100
AcDbEntity
  8
0-0
100
AcDbLine
  6
CONTINUOUS
370
30
 10
449.229640663233
 20
90.233930657721
 11
449.684825966871
 21
89.7568242732107
  0
LINE
  5
53A
100
AcDbEntity
  8
0-0
100
AcDbLine
  6
CONTINUOUS
370
30
 10
453.574455359595
 20
89.7568242732112
 11
449.684825966871
 21
89.7568242732107
  0
LINE
  5
53B
100
AcDbEntity
  8
0-0
100
AcDbLine
  6
CONTINUOUS
370
30
 10
453.574455359595
 20
91.3326929964633
 11
449.684825966871
 21
91.3326929964636
  0
LINE
  5
53C
100
AcDbEntity
  8
0-0
100
AcDbLine
  6
CONTINUOUS
370
30
 10
454.029640663233
 20
90.8555866119535
 11
453.574455359595
 21
91.3326929964636
  0
LINE
  5
53D
100
AcDbEntity
  8
0-0
100
AcDbLine
  6
CONTINUOUS
370
30
 10
454.029640663233
 20
91.8097993809734
 11
453.574455359595
 21
91.3326929964636
  0
LINE
  5
53E
100
AcDbEntity
  8
0-0
100
AcDbLine
  6
CONTINUOUS
370
30
 10
454.029640663233
 20
90.2339306577213
 11
453.574455359595
 21
89.7568242732112
  0
LINE
  5
53F
100
AcDbEntity
  8
0-0
100
AcDbLine
  6
CONTINUOUS
370
30
 10
449.229640663233
 20
95.2500249754835
 11
449.684825966871
 21
95.7271313599938
  0
LINE
  5
540
100
AcDbEntity
  8
0-0
100
AcDbLine
  6
CONTINUOUS
370
30
 10
449.229640663233
 20
94.6283690212511
 11
449.684825966871
 21
94.1512626367412
  0
LINE
  5
541
100
AcDbEntity
  8
0-0
100
AcDbLine
  6
CONTINUOUS
370
30
 10
449.229640663233
 20
93.6741562522314
 11
449.684825966871
 21
94.1512626367412
  0
LINE
  5
542
100
AcDbEntity
  8
0-0
100
AcDbLine
  6
CONTINUOUS
370
30
 10
453.574455359595
 20
95.7271313599936
 11
449.684825966871
 21
95.7271313599938
  0
LINE
  5
543
100
AcDbEntity
  8
0-0
100
AcDbLine
  6
CONTINUOUS
370
30
 10
453.574455359595
 20
94.1512626367415
 11
449.684825966871
 21
94.151262636741
  0
LINE
  5
544
100
AcDbEntity
  8
0-0
100
AcDbLine
  6
CONTINUOUS
370
30
 10
454.029640663233
 20
95.2500249754838
 11
453.574455359595
 21
95.7271313599936
  0
LINE
  5
545
100
AcDbEntity
  8
0-0
100
AcDbLine
  6
CONTINUOUS
370
30
 10
454.029640663233
 20
93.6741562522314
 11
453.574455359595
 21
94.1512626367415
  0
LINE
  5
546
100
AcDbEntity
  8
0-0
100
AcDbLine
  6
CONTINUOUS
370
30
 10
454.029640663233
 20
94.6283690212513
 11
453.574455359595
 21
94.1512626367415
  0
LINE
  5
547
100
AcDbEntity
  8
0-0
100
AcDbLine
  6
CONTINUOUS
370
30
 10
449.229640663233
 20
95.2500249754835
 11
449.229640663233
 21
90.233930657721
  0
LINE
  5
548
100
AcDbEntity
  8
0-0
100
AcDbLine
  6
CONTINUOUS
370
30
 10
454.029640663233
 20
95.2500249754838
 11
454.029640663233
 21
90.2339306577213
  0
LINE
  5
549
100
AcDbEntity
  8
0-0
100
AcDbLine
  6
CONTINUOUS
370
20
 10
452.929640663233
 20
176.271751752339
 11
449.229640663233
 21
176.271751752339
  0
ARC
  5
54A
100
AcDbEntity
  8
0-0
100
AcDbCircle
  6
CONTINUOUS
370
20
 10
452.929640663233
 20
175.271751752339
 40
1
100
AcDbArc
 50
0
 51
90
  0
ARC
  5
54B
100
AcDbEntity
  8
0-0
100
AcDbCircle
  6
CONTINUOUS
370
20
 10
452.929640663233
 20
167.771751752338
 40
1
100
AcDbArc
 50
270
 51
360
  0
LINE
  5
54C
100
AcDbEntity
  8
0-0
100
AcDbLine
  6
CONTINUOUS
370
20
 10
452.929640663233
 20
166.771751752338
 11
449.229640663233
 21
166.771751752338
  0
LINE
  5
54D
100
AcDbEntity
  8
0-0
100
AcDbLine
  6
CONTINUOUS
370
20
 10
449.229640663233
 20
170.589573316709
 11
449.684825966871
 21
170.112466932199
  0
LINE
  5
54E
100
AcDbEntity
  8
0-0
100
AcDbLine
  6
CONTINUOUS
370
20
 10
449.229640663233
 20
169.635360547689
 11
449.684825966871
 21
170.112466932199
  0
LINE
  5
54F
100
AcDbEntity
  8
0-0
100
AcDbLine
  6
CONTINUOUS
370
20
 10
449.229640663233
 20
169.013704593457
 11
449.684825966871
 21
168.536598208947
  0
LINE
  5
550
100
AcDbEntity
  8
0-0
100
AcDbLine
  6
CONTINUOUS
370
20
 10
453.574455359595
 20
168.536598208947
 11
449.684825966871
 21
168.536598208947
  0
LINE
  5
551
100
AcDbEntity
  8
0-0
100
AcDbLine
  6
CONTINUOUS
370
20
 10
453.574455359595
 20
170.112466932199
 11
449.684825966871
 21
170.112466932199
  0
LINE
  5
552
100
AcDbEntity
  8
0-0
100
AcDbLine
  6
CONTINUOUS
370
20
 10
454.029640663233
 20
169.635360547689
 11
453.574455359595
 21
170.112466932199
  0
LINE
  5
553
100
AcDbEntity
  8
0-0
100
AcDbLine
  6
CONTINUOUS
370
20
 10
454.029640663233
 20
170.589573316709
 11
453.574455359595
 21
170.112466932199
  0
LINE
  5
554
100
AcDbEntity
  8
0-0
100
AcDbLine
  6
CONTINUOUS
370
20
 10
454.029640663233
 20
169.013704593457
 11
453.574455359595
 21
168.536598208947
  0
LINE
  5
555
100
AcDbEntity
  8
0-0
100
AcDbLine
  6
CONTINUOUS
370
20
 10
449.229640663233
 20
174.02979891122
 11
449.684825966871
 21
174.50690529573
  0
LINE
  5
556
100
AcDbEntity
  8
0-0
100
AcDbLine
  6
CONTINUOUS
370
20
 10
449.229640663233
 20
173.408142956987
 11
449.684825966871
 21
172.931036572477
  0
LINE
  5
557
100
AcDbEntity
  8
0-0
100
AcDbLine
  6
CONTINUOUS
370
20
 10
449.229640663233
 20
172.453930187967
 11
449.684825966871
 21
172.931036572477
  0
LINE
  5
558
100
AcDbEntity
  8
0-0
100
AcDbLine
  6
CONTINUOUS
370
20
 10
453.574455359595
 20
174.50690529573
 11
449.684825966871
 21
174.50690529573
  0
LINE
  5
559
100
AcDbEntity
  8
0-0
100
AcDbLine
  6
CONTINUOUS
370
20
 10
453.574455359595
 20
172.931036572477
 11
449.684825966871
 21
172.931036572477
  0
LINE
  5
55A
100
AcDbEntity
  8
0-0
100
AcDbLine
  6
CONTINUOUS
370
20
 10
454.029640663233
 20
174.02979891122
 11
453.574455359595
 21
174.50690529573
  0
LINE
  5
55B
100
AcDbEntity
  8
0-0
100
AcDbLine
  6
CONTINUOUS
370
20
 10
454.029640663233
 20
172.453930187967
 11
453.574455359595
 21
172.931036572477
  0
LINE
  5
55C
100
AcDbEntity
  8
0-0
100
AcDbLine
  6
CONTINUOUS
370
20
 10
454.029640663233
 20
173.408142956987
 11
453.574455359595
 21
172.931036572477
  0
LINE
  5
55D
100
AcDbEntity
  8
0-0
100
AcDbLine
  6
CONTINUOUS
370
20
 10
449.229640663233
 20
174.02979891122
 11
449.229640663233
 21
169.013704593457
  0
LINE
  5
55E
100
AcDbEntity
  8
0-0
100
AcDbLine
  6
CONTINUOUS
370
20
 10
454.029640663233
 20
174.02979891122
 11
454.029640663233
 21
169.013704593457
  0
CIRCLE
  5
55F
100
AcDbEntity
  8
0-0
100
AcDbCircle
  6
CONTINUOUS
370
30
 10
517.529983055756
 20
171.521751752336
 40
1.55
  0
CIRCLE
  5
560
100
AcDbEntity
  8
0-0
100
AcDbCircle
  6
BYLAYER
370
13
 10
517.529983055756
 20
171.521751752338
 40
0.890000000000001
  0
CIRCLE
  5
561
100
AcDbEntity
  8
0-0
100
AcDbCircle
  6
BYLAYER
370
13
 10
517.529983055756
 20
171.521751752338
 40
1.15
  0
LWPOLYLINE
  5
562
100
AcDbEntity
  8
0-0
100
AcDbPolyline
  6
BYLAYER
370
13
 90
     6
 70
     1
 10
516.230944950079
  20
173.771751752338
 10
514.931906844403
  20
171.521751752338
 10
516.230944950079
  20
169.271751752338
 10
518.829021161432
  20
169.271751752338
 10
520.128059267109
  20
171.521751752338
 10
518.829021161433
  20
173.771751752338
  0
CIRCLE
  5
563
100
AcDbEntity
  8
0-0
100
AcDbCircle
  6
BYLAYER
370
13
 10
517.529983055756
 20
171.521751752338
 40
2.25
  0
ARC
  5
564
100
AcDbEntity
  8
0-0
100
AcDbCircle
  6
CONTINUOUS
370
50
 10
353.029640663233
 20
88.2419778166026
 40
1.99794849279888
100
AcDbArc
 50
90
 51
-90
  0
ARC
  5
565
100
AcDbEntity
  8
0-0
100
AcDbCircle
  6
CONTINUOUS
370
50
 10
416.029640663233
 20
88.2419778166026
 40
1.99794849279889
100
AcDbArc
 50
-90
 51
90
  0
CIRCLE
  5
566
100
AcDbEntity
  8
0-0
100
AcDbCircle
  6
CONTINUOUS
370
50
 10
290.529640663233
 20
120.744811433386
 40
3
  0
CIRCLE
  5
567
100
AcDbEntity
  8
0-0
100
AcDbCircle
  6
CONTINUOUS
370
50
 10
290.529640663233
 20
112.744811433386
 40
3
  0
LINE
  5
568
100
AcDbEntity
  8
0-0
100
AcDbLine
  6
CONTINUOUS
370
50
 10
353.029640663233
 20
90.2399263094015
 11
416.029640663233
 21
90.2399263094015
  0
LINE
  5
569
100
AcDbEntity
  8
0-0
100
AcDbLine
  6
CONTINUOUS
370
50
 10
353.029640663233
 20
86.2440293238038
 11
416.029640663233
 21
86.2440293238037
  0
LINE
  5
56A
100
AcDbEntity
  8
0-0
100
AcDbLine
  6
CONTINUOUS
 62
7
370
30
 10
235.329640541033
 20
84.4939006624525
 11
244.029640663233
 21
84.4939006624525
  0
LINE
  5
56B
100
AcDbEntity
  8
0-0
100
AcDbLine
  6
CONTINUOUS
 62
7
370
30
 10
244.029640663233
 20
83.1940425691526
 11
244.029640663233
 21
84.4939006624525
  0
LINE
  5
56C
100
AcDbEntity
  8
0-0
100
AcDbLine
  6
CONTINUOUS
 62
7
370
30
 10
235.329640541033
 20
83.1940425691526
 11
235.329640541033
 21
84.4939006624525
  0
LINE
  5
56D
100
AcDbEntity
  8
0-0
100
AcDbLine
  6
CONTINUOUS
 62
7
370
30
 10
235.329640541033
 20
116.990054970752
 11
244.029640663233
 21
116.990054970752
  0
LINE
  5
56E
100
AcDbEntity
  8
0-0
100
AcDbLine
  6
CONTINUOUS
 62
7
370
30
 10
244.029640663233
 20
84.4939006624525
 11
244.029640663233
 21
116.990054970752
  0
LINE
  5
56F
100
AcDbEntity
  8
0-0
100
AcDbLine
  6
CONTINUOUS
 62
7
370
30
 10
235.329640541033
 20
84.4939006624525
 11
235.329640541033
 21
116.990054970752
  0
LINE
  5
570
100
AcDbEntity
  8
0-0
100
AcDbLine
  6
CONTINUOUS
 62
7
370
30
 10
244.029640663233
 20
116.990054970752
 11
244.029640663233
 21
118.289913064052
  0
LINE
  5
571
100
AcDbEntity
  8
0-0
100
AcDbLine
  6
CONTINUOUS
 62
7
370
30
 10
235.329640541033
 20
116.990054970752
 11
235.329640541033
 21
118.289913064052
  0
LINE
  5
572
100
AcDbEntity
  8
0-0
100
AcDbLine
  6
CONTINUOUS
 62
7
370
30
 10
244.029640663233
 20
80.2219761667525
 11
244.029640663233
 21
83.1940425691526
  0
LINE
  5
573
100
AcDbEntity
  8
0-0
100
AcDbLine
  6
CONTINUOUS
 62
7
370
30
 10
235.329640541033
 20
80.2219761667525
 11
235.329640541033
 21
83.1940425691526
  0
LINE
  5
574
100
AcDbEntity
  8
0-0
100
AcDbLine
  6
CONTINUOUS
 62
7
370
30
 10
244.029640663233
 20
118.289913064052
 11
244.029640663233
 21
121.261979466453
  0
LINE
  5
575
100
AcDbEntity
  8
0-0
100
AcDbLine
  6
CONTINUOUS
 62
7
370
30
 10
235.329640541033
 20
118.289913064052
 11
235.329640541033
 21
121.261979466453
  0
LINE
  5
576
100
AcDbEntity
  8
0-0
100
AcDbLine
  6
CONTINUOUS
 62
7
370
30
 10
235.329640541033
 20
121.741975670853
 11
244.029640663233
 21
121.741975670853
  0
LINE
  5
577
100
AcDbEntity
  8
0-0
100
AcDbLine
  6
CONTINUOUS
 62
7
370
30
 10
244.029640663233
 20
121.261979466453
 11
244.029640663233
 21
121.741975670853
  0
LINE
  5
578
100
AcDbEntity
  8
0-0
100
AcDbLine
  6
CONTINUOUS
 62
7
370
30
 10
235.329640541033
 20
121.261979466453
 11
235.329640541033
 21
121.741975670853
  0
LINE
  5
579
100
AcDbEntity
  8
0-0
100
AcDbLine
  6
CONTINUOUS
 62
7
370
30
 10
235.329640541033
 20
79.7419799623526
 11
244.029640663233
 21
79.7419799623526
  0
LINE
  5
57A
100
AcDbEntity
  8
0-0
100
AcDbLine
  6
CONTINUOUS
 62
7
370
30
 10
244.029640663233
 20
79.7419799623526
 11
244.029640663233
 21
80.2219761667525
  0
LINE
  5
57B
100
AcDbEntity
  8
0-0
100
AcDbLine
  6
CONTINUOUS
 62
7
370
30
 10
235.329640541033
 20
79.7419799623526
 11
235.329640541033
 21
80.2219761667525
  0
LINE
  5
57C
100
AcDbEntity
  8
0-0
100
AcDbLine
  6
CONTINUOUS
 62
7
370
30
 10
220.729641128133
 20
84.4939006624525
 11
235.329640541033
 21
84.4939006624525
  0
LINE
  5
57D
100
AcDbEntity
  8
0-0
100
AcDbLine
  6
CONTINUOUS
 62
7
370
30
 10
220.729641128133
 20
84.4939006624525
 11
220.729641128133
 21
116.990054970752
  0
LINE
  5
57E
100
AcDbEntity
  8
0-0
100
AcDbLine
  6
CONTINUOUS
 62
7
370
30
 10
220.729641128133
 20
116.990054970752
 11
235.329640541033
 21
116.990054970752
  0
LINE
  5
57F
100
AcDbEntity
  8
0-0
100
AcDbLine
  6
CONTINUOUS
 62
7
370
30
 10
220.729641128133
 20
79.7419799623526
 11
220.729641128133
 21
84.4939006624525
  0
LINE
  5
580
100
AcDbEntity
  8
0-0
100
AcDbLine
  6
CONTINUOUS
 62
7
370
30
 10
220.729641128133
 20
116.990054970752
 11
220.729641128133
 21
118.289913064052
  0
LINE
  5
581
100
AcDbEntity
  8
0-0
100
AcDbLine
  6
CONTINUOUS
 62
7
370
30
 10
220.729641128133
 20
118.289913064052
 11
220.729641128133
 21
121.261979466453
  0
LINE
  5
582
100
AcDbEntity
  8
0-0
100
AcDbLine
  6
CONTINUOUS
 62
7
370
30
 10
220.729641128133
 20
121.741975670853
 11
235.329640541033
 21
121.741975670853
  0
LINE
  5
583
100
AcDbEntity
  8
0-0
100
AcDbLine
  6
CONTINUOUS
 62
7
370
30
 10
220.729641128133
 20
121.261979466453
 11
220.729641128133
 21
121.741975670853
  0
LINE
  5
584
100
AcDbEntity
  8
0-0
100
AcDbLine
  6
CONTINUOUS
 62
7
370
30
 10
211.029640842033
 20
79.7419799623526
 11
235.329640541033
 21
79.7419799623526
  0
LINE
  5
585
100
AcDbEntity
  8
0-0
100
AcDbLine
  6
CONTINUOUS
 62
7
370
30
 10
211.029640842033
 20
83.1940425691526
 11
211.029640842033
 21
84.4939006624525
  0
LINE
  5
586
100
AcDbEntity
  8
0-0
100
AcDbLine
  6
CONTINUOUS
 62
7
370
30
 10
211.029640842033
 20
84.4939006624525
 11
220.729641128133
 21
84.4939006624525
  0
LINE
  5
587
100
AcDbEntity
  8
0-0
100
AcDbLine
  6
CONTINUOUS
 62
7
370
30
 10
211.029640842033
 20
79.7419799623526
 11
211.029640842033
 21
116.990054970752
  0
LINE
  5
588
100
AcDbEntity
  8
0-0
100
AcDbLine
  6
CONTINUOUS
 62
7
370
30
 10
211.029640842033
 20
116.990054970752
 11
220.729641128133
 21
116.990054970752
  0
LINE
  5
589
100
AcDbEntity
  8
0-0
100
AcDbLine
  6
CONTINUOUS
 62
7
370
30
 10
211.029640842033
 20
116.990054970752
 11
211.029640842033
 21
118.289913064052
  0
LINE
  5
58A
100
AcDbEntity
  8
0-0
100
AcDbLine
  6
CONTINUOUS
 62
7
370
30
 10
211.029640842033
 20
118.289913064052
 11
211.029640842033
 21
121.261979466453
  0
LINE
  5
58B
100
AcDbEntity
  8
0-0
100
AcDbLine
  6
CONTINUOUS
 62
7
370
30
 10
211.029640842033
 20
121.741975670853
 11
220.729641128133
 21
121.741975670853
  0
LINE
  5
58C
100
AcDbEntity
  8
0-0
100
AcDbLine
  6
CONTINUOUS
 62
7
370
30
 10
211.029640842033
 20
121.261979466453
 11
211.029640842033
 21
121.741975670853
  0
LINE
  5
58D
100
AcDbEntity
  8
0-0
100
AcDbLine
  6
CONTINUOUS
370
50
 10
211.029640663234
 20
250.623415394738
 11
203.029640663234
 21
250.623415394738
  0
LINE
  5
58E
100
AcDbEntity
  8
0-0
100
AcDbLine
  6
CONTINUOUS
370
50
 10
258.029640663234
 20
250.623415394738
 11
243.029640663234
 21
250.623415394738
  0
LINE
  5
58F
100
AcDbEntity
  8
0-0
100
AcDbLine
  6
CONTINUOUS
370
50
 10
63.6082574534866
 20
275.852012447095
 11
51.4199907692041
 21
272.586176231906
  0
LINE
  5
590
100
AcDbEntity
  8
0-0
100
AcDbLine
  6
CONTINUOUS
370
50
 10
67.2317240849219
 20
275.852012447095
 11
79.4199907692044
 21
272.586176231906
  0
LINE
  5
591
100
AcDbEntity
  8
0-0
100
AcDbLine
  6
CONTINUOUS
370
50
 10
63.8670764985894
 20
274.955436974926
 11
51.2928242216886
 21
271.586176231906
  0
LINE
  5
592
100
AcDbEntity
  8
0-0
100
AcDbLine
  6
CONTINUOUS
370
50
 10
66.9729050398195
 20
274.955436974926
 11
79.5471573167194
 21
271.586176231906
  0
ARC
  5
593
100
AcDbEntity
  8
0-0
100
AcDbCircle
  6
CONTINUOUS
370
50
 10
65.4199907692044
 20
269.159882017192
 40
6
100
AcDbArc
 50
75.0000000000004
 51
104.999999999999
  0
ARC
  5
594
100
AcDbEntity
  8
0-0
100
AcDbCircle
  6
CONTINUOUS
370
50
 10
65.4199907692043
 20
269.090531663071
 40
7
100
AcDbArc
 50
74.9999999999999
 51
105
  0
LINE
  5
595
100
AcDbEntity
  8
0-0
100
AcDbLine
  6
CONTINUOUS
370
13
 10
212.029640663233
 20
325.91547126099
 11
224.029640663233
 21
325.91547126099
  0
LINE
  5
596
100
AcDbEntity
  8
0-0
100
AcDbLine
  6
CONTINUOUS
370
13
 10
212.029640663233
 20
353.928833189962
 11
224.029640663233
 21
353.928833189962
  0
LINE
  5
597
100
AcDbEntity
  8
0-0
100
AcDbLine
  6
CONTINUOUS
370
50
 10
223.529640663233
 20
315.422152225476
 11
222.359767682155
 21
315.422152225476
  0
LINE
  5
598
100
AcDbEntity
  8
0-0
100
AcDbLine
  6
CONTINUOUS
370
50
 10
223.529640663233
 20
320.422152225476
 11
222.359767682155
 21
320.422152225476
  0
LINE
  5
599
100
AcDbEntity
  8
0-0
100
AcDbLine
  6
CONTINUOUS
370
13
 10
224.029640663233
 20
314.922152225476
 11
224.029640663233
 21
310.922152225476
  0
LINE
  5
59A
100
AcDbEntity
  8
0-0
100
AcDbLine
  6
CONTINUOUS
370
13
 10
224.029640663233
 20
320.922152225476
 11
224.029640663233
 21
368.922152225475
  0
LINE
  5
59B
100
AcDbEntity
  8
0-0
100
AcDbLine
  6
CONTINUOUS
370
50
 10
223.529640663233
 20
315.422152225476
 11
224.029640663233
 21
314.922152225476
  0
LINE
  5
59C
100
AcDbEntity
  8
0-0
100
AcDbLine
  6
CONTINUOUS
370
13
 10
224.029640663233
 20
320.922152225476
 11
223.529640663233
 21
320.422152225476
  0
LINE
  5
59D
100
AcDbEntity
  8
0-0
100
AcDbLine
  6
CONTINUOUS
370
13
 10
516.843230267278
 20
272.586176231906
 11
504.529983055756
 21
272.586176231906
  0
LINE
  5
59E
100
AcDbEntity
  8
0-0
100
AcDbLine
  6
CONTINUOUS
370
13
 10
513.122390974993
 20
271.586176231906
 11
504.529983055756
 21
271.586176231906
  0
LINE
  5
59F
100
AcDbEntity
  8
0-0
100
AcDbLine
  6
CONTINUOUS
370
13
 10
505.529983055756
 20
271.586176231906
 11
505.529983055756
 21
272.586176231906
  0
LINE
  5
5A0
100
AcDbEntity
  8
0-0
100
AcDbLine
  6
CONTINUOUS
370
13
 10
504.529983055756
 20
271.586176231906
 11
504.529983055756
 21
272.586176231906
  0
LINE
  5
5A1
100
AcDbEntity
  8
0-0
100
AcDbLine
  6
CONTINUOUS
370
13
 10
552.187127999703
 20
272.586176231906
 11
564.529983055756
 21
272.586176231906
  0
LINE
  5
5A2
100
AcDbEntity
  8
0-0
100
AcDbLine
  6
CONTINUOUS
370
13
 10
555.936688786598
 20
271.586176231906
 11
564.529983055756
 21
271.586176231906
  0
LINE
  5
5A3
100
AcDbEntity
  8
0-0
100
AcDbLine
  6
CONTINUOUS
370
13
 10
563.529983055755
 20
271.586176231906
 11
563.529983055755
 21
272.586176231906
  0
LINE
  5
5A4
100
AcDbEntity
  8
0-0
100
AcDbLine
  6
CONTINUOUS
370
13
 10
564.529983055756
 20
271.586176231906
 11
564.529983055756
 21
272.586176231906
  0
LINE
  5
5A5
100
AcDbEntity
  8
0-0
100
AcDbLine
  6
CONTINUOUS
370
50
 10
243.029640663234
 20
236.623415394738
 11
211.029640663234
 21
236.623415394738
  0
LINE
  5
5A6
100
AcDbEntity
  8
0-0
100
AcDbLine
  6
CONTINUOUS
370
50
 10
84.4964160108382
 20
250.623415394738
 11
91.4199907691951
 21
250.623415394738
  0
LINE
  5
5A7
100
AcDbEntity
  8
0-0
100
AcDbLine
  6
CONTINUOUS
370
50
 10
39.419990769195
 20
250.623415394738
 11
46.3435655275519
 21
250.623415394738
  0
LINE
  5
5A8
100
AcDbEntity
  8
0-0
100
AcDbLine
  6
CONTINUOUS
370
50
 10
39.419990769195
 20
250.623415394738
 11
39.419990769195
 21
228.623415394738
  0
LINE
  5
5A9
100
AcDbEntity
  8
0-0
100
AcDbLine
  6
CONTINUOUS
370
50
 10
91.4199907691951
 20
250.623415394738
 11
91.4199907691951
 21
228.623415394738
  0
LINE
  5
5AA
100
AcDbEntity
  8
0-0
100
AcDbLine
  6
CONTINUOUS
370
50
 10
39.419990769195
 20
228.623415394738
 11
91.4199907691951
 21
228.623415394738
  0
ARC
  5
5AB
100
AcDbEntity
  8
0-0
100
AcDbCircle
  6
CONTINUOUS
370
50
 10
65.419990769195
 20
238.123415394738
 40
5
100
AcDbArc
 50
-123.999999999999
 51
-55.9999999999991
  0
LINE
  5
5AC
100
AcDbEntity
  8
0-0
100
AcDbLine
  6
CONTINUOUS
370
50
 10
68.2159552865488
 20
233.978227531963
 11
72.4273714811101
 21
236.818863623162
  0
LINE
  5
5AD
100
AcDbEntity
  8
0-0
100
AcDbLine
  6
CONTINUOUS
370
50
 10
62.6240262518413
 20
233.978227531962
 11
58.4126100572792
 21
236.818863623163
  0
ARC
  5
5AE
100
AcDbEntity
  8
0-0
100
AcDbCircle
  6
CONTINUOUS
370
50
 10
65.4199907691951
 20
255.123415394738
 40
19.6
100
AcDbArc
 50
-166.726957331512
 51
-110.947933294904
  0
ARC
  5
5AF
100
AcDbEntity
  8
0-0
100
AcDbCircle
  6
CONTINUOUS
370
50
 10
65.4199907691951
 20
255.123415394738
 40
19.6
100
AcDbArc
 50
-69.0520667050982
 51
-13.2730426684877
  0
LINE
  5
5B0
100
AcDbEntity
  8
0-0
100
AcDbLine
  6
CONTINUOUS
370
50
 10
508.529983055756
 20
250.623415394738
 11
508.529983055756
 21
228.623415394738
  0
LINE
  5
5B1
100
AcDbEntity
  8
0-0
100
AcDbLine
  6
CONTINUOUS
370
50
 10
560.529983055756
 20
250.623415394738
 11
560.529983055756
 21
228.623415394738
  0
LINE
  5
5B2
100
AcDbEntity
  8
0-0
100
AcDbLine
  6
CONTINUOUS
370
50
 10
560.729983055757
 20
222.121751752338
 11
508.329983055757
 21
222.121751752338
  0
LINE
  5
5B3
100
AcDbEntity
  8
0-0
100
AcDbLine
  6
CONTINUOUS
370
50
 10
562.229983055757
 20
223.621751752338
 11
506.829983055757
 21
223.621751752338
  0
LINE
  5
5B4
100
AcDbEntity
  8
0-0
100
AcDbLine
  6
CONTINUOUS
370
50
 10
91.622824385996
 20
222.121751752338
 11
39.222824385996
 21
222.121751752338
  0
LINE
  5
5B5
100
AcDbEntity
  8
0-0
100
AcDbLine
  6
CONTINUOUS
370
50
 10
93.122824385996
 20
223.621751752338
 11
37.722824385996
 21
223.621751752338
  0
LINE
  5
5B6
100
AcDbEntity
  8
0-0
100
AcDbLine
  6
CONTINUOUS
370
50
 10
551.071943164207
 20
171.521751752338
 11
556.988022947307
 21
171.521751752338
  0
LINE
  5
5B7
100
AcDbEntity
  8
0-0
100
AcDbLine
  6
CONTINUOUS
370
50
 10
551.071943164207
 20
170.521751752338
 11
556.988022947307
 21
170.521751752338
  0
CIRCLE
  5
5B8
100
AcDbEntity
  8
0-0
100
AcDbCircle
  6
BYLAYER
370
13
 10
554.029983055757
 20
171.021751752338
 40
3.00000000000001
  0
CIRCLE
  5
5B9
100
AcDbEntity
  8
0-0
100
AcDbCircle
  6
BYLAYER
370
13
 10
554.029983055757
 20
171.021751752338
 40
3.29999999999999
  0
CIRCLE
  5
5BA
100
AcDbEntity
  8
0-0
100
AcDbCircle
  6
BYLAYER
370
13
 10
554.029983055757
 20
171.021751752338
 40
2.99999999999999
  0
CIRCLE
  5
5BB
100
AcDbEntity
  8
0-0
100
AcDbCircle
  6
BYLAYER
370
13
 10
554.029983055757
 20
171.021751752338
 40
3.99999999999999
  0
CIRCLE
  5
5BC
100
AcDbEntity
  8
0-0
100
AcDbCircle
  6
BYLAYER
370
13
 10
554.029983055757
 20
171.021751752338
 40
3.69999999999999
  0
CIRCLE
  5
5BD
100
AcDbEntity
  8
0-0
100
AcDbCircle
  6
CONTINUOUS
370
50
 10
554.029983055757
 20
171.021751752338
 40
4
  0
CIRCLE
  5
5BE
100
AcDbEntity
  8
0-0
100
AcDbCircle
  6
CONTINUOUS
370
20
 10
305.529640663233
 20
100.741977616603
 40
1.5
  0
CIRCLE
  5
5BF
100
AcDbEntity
  8
0-0
100
AcDbCircle
  6
CONTINUOUS
370
40
 10
305.529640663233
 20
100.741977616603
 40
1.25
  0
CIRCLE
  5
5C0
100
AcDbEntity
  8
0-0
100
AcDbCircle
  6
CONTINUOUS
370
20
 10
327.729637663233
 20
90.4419856166026
 40
1.5
  0
CIRCLE
  5
5C1
100
AcDbEntity
  8
0-0
100
AcDbCircle
  6
CONTINUOUS
370
40
 10
327.729637663233
 20
90.4419856166026
 40
1.25
  0
LINE
  5
5C2
100
AcDbEntity
  8
0-0
100
AcDbLine
  6
CONTINUOUS
370
50
 10
508.529983055757
 20
223.621751752338
 11
508.529983055757
 21
251.621751752338
  0
LINE
  5
5C3
100
AcDbEntity
  8
0-0
100
AcDbLine
  6
CONTINUOUS
370
50
 10
560.529983055757
 20
223.621751752338
 11
560.529983055757
 21
251.621751752339
  0
LINE
  5
5C4
100
AcDbEntity
  8
0-0
100
AcDbLine
  6
CONTINUOUS
370
50
 10
508.529983055757
 20
223.621751752338
 11
560.529983055757
 21
223.621751752338
  0
LINE
  5
5C5
100
AcDbEntity
  8
0-0
100
AcDbLine
  6
CONTINUOUS
370
50
 10
508.529983055757
 20
251.621751752338
 11
509.544382179729
 21
251.621751752338
  0
LINE
  5
5C6
100
AcDbEntity
  8
0-0
100
AcDbLine
  6
CONTINUOUS
370
50
 10
559.515583931785
 20
251.621751752338
 11
560.529983055757
 21
251.621751752339
  0
LINE
  5
5C7
100
AcDbEntity
  8
0-0
100
AcDbLine
  6
CONTINUOUS
370
50
 10
549.817823361303
 20
244.18039834365
 11
559.515583931785
 21
251.621751752338
  0
LINE
  5
5C8
100
AcDbEntity
  8
0-0
100
AcDbLine
  6
CONTINUOUS
370
50
 10
519.242142750169
 20
244.180398343682
 11
509.544382179729
 21
251.621751752338
  0
LINE
  5
5C9
100
AcDbEntity
  8
0-0
100
AcDbLine
  6
CONTINUOUS
370
50
 10
39.4228243859957
 20
223.621751752338
 11
39.4228243859957
 21
251.621751752338
  0
LINE
  5
5CA
100
AcDbEntity
  8
0-0
100
AcDbLine
  6
CONTINUOUS
370
50
 10
91.4228243859962
 20
223.621751752338
 11
91.4228243859962
 21
251.621751752339
  0
LINE
  5
5CB
100
AcDbEntity
  8
0-0
100
AcDbLine
  6
CONTINUOUS
370
50
 10
39.4228243859957
 20
228.621751752338
 11
91.4228243859962
 21
228.621751752338
  0
LINE
  5
5CC
100
AcDbEntity
  8
0-0
100
AcDbLine
  6
CONTINUOUS
370
50
 10
39.4228243859957
 20
223.621751752338
 11
91.4228243859962
 21
223.621751752338
  0
LINE
  5
5CD
100
AcDbEntity
  8
0-0
100
AcDbLine
  6
CONTINUOUS
370
50
 10
39.4228243859957
 20
251.621751752338
 11
40.4372235099684
 21
251.621751752338
  0
LINE
  5
5CE
100
AcDbEntity
  8
0-0
100
AcDbLine
  6
CONTINUOUS
370
50
 10
90.408425262024
 20
251.621751752338
 11
91.4228243859962
 21
251.621751752339
  0
LINE
  5
5CF
100
AcDbEntity
  8
0-0
100
AcDbLine
  6
CONTINUOUS
370
50
 10
89.4199907692126
 20
250.863299290155
 11
90.408425262024
 21
251.621751752338
  0
LINE
  5
5D0
100
AcDbEntity
  8
0-0
100
AcDbLine
  6
CONTINUOUS
370
50
 10
41.4199907692126
 20
250.867647911418
 11
40.4372235099684
 21
251.621751752338
  0
LINE
  5
5D1
100
AcDbEntity
  8
0-0
100
AcDbLine
  6
CONTINUOUS
370
50
 10
198.029640663234
 20
223.621751752338
 11
198.029640663234
 21
228.621751752338
  0
LINE
  5
5D2
100
AcDbEntity
  8
0-0
100
AcDbLine
  6
CONTINUOUS
370
50
 10
291.029640663233
 20
227.621751752079
 11
291.029640663233
 21
267.621751752083
  0
LINE
  5
5D3
100
AcDbEntity
  8
0-0
100
AcDbLine
  6
CONTINUOUS
370
50
 10
291.029640663233
 20
324.919318608692
 11
291.029640663233
 21
354.919318608692
  0
LINE
  5
5D4
100
AcDbEntity
  8
0-0
100
AcDbLine
  6
CONTINUOUS
370
50
 10
286.029640663233
 20
324.919318608692
 11
286.029640663233
 21
354.919318608692
  0
LINE
  5
5D5
100
AcDbEntity
  8
0-0
100
AcDbLine
  6
CONTINUOUS
370
50
 10
288.279640663234
 20
324.919318608692
 11
288.279640663234
 21
354.919318608692
  0
LINE
  5
5D6
100
AcDbEntity
  8
0-0
100
AcDbLine
  6
CONTINUOUS
370
50
 10
286.029640663233
 20
242.521278635135
 11
286.029640663233
 21
227.621751752079
  0
LINE
  5
5D7
100
AcDbEntity
  8
0-0
100
AcDbLine
  6
CONTINUOUS
370
50
 10
286.029640663233
 20
227.621751752083
 11
291.029640663233
 21
227.621751752083
  0
LINE
  5
5D8
100
AcDbEntity
  8
0-0
100
AcDbLine
  6
CONTINUOUS
370
50
 10
288.029640663234
 20
267.621751752083
 11
291.029640663233
 21
267.621751752083
  0
LINE
  5
5D9
100
AcDbEntity
  8
0-0
100
AcDbLine
  6
CONTINUOUS
370
50
 10
291.029640663233
 20
335.419318608692
 11
291.029640663233
 21
344.419318608692
  0
LINE
  5
5DA
100
AcDbEntity
  8
0-0
100
AcDbLine
  6
CONTINUOUS
370
50
 10
288.029640663234
 20
242.521278635135
 11
286.029640663233
 21
242.521278635135
  0
CIRCLE
  5
5DB
100
AcDbEntity
  8
0-0
100
AcDbCircle
  6
CONTINUOUS
370
20
 10
524.529983055757
 20
232.621751752593
 40
1.5
  0
CIRCLE
  5
5DC
100
AcDbEntity
  8
0-0
100
AcDbCircle
  6
CONTINUOUS
370
20
 10
544.529983055757
 20
232.621751752593
 40
1.5
  0
CIRCLE
  5
5DD
100
AcDbEntity
  8
0-0
100
AcDbCircle
  6
CONTINUOUS
370
40
 10
524.529983055757
 20
232.621751752593
 40
1.25
  0
CIRCLE
  5
5DE
100
AcDbEntity
  8
0-0
100
AcDbCircle
  6
CONTINUOUS
370
40
 10
544.529983055757
 20
232.621751752593
 40
1.25
  0
LINE
  5
5DF
100
AcDbEntity
  8
0-0
100
AcDbLine
  6
CONTINUOUS
370
50
 10
519.529983055757
 20
262.621751752088
 11
519.529983055757
 21
227.621751752083
  0
LINE
  5
5E0
100
AcDbEntity
  8
0-0
100
AcDbLine
  6
CONTINUOUS
370
50
 10
549.529983055757
 20
262.621751752088
 11
549.529983055757
 21
227.621751752083
  0
LINE
  5
5E1
100
AcDbEntity
  8
0-0
100
AcDbLine
  6
CONTINUOUS
370
50
 10
544.529983055757
 20
267.621751752088
 11
524.529983055757
 21
267.621751752088
  0
LINE
  5
5E2
100
AcDbEntity
  8
0-0
100
AcDbLine
  6
CONTINUOUS
370
50
 10
519.529983055757
 20
262.621751752088
 11
524.529983055757
 21
267.621751752088
  0
LINE
  5
5E3
100
AcDbEntity
  8
0-0
100
AcDbLine
  6
CONTINUOUS
370
50
 10
544.529983055757
 20
267.621751752088
 11
549.529983055757
 21
262.621751752088
  0
LINE
  5
5E4
100
AcDbEntity
  8
0-0
100
AcDbLine
  6
CONTINUOUS
370
20
 10
286.029640663234
 20
324.919318608692
 11
286.029640663234
 21
354.919318608692
  0
LINE
  5
5E5
100
AcDbEntity
  8
0-0
100
AcDbLine
  6
CONTINUOUS
370
50
 10
286.029640663234
 20
227.621751752083
 11
284.529640663233
 21
227.621751752083
  0
LINE
  5
5E6
100
AcDbEntity
  8
0-0
100
AcDbLine
  6
CONTINUOUS
370
20
 10
286.029640663234
 20
354.919318608692
 11
284.229640663234
 21
354.919318608692
  0
LINE
  5
5E7
100
AcDbEntity
  8
0-0
100
AcDbLine
  6
CONTINUOUS
370
20
 10
284.229640663234
 20
324.919318608692
 11
286.029640663234
 21
324.919318608692
  0
LINE
  5
5E8
100
AcDbEntity
  8
0-0
100
AcDbLine
  6
CONTINUOUS
370
20
 10
286.029640663234
 20
353.919318608692
 11
284.229640663234
 21
353.919318608692
  0
LINE
  5
5E9
100
AcDbEntity
  8
0-0
100
AcDbLine
  6
CONTINUOUS
370
20
 10
284.229640663234
 20
325.919318608692
 11
286.029640663234
 21
325.919318608692
  0
LINE
  5
5EA
100
AcDbEntity
  8
0-0
100
AcDbLine
  6
CONTINUOUS
370
50
 10
284.529640663233
 20
227.621751752083
 11
284.529640663233
 21
253.621751752085
  0
LINE
  5
5EB
100
AcDbEntity
  8
0-0
100
AcDbLine
  6
CONTINUOUS
370
50
 10
286.029640663234
 20
253.621751752085
 11
284.529640663233
 21
253.621751752085
  0
LINE
  5
5EC
100
AcDbEntity
  8
0-0
100
AcDbLine
  6
DASHDOT
370
13
 10
464.778515149456
 20
339.922152225475
 11
103.387265499494
 21
339.922152225475
  0
LINE
  5
5ED
100
AcDbEntity
  8
0-0
100
AcDbLine
  6
DASHDOT
370
13
 10
65.422824385996
 20
152.371813946329
 11
65.422824385996
 21
282.536235405789
  0
LINE
  5
5EE
100
AcDbEntity
  8
0-0
100
AcDbLine
  6
DASHDOT
370
13
 10
534.529983055757
 20
147.262113872921
 11
534.529983055757
 21
286.762815282275
  0
LINE
  5
5EF
100
AcDbEntity
  8
0-0
100
AcDbLine
  6
DASHDOT
370
13
 10
472.21700637787
 20
100.741977816602
 11
178.731789786502
 21
100.741977816602
  0
LINE
  5
5F0
100
AcDbEntity
  8
0-0
100
AcDbLine
  6
HIDDEN
370
13
 10
45.9228243859961
 20
176.751187649118
 11
45.922824385996
 21
159.296372930727
  0
ARC
  5
5F1
100
AcDbEntity
  8
0-0
100
AcDbCircle
  6
CONTINUOUS
370
50
 10
229.029640663233
 20
198.621751752338
 40
40
100
AcDbArc
 50
180
 51
-90
  0
LINE
  5
5F2
100
AcDbEntity
  8
0-0
100
AcDbLine
  6
CONTINUOUS
370
50
 10
266.029640663234
 20
364.922152225476
 11
261.029640663234
 21
364.922152225476
  0
LINE
  5
5F3
100
AcDbEntity
  8
0-0
100
AcDbLine
  6
CONTINUOUS
370
50
 10
266.029640663234
 20
314.922152225476
 11
261.029640663234
 21
314.922152225476
  0
ARC
  5
5F4
100
AcDbEntity
  8
0-0
100
AcDbCircle
  6
CONTINUOUS
370
50
 10
232.529640663234
 20
358.923815867874
 40
2.1
100
AcDbArc
 50
17.0730079631295
 51
27.5275689225303
  0
ARC
  5
5F5
100
AcDbEntity
  8
0-0
100
AcDbCircle
  6
CONTINUOUS
370
50
 10
228.529640663234
 20
358.923815867874
 40
2.1
100
AcDbArc
 50
98.6715783466013
 51
163.44580930474
  0
ARC
  5
5F6
100
AcDbEntity
  8
0-0
100
AcDbCircle
  6
CONTINUOUS
370
50
 10
228.529640663234
 20
320.923815867874
 40
2.1
100
AcDbArc
 50
-163.351079823436
 51
-98.7478340858273
  0
ARC
  5
5F7
100
AcDbEntity
  8
0-0
100
AcDbCircle
  6
CONTINUOUS
370
50
 10
232.529640663234
 20
320.923815867874
 40
2.1
100
AcDbArc
 50
-27.4004760571717
 51
-16.6489201765636
  0
LINE
  5
5F8
100
AcDbEntity
  8
0-0
100
AcDbLine
  6
CONTINUOUS
370
13
 10
289.807953163233
 20
119.494812016198
 11
291.251328163233
 21
119.494812016198
  0
LINE
  5
5F9
100
AcDbEntity
  8
0-0
100
AcDbLine
  6
CONTINUOUS
370
13
 10
291.251328163233
 20
121.994810850573
 11
289.807953163233
 21
121.994810850573
  0
CIRCLE
  5
5FA
100
AcDbEntity
  8
0-0
100
AcDbCircle
  6
CONTINUOUS
370
13
 10
290.529640663233
 20
120.744811433386
 40
2.4035896769725
  0
CIRCLE
  5
5FB
100
AcDbEntity
  8
0-0
100
AcDbCircle
  6
CONTINUOUS
370
13
 10
290.529640663233
 20
120.744811433386
 40
2.74999999999989
  0
LINE
  5
5FC
100
AcDbEntity
  8
0-0
100
AcDbLine
  6
CONTINUOUS
370
13
 10
289.086265663233
 20
120.744811433386
 11
289.807953163233
 21
119.494812016198
  0
LINE
  5
5FD
100
AcDbEntity
  8
0-0
100
AcDbLine
  6
CONTINUOUS
370
13
 10
289.807953163233
 20
121.994810850573
 11
289.086265663233
 21
120.744811433386
  0
LINE
  5
5FE
100
AcDbEntity
  8
0-0
100
AcDbLine
  6
CONTINUOUS
370
13
 10
291.251328163233
 20
119.494812016198
 11
291.973015663233
 21
120.744811433386
  0
LINE
  5
5FF
100
AcDbEntity
  8
0-0
100
AcDbLine
  6
CONTINUOUS
370
13
 10
291.973015663233
 20
120.744811433386
 11
291.251328163233
 21
121.994810850573
  0
LINE
  5
600
100
AcDbEntity
  8
0-0
100
AcDbLine
  6
CONTINUOUS
370
13
 10
289.807953163233
 20
111.494812016198
 11
291.251328163233
 21
111.494812016198
  0
LINE
  5
601
100
AcDbEntity
  8
0-0
100
AcDbLine
  6
CONTINUOUS
370
13
 10
291.251328163233
 20
113.994810850573
 11
289.807953163233
 21
113.994810850573
  0
CIRCLE
  5
602
100
AcDbEntity
  8
0-0
100
AcDbCircle
  6
CONTINUOUS
370
13
 10
290.529640663233
 20
112.744811433386
 40
2.4035896769725
  0
CIRCLE
  5
603
100
AcDbEntity
  8
0-0
100
AcDbCircle
  6
CONTINUOUS
370
13
 10
290.529640663233
 20
112.744811433386
 40
2.74999999999989
  0
LINE
  5
604
100
AcDbEntity
  8
0-0
100
AcDbLine
  6
CONTINUOUS
370
13
 10
289.086265663233
 20
112.744811433386
 11
289.807953163233
 21
111.494812016198
  0
LINE
  5
605
100
AcDbEntity
  8
0-0
100
AcDbLine
  6
CONTINUOUS
370
13
 10
289.807953163233
 20
113.994810850573
 11
289.086265663233
 21
112.744811433386
  0
LINE
  5
606
100
AcDbEntity
  8
0-0
100
AcDbLine
  6
CONTINUOUS
370
13
 10
291.251328163233
 20
111.494812016198
 11
291.973015663233
 21
112.744811433386
  0
LINE
  5
607
100
AcDbEntity
  8
0-0
100
AcDbLine
  6
CONTINUOUS
370
13
 10
291.973015663233
 20
112.744811433386
 11
291.251328163233
 21
113.994810850573
  0
LINE
  5
608
100
AcDbEntity
  8
0-0
100
AcDbLine
  6
CONTINUOUS
370
50
 10
449.029640663233
 20
128.441977816602
 11
449.029640663233
 21
125.241977816602
  0
LINE
  5
609
100
AcDbEntity
  8
0-0
100
AcDbLine
  6
CONTINUOUS
370
50
 10
449.029640663233
 20
85.2419778166025
 11
449.029640663233
 21
73.0419778166026
  0
LINE
  5
60A
100
AcDbEntity
  8
0-0
100
AcDbLine
  6
CONTINUOUS
370
20
 10
453.929640663233
 20
167.771751752338
 11
453.929640663233
 21
168.908888734795
  0
LINE
  5
60B
100
AcDbEntity
  8
0-0
100
AcDbLine
  6
CONTINUOUS
370
20
 10
453.929640663233
 20
174.134614769881
 11
453.929640663233
 21
175.271751752339
  0
LINE
  5
60C
100
AcDbEntity
  8
0-0
100
AcDbLine
  6
CONTINUOUS
370
50
 10
309.529640663233
 20
223.621751752338
 11
309.529640663233
 21
263.52175175234
  0
LINE
  5
60D
100
AcDbEntity
  8
0-0
100
AcDbLine
  6
CONTINUOUS
370
20
 10
258.029640663234
 20
274.722150433322
 11
224.029640663233
 21
274.722150433322
  0
LINE
  5
60E
100
AcDbEntity
  8
0-0
100
AcDbLine
  6
CONTINUOUS
370
20
 10
212.029640663233
 20
274.722150433322
 11
120.029640663233
 21
274.722150433322
  0
LINE
  5
60F
100
AcDbEntity
  8
0-0
100
AcDbLine
  6
BYLAYER
370
13
 10
220.029640663233
 20
239.810493320172
 11
220.029640663233
 21
271.586176231906
  0
LINE
  5
610
100
AcDbEntity
  8
0-0
100
AcDbLine
  6
BYLAYER
370
13
 10
220.029640663233
 20
279.586176231906
 11
220.029640663233
 21
280.192251752338
  0
LINE
  5
611
100
AcDbEntity
  8
0-0
100
AcDbLine
  6
BYLAYER
370
13
 10
219.600140663233
 20
280.621751752338
 11
219.600140663233
 21
279.586176231906
  0
LINE
  5
612
100
AcDbEntity
  8
0-0
100
AcDbLine
  6
BYLAYER
370
13
 10
219.600140663233
 20
271.586176231906
 11
219.600140663233
 21
260.621751752338
  0
LINE
  5
613
100
AcDbEntity
  8
0-0
100
AcDbLine
  6
BYLAYER
370
13
 10
216.459140663233
 20
280.621751752338
 11
216.459140663233
 21
279.586176231906
  0
LINE
  5
614
100
AcDbEntity
  8
0-0
100
AcDbLine
  6
BYLAYER
370
13
 10
216.459140663233
 20
271.586176231906
 11
216.459140663233
 21
260.621751752338
  0
LINE
  5
615
100
AcDbEntity
  8
0-0
100
AcDbLine
  6
BYLAYER
370
13
 10
216.029640663233
 20
280.192251752338
 11
216.029640663233
 21
279.586176231906
  0
LINE
  5
616
100
AcDbEntity
  8
0-0
100
AcDbLine
  6
BYLAYER
370
13
 10
216.029640663233
 20
271.586176231906
 11
216.029640663233
 21
239.821751752338
  0
LINE
  5
617
100
AcDbEntity
  8
0-0
100
AcDbLine
  6
CONTINUOUS
370
13
 10
212.029640663233
 20
276.090531663071
 11
213.029640663233
 21
276.090531663071
  0
LINE
  5
618
100
AcDbEntity
  8
0-0
100
AcDbLine
  6
CONTINUOUS
370
13
 10
223.029640663233
 20
276.090531663071
 11
224.029640663233
 21
276.090531663071
  0
LINE
  5
619
100
AcDbEntity
  8
0-0
100
AcDbLine
  6
BYLAYER
370
13
 10
218.013860380615
 20
279.086176231906
 11
218.013860380615
 21
274.086176231906
  0
LINE
  5
61A
100
AcDbEntity
  8
0-0
100
AcDbLine
  6
CONTINUOUS
370
50
 10
189.029640663233
 20
312.222152225475
 11
189.029640663233
 21
320.322152225475
  0
LINE
  5
61B
100
AcDbEntity
  8
0-0
100
AcDbLine
  6
CONTINUOUS
370
50
 10
189.029640663233
 20
359.522152225475
 11
189.029640663233
 21
367.622152225475
  0
ARC
  5
61C
100
AcDbEntity
  8
0-0
100
AcDbCircle
  6
CONTINUOUS
370
50
 10
69.422824385996
 20
167.521751752338
 40
3
100
AcDbArc
 50
0
 51
56.44306916564
  0
ARC
  5
61D
100
AcDbEntity
  8
0-0
100
AcDbCircle
  6
CONTINUOUS
370
50
 10
69.422824385996
 20
167.521751752338
 40
3
100
AcDbArc
 50
123.55693083436
 51
180
  0
LINE
  5
61E
100
AcDbEntity
  8
0-0
100
AcDbLine
  6
CONTINUOUS
370
50
 10
39.422824385996
 20
158.521751752338
 11
42.9202292226548
 21
158.521751752338
  0
LINE
  5
61F
100
AcDbEntity
  8
0-0
100
AcDbLine
  6
CONTINUOUS
370
40
 10
48.420511222646
 20
158.521751752338
 11
45.9202292226548
 21
158.521751752338
  0
LINE
  5
620
100
AcDbEntity
  8
0-0
100
AcDbLine
  6
CONTINUOUS
370
40
 10
42.9202292226548
 20
158.521751752338
 11
40.420511222646
 21
158.521751752338
  0
LINE
  5
621
100
AcDbEntity
  8
0-0
100
AcDbLine
  6
CONTINUOUS
370
50
 10
45.9202292226548
 20
158.521751752338
 11
84.9202292226548
 21
158.521751752338
  0
LINE
  5
622
100
AcDbEntity
  8
0-0
100
AcDbLine
  6
CONTINUOUS
370
50
 10
87.9202292226548
 20
158.521751752338
 11
91.422824385996
 21
158.521751752338
  0
LINE
  5
623
100
AcDbEntity
  8
0-0
100
AcDbLine
  6
CONTINUOUS
370
40
 10
90.420511222646
 20
158.521751752338
 11
87.9202292226548
 21
158.521751752338
  0
LINE
  5
624
100
AcDbEntity
  8
0-0
100
AcDbLine
  6
CONTINUOUS
370
40
 10
84.9202292226548
 20
158.521751752338
 11
82.420511222646
 21
158.521751752338
  0
ARC
  5
625
100
AcDbEntity
  8
0-0
100
AcDbCircle
  6
BYLAYER
370
13
 10
554.029983055757
 20
171.021751752338
 40
2.50000000000001
100
AcDbArc
 50
-168.463040967184
 51
-11.5369590328156
  0
ARC
  5
626
100
AcDbEntity
  8
0-0
100
AcDbCircle
  6
BYLAYER
370
13
 10
554.029983055757
 20
171.021751752338
 40
2.50000000000001
100
AcDbArc
 50
11.5369590328156
 51
168.463040967184
  0
LINE
  5
627
100
AcDbEntity
  8
0-0
100
AcDbLine
  6
CONTINUOUS
370
50
 10
189.029640663233
 20
312.222152225475
 11
212.029640663233
 21
312.222152225475
  0
LINE
  5
628
100
AcDbEntity
  8
0-0
100
AcDbLine
  6
CONTINUOUS
370
50
 10
224.029640663233
 20
312.222152225475
 11
449.029640663233
 21
312.222152225475
  0
LINE
  5
629
100
AcDbEntity
  8
0-0
100
AcDbLine
  6
CONTINUOUS
370
50
 10
449.029640663233
 20
367.622152225475
 11
224.029640663233
 21
367.622152225475
  0
LINE
  5
62A
100
AcDbEntity
  8
0-0
100
AcDbLine
  6
CONTINUOUS
370
50
 10
212.029640663233
 20
367.622152225475
 11
189.029640663233
 21
367.622152225475
  0
LINE
  5
62B
100
AcDbEntity
  8
0-0
100
AcDbLine
  6
CONTINUOUS
370
20
 10
258.029640663234
 20
359.522152225475
 11
224.029640663233
 21
359.522152225475
  0
LINE
  5
62C
100
AcDbEntity
  8
0-0
100
AcDbLine
  6
CONTINUOUS
370
20
 10
212.029640663233
 20
359.522152225475
 11
120.029640663233
 21
359.522152225475
  0
LINE
  5
62D
100
AcDbEntity
  8
0-0
100
AcDbLine
  6
CONTINUOUS
370
20
 10
258.029640663234
 20
320.322152225475
 11
222.415983103125
 21
320.322152225475
  0
LINE
  5
62E
100
AcDbEntity
  8
0-0
100
AcDbLine
  6
CONTINUOUS
370
20
 10
212.029640663233
 20
320.322152225475
 11
120.029640663233
 21
320.322152225475
  0
LINE
  5
62F
100
AcDbEntity
  8
0-0
100
AcDbLine
  6
CONTINUOUS
370
50
 10
258.029640663234
 20
313.923815867874
 11
224.029640663233
 21
313.923815867874
  0
LINE
  5
630
100
AcDbEntity
  8
0-0
100
AcDbLine
  6
CONTINUOUS
370
50
 10
212.029640663233
 20
313.923815867874
 11
203.029640663234
 21
313.923815867874
  0
LINE
  5
631
100
AcDbEntity
  8
0-0
100
AcDbLine
  6
CONTINUOUS
370
50
 10
212.029640663233
 20
313.922152225475
 11
198.029640663234
 21
313.922152225475
  0
LINE
  5
632
100
AcDbEntity
  8
0-0
100
AcDbLine
  6
CONTINUOUS
370
50
 10
258.029640663234
 20
365.923815867874
 11
224.029640663233
 21
365.923815867874
  0
LINE
  5
633
100
AcDbEntity
  8
0-0
100
AcDbLine
  6
CONTINUOUS
370
50
 10
212.029640663233
 20
365.923815867874
 11
203.029640663234
 21
365.923815867874
  0
LINE
  5
634
100
AcDbEntity
  8
0-0
100
AcDbLine
  6
CONTINUOUS
370
50
 10
212.029640663233
 20
365.922152225475
 11
198.029640663234
 21
365.922152225475
  0
LINE
  5
635
100
AcDbEntity
  8
0-0
100
AcDbLine
  6
CONTINUOUS
370
50
 10
203.029640663234
 20
313.923815867874
 11
203.029640663234
 21
320.322152225475
  0
LINE
  5
636
100
AcDbEntity
  8
0-0
100
AcDbLine
  6
CONTINUOUS
370
50
 10
203.029640663234
 20
359.522152225475
 11
203.029640663234
 21
365.923815867874
  0
LINE
  5
637
100
AcDbEntity
  8
0-0
100
AcDbLine
  6
CONTINUOUS
370
50
 10
198.029640663234
 20
313.922152225475
 11
198.029640663234
 21
320.322152225475
  0
LINE
  5
638
100
AcDbEntity
  8
0-0
100
AcDbLine
  6
CONTINUOUS
370
50
 10
198.029640663234
 20
359.522152225475
 11
198.029640663234
 21
365.922152225475
  0
LINE
  5
639
100
AcDbEntity
  8
0-0
100
AcDbLine
  6
CONTINUOUS
370
50
 10
266.029640663233
 20
319.922152225475
 11
266.029640663233
 21
326.122152225475
  0
LINE
  5
63A
100
AcDbEntity
  8
0-0
100
AcDbLine
  6
CONTINUOUS
370
50
 10
266.029640663233
 20
353.722152225475
 11
266.029640663233
 21
359.922152225475
  0
LINE
  5
63B
100
AcDbEntity
  8
0-0
100
AcDbLine
  6
CONTINUOUS
370
50
 10
266.029640663233
 20
365.922152225475
 11
266.029640663233
 21
353.722152225475
  0
LINE
  5
63C
100
AcDbEntity
  8
0-0
100
AcDbLine
  6
CONTINUOUS
370
50
 10
266.029640663233
 20
326.122152225475
 11
266.029640663233
 21
313.922152225475
  0
LINE
  5
63D
100
AcDbEntity
  8
0-0
100
AcDbLine
  6
CONTINUOUS
370
50
 10
266.029640663234
 20
313.922152225476
 11
266.029640663234
 21
326.122152225475
  0
LINE
  5
63E
100
AcDbEntity
  8
0-0
100
AcDbLine
  6
CONTINUOUS
370
50
 10
266.029640663234
 20
353.722152225475
 11
266.029640663234
 21
365.922152225476
  0
LINE
  5
63F
100
AcDbEntity
  8
0-0
100
AcDbLine
  6
CONTINUOUS
370
50
 10
266.029640663234
 20
313.922152225476
 11
266.029640663234
 21
326.122152225475
  0
LINE
  5
640
100
AcDbEntity
  8
0-0
100
AcDbLine
  6
CONTINUOUS
370
50
 10
266.029640663234
 20
353.722152225475
 11
266.029640663234
 21
365.922152225476
  0
LINE
  5
641
100
AcDbEntity
  8
0-0
100
AcDbLine
  6
CONTINUOUS
370
20
 10
284.229640663234
 20
354.919318608692
 11
284.229640663234
 21
353.722152225475
  0
LINE
  5
642
100
AcDbEntity
  8
0-0
100
AcDbLine
  6
CONTINUOUS
370
20
 10
284.229640663234
 20
326.122152225475
 11
284.229640663234
 21
324.919318608692
  0
LINE
  5
643
100
AcDbEntity
  8
0-0
100
AcDbLine
  6
CONTINUOUS
370
50
 10
291.029640663233
 20
354.919318608692
 11
288.029640663234
 21
354.919318608692
  0
LINE
  5
644
100
AcDbEntity
  8
0-0
100
AcDbLine
  6
CONTINUOUS
370
50
 10
288.029640663234
 20
324.919318608692
 11
291.029640663233
 21
324.919318608692
  0
LINE
  5
645
100
AcDbEntity
  8
0-0
100
AcDbLine
  6
CONTINUOUS
370
50
 10
266.029640663234
 20
365.922152225476
 11
261.029640663234
 21
365.922152225476
  0
LINE
  5
646
100
AcDbEntity
  8
0-0
100
AcDbLine
  6
CONTINUOUS
370
50
 10
258.029640663234
 20
365.922152225476
 11
224.029640663233
 21
365.922152225475
  0
LINE
  5
647
100
AcDbEntity
  8
0-0
100
AcDbLine
  6
CONTINUOUS
370
50
 10
266.029640663234
 20
313.922152225476
 11
261.029640663234
 21
313.922152225476
  0
LINE
  5
648
100
AcDbEntity
  8
0-0
100
AcDbLine
  6
CONTINUOUS
370
50
 10
258.029640663234
 20
313.922152225476
 11
224.029640663233
 21
313.922152225475
  0
ARC
  5
649
100
AcDbEntity
  8
0-0
100
AcDbCircle
  6
BYLAYER
370
13
 10
231.029640663234
 20
358.922152225475
 40
2.98038451545845
100
AcDbArc
 50
11.6139435596864
 51
168.386056440314
  0
ARC
  5
64A
100
AcDbEntity
  8
0-0
100
AcDbCircle
  6
BYLAYER
370
13
 10
231.029640663234
 20
358.922152225475
 40
3.49999999999987
100
AcDbArc
 50
9.87088960613989
 51
170.12911039386
  0
LINE
  5
64B
100
AcDbEntity
  8
0-0
100
AcDbLine
  6
BYLAYER
370
13
 10
231.895665663234
 20
360.4221515261
 11
230.163615663234
 21
360.4221515261
  0
LINE
  5
64C
100
AcDbEntity
  8
0-0
100
AcDbLine
  6
BYLAYER
370
13
 10
230.163615663234
 20
360.4221515261
 11
229.638718668948
 21
359.513003263257
  0
LINE
  5
64D
100
AcDbEntity
  8
0-0
100
AcDbLine
  6
BYLAYER
370
13
 10
232.414924103877
 20
359.522769524647
 11
231.895665663234
 21
360.4221515261
  0
ARC
  5
64E
100
AcDbEntity
  8
0-0
100
AcDbCircle
  6
BYLAYER
370
13
 10
231.029640663234
 20
320.922152225475
 40
2.98038451545845
100
AcDbArc
 50
-168.386056440316
 51
-11.6139435596842
  0
ARC
  5
64F
100
AcDbEntity
  8
0-0
100
AcDbCircle
  6
BYLAYER
370
13
 10
231.029640663234
 20
320.922152225475
 40
3.49999999999987
100
AcDbArc
 50
-170.129110393862
 51
-9.87088960613803
  0
LINE
  5
650
100
AcDbEntity
  8
0-0
100
AcDbLine
  6
BYLAYER
370
13
 10
230.163615663234
 20
319.42215292485
 11
231.895665663234
 21
319.42215292485
  0
LINE
  5
651
100
AcDbEntity
  8
0-0
100
AcDbLine
  6
BYLAYER
370
13
 10
229.644769544968
 20
320.320820762995
 11
230.163615663234
 21
319.42215292485
  0
LINE
  5
652
100
AcDbEntity
  8
0-0
100
AcDbLine
  6
BYLAYER
370
13
 10
231.895665663234
 20
319.42215292485
 11
232.414239056367
 21
320.320348389211
  0
LINE
  5
653
100
AcDbEntity
  8
0-0
100
AcDbLine
  6
CONTINUOUS
370
13
 10
544.80829555572
 20
209.271752335165
 11
546.25167055572
 21
209.271752335165
  0
LINE
  5
654
100
AcDbEntity
  8
0-0
100
AcDbLine
  6
CONTINUOUS
370
13
 10
546.25167055572
 20
211.77175116954
 11
544.80829555572
 21
211.77175116954
  0
CIRCLE
  5
655
100
AcDbEntity
  8
0-0
100
AcDbCircle
  6
CONTINUOUS
370
13
 10
545.52998305572
 20
210.521751752353
 40
2.4035896769725
  0
CIRCLE
  5
656
100
AcDbEntity
  8
0-0
100
AcDbCircle
  6
CONTINUOUS
370
13
 10
545.52998305572
 20
210.521751752353
 40
2.74999999999989
  0
LINE
  5
657
100
AcDbEntity
  8
0-0
100
AcDbLine
  6
CONTINUOUS
370
13
 10
544.08660805572
 20
210.521751752353
 11
544.80829555572
 21
209.271752335165
  0
LINE
  5
658
100
AcDbEntity
  8
0-0
100
AcDbLine
  6
CONTINUOUS
370
13
 10
544.80829555572
 20
211.77175116954
 11
544.08660805572
 21
210.521751752353
  0
LINE
  5
659
100
AcDbEntity
  8
0-0
100
AcDbLine
  6
CONTINUOUS
370
13
 10
546.25167055572
 20
209.271752335165
 11
546.97335805572
 21
210.521751752353
  0
LINE
  5
65A
100
AcDbEntity
  8
0-0
100
AcDbLine
  6
CONTINUOUS
370
13
 10
546.97335805572
 20
210.521751752353
 11
546.25167055572
 21
211.77175116954
  0
LINE
  5
65B
100
AcDbEntity
  8
0-0
100
AcDbLine
  6
CONTINUOUS
370
13
 10
522.808295555758
 20
209.271752335128
 11
524.251670555758
 21
209.271752335128
  0
LINE
  5
65C
100
AcDbEntity
  8
0-0
100
AcDbLine
  6
CONTINUOUS
370
13
 10
524.251670555758
 20
211.771751169502
 11
522.808295555758
 21
211.771751169502
  0
CIRCLE
  5
65D
100
AcDbEntity
  8
0-0
100
AcDbCircle
  6
CONTINUOUS
370
13
 10
523.529983055758
 20
210.521751752315
 40
2.4035896769725
  0
CIRCLE
  5
65E
100
AcDbEntity
  8
0-0
100
AcDbCircle
  6
CONTINUOUS
370
13
 10
523.529983055758
 20
210.521751752315
 40
2.74999999999989
  0
LINE
  5
65F
100
AcDbEntity
  8
0-0
100
AcDbLine
  6
CONTINUOUS
370
13
 10
522.086608055758
 20
210.521751752315
 11
522.808295555758
 21
209.271752335128
  0
LINE
  5
660
100
AcDbEntity
  8
0-0
100
AcDbLine
  6
CONTINUOUS
370
13
 10
522.808295555758
 20
211.771751169502
 11
522.086608055758
 21
210.521751752315
  0
LINE
  5
661
100
AcDbEntity
  8
0-0
100
AcDbLine
  6
CONTINUOUS
370
13
 10
524.251670555758
 20
209.271752335128
 11
524.973358055758
 21
210.521751752315
  0
LINE
  5
662
100
AcDbEntity
  8
0-0
100
AcDbLine
  6
CONTINUOUS
370
13
 10
524.973358055758
 20
210.521751752315
 11
524.251670555758
 21
211.771751169502
  0
LINE
  5
663
100
AcDbEntity
  8
0-0
100
AcDbLine
  6
CONTINUOUS
370
50
 10
519.529983055757
 20
227.621751752083
 11
529.529983055748
 21
227.621751752083
  0
LINE
  5
664
100
AcDbEntity
  8
0-0
100
AcDbLine
  6
CONTINUOUS
370
50
 10
539.529983055748
 20
227.621751752083
 11
549.529983055757
 21
227.621751752083
  0
ARC
  5
665
100
AcDbEntity
  8
0-0
100
AcDbCircle
  6
CONTINUOUS
370
20
 10
508.029983055747
 20
255.122150433322
 40
53
100
AcDbArc
 50
-7.8763810049208
 51
17.2763728182906
  0
ARC
  5
666
100
AcDbEntity
  8
0-0
100
AcDbCircle
  6
CONTINUOUS
370
20
 10
561.029983055748
 20
255.122150433322
 40
53
100
AcDbArc
 50
162.72362718171
 51
-172.123618994944
  0
LINE
  5
667
100
AcDbEntity
  8
0-0
100
AcDbLine
  6
CONTINUOUS
370
20
 10
558.638800469317
 20
270.862150433322
 11
539.379138492762
 21
276.022741030748
  0
LINE
  5
668
100
AcDbEntity
  8
0-0
100
AcDbLine
  6
CONTINUOUS
370
20
 10
510.421165642178
 20
270.862150433322
 11
527.580526252298
 21
275.461477863731
  0
ARC
  5
669
100
AcDbEntity
  8
0-0
100
AcDbCircle
  6
CONTINUOUS
370
20
 10
534.529983055748
 20
255.122150433322
 40
18.8
100
AcDbArc
 50
-37.0725965251717
 51
-142.927403474734
  0
ARC
  5
66A
100
AcDbEntity
  8
0-0
100
AcDbCircle
  6
CONTINUOUS
370
20
 10
534.529983055748
 20
253.536490822926
 40
23
100
AcDbArc
 50
437.10381712589
 51
467.725473125819
  0
LINE
  5
66B
100
AcDbEntity
  8
0-0
100
AcDbLine
  6
BYLAYER
370
13
 10
510.529983055765
 20
270.891317424248
 11
510.529983055765
 21
271.586176231906
  0
LINE
  5
66C
100
AcDbEntity
  8
0-0
100
AcDbLine
  6
BYLAYER
370
13
 10
510.529983055765
 20
279.586176231906
 11
510.529983055765
 21
280.192251752338
  0
LINE
  5
66D
100
AcDbEntity
  8
0-0
100
AcDbLine
  6
BYLAYER
370
13
 10
558.529983055765
 20
280.192251752338
 11
558.529983055765
 21
279.586176231906
  0
LINE
  5
66E
100
AcDbEntity
  8
0-0
100
AcDbLine
  6
BYLAYER
370
13
 10
558.529983055765
 20
271.586176231906
 11
558.529983055765
 21
270.891307856848
  0
LINE
  5
66F
100
AcDbEntity
  8
0-0
100
AcDbLine
  6
BYLAYER
370
13
 10
512.514202773147
 20
279.086176231906
 11
512.514202773147
 21
274.086176231906
  0
LINE
  5
670
100
AcDbEntity
  8
0-0
100
AcDbLine
  6
BYLAYER
370
13
 10
556.514202773147
 20
279.086176231906
 11
556.514202773147
 21
274.086176231906
  0
LINE
  5
671
100
AcDbEntity
  8
0-0
100
AcDbLine
  6
CONTINUOUS
370
20
 10
41.3111733556431
 20
270.862150433322
 11
41.4199907692126
 21
270.891317424243
  0
LINE
  5
672
100
AcDbEntity
  8
0-0
100
AcDbLine
  6
CONTINUOUS
370
20
 10
47.9199907692126
 20
272.633551821953
 11
58.4705339657629
 21
275.461477863731
  0
LINE
  5
673
100
AcDbEntity
  8
0-0
100
AcDbLine
  6
CONTINUOUS
370
20
 10
89.5288081827824
 20
270.862150433322
 11
89.4199907692126
 21
270.891307856852
  0
LINE
  5
674
100
AcDbEntity
  8
0-0
100
AcDbLine
  6
CONTINUOUS
370
20
 10
82.9199907692126
 20
272.632970764753
 11
70.2691462062267
 21
276.022741030748
  0
LINE
  5
675
100
AcDbEntity
  8
0-0
100
AcDbLine
  6
BYLAYER
370
13
 10
45.4199907692126
 20
280.192251752338
 11
45.4199907692126
 21
279.586176231906
  0
LINE
  5
676
100
AcDbEntity
  8
0-0
100
AcDbLine
  6
BYLAYER
370
13
 10
45.4199907692126
 20
271.586176231906
 11
45.4199907692126
 21
250.604156145908
  0
LINE
  5
677
100
AcDbEntity
  8
0-0
100
AcDbLine
  6
BYLAYER
370
13
 10
44.9904907692126
 20
280.621751752338
 11
44.9904907692126
 21
279.586176231906
  0
LINE
  5
678
100
AcDbEntity
  8
0-0
100
AcDbLine
  6
BYLAYER
370
13
 10
44.9904907692126
 20
271.586176231906
 11
44.9904907692125
 21
260.621751752338
  0
LINE
  5
679
100
AcDbEntity
  8
0-0
100
AcDbLine
  6
BYLAYER
370
13
 10
41.8494907692125
 20
280.621751752338
 11
41.8494907692125
 21
279.586176231906
  0
LINE
  5
67A
100
AcDbEntity
  8
0-0
100
AcDbLine
  6
BYLAYER
370
13
 10
41.8494907692125
 20
271.586176231906
 11
41.8494907692125
 21
260.621751752338
  0
LINE
  5
67B
100
AcDbEntity
  8
0-0
100
AcDbLine
  6
BYLAYER
370
13
 10
41.4199907692126
 20
250.614307278986
 11
41.4199907692126
 21
271.586176231906
  0
LINE
  5
67C
100
AcDbEntity
  8
0-0
100
AcDbLine
  6
BYLAYER
370
13
 10
41.4199907692126
 20
279.586176231906
 11
41.4199907692126
 21
280.192251752338
  0
LINE
  5
67D
100
AcDbEntity
  8
0-0
100
AcDbLine
  6
BYLAYER
370
13
 10
89.4199907692126
 20
280.192251752338
 11
89.4199907692126
 21
279.586176231906
  0
LINE
  5
67E
100
AcDbEntity
  8
0-0
100
AcDbLine
  6
BYLAYER
370
13
 10
89.4199907692126
 20
271.586176231906
 11
89.4199907692126
 21
250.623415394738
  0
LINE
  5
67F
100
AcDbEntity
  8
0-0
100
AcDbLine
  6
BYLAYER
370
13
 10
88.9904907692126
 20
280.621751752338
 11
88.9904907692126
 21
279.586176231906
  0
LINE
  5
680
100
AcDbEntity
  8
0-0
100
AcDbLine
  6
BYLAYER
370
13
 10
88.9904907692126
 20
271.586176231906
 11
88.9904907692126
 21
260.621751752338
  0
LINE
  5
681
100
AcDbEntity
  8
0-0
100
AcDbLine
  6
BYLAYER
370
13
 10
85.8494907692125
 20
280.621751752338
 11
85.8494907692125
 21
279.586176231906
  0
LINE
  5
682
100
AcDbEntity
  8
0-0
100
AcDbLine
  6
BYLAYER
370
13
 10
85.8494907692125
 20
271.586176231906
 11
85.8494907692125
 21
260.621751752338
  0
LINE
  5
683
100
AcDbEntity
  8
0-0
100
AcDbLine
  6
BYLAYER
370
13
 10
85.4199907692126
 20
250.623415394738
 11
85.4199907692126
 21
271.586176231906
  0
LINE
  5
684
100
AcDbEntity
  8
0-0
100
AcDbLine
  6
BYLAYER
370
13
 10
85.4199907692126
 20
279.586176231906
 11
85.4199907692126
 21
280.192251752338
  0
LINE
  5
685
100
AcDbEntity
  8
0-0
100
AcDbLine
  6
BYLAYER
370
13
 10
43.4042104865948
 20
279.086176231906
 11
43.4042104865948
 21
274.086176231906
  0
LINE
  5
686
100
AcDbEntity
  8
0-0
100
AcDbLine
  6
BYLAYER
370
13
 10
87.4042104865948
 20
279.086176231906
 11
87.4042104865948
 21
274.086176231906
  0
LINE
  5
687
100
AcDbEntity
  8
0-0
100
AcDbLine
  6
CONTINUOUS
370
13
 10
212.029640663232
 20
276.151414291319
 11
212.029640663232
 21
271.647091631388
  0
LINE
  5
688
100
AcDbEntity
  8
0-0
100
AcDbLine
  6
CONTINUOUS
370
20
 10
120.244485731774
 20
344.922152225475
 11
120.244485731774
 21
326.922152225475
  0
LINE
  5
689
100
AcDbEntity
  8
0-0
100
AcDbLine
  6
CONTINUOUS
370
20
 10
129.744485731774
 20
344.922152225475
 11
129.744485731774
 21
326.922152225475
  0
LINE
  5
68A
100
AcDbEntity
  8
0-0
100
AcDbLine
  6
CONTINUOUS
370
20
 10
139.244485731774
 20
344.922152225475
 11
139.244485731774
 21
326.922152225475
  0
LINE
  5
68B
100
AcDbEntity
  8
0-0
100
AcDbLine
  6
CONTINUOUS
370
20
 10
148.744485731774
 20
344.922152225475
 11
148.744485731774
 21
326.922152225475
  0
LINE
  5
68C
100
AcDbEntity
  8
0-0
100
AcDbLine
  6
CONTINUOUS
370
20
 10
158.244485731774
 20
344.922152225475
 11
158.244485731774
 21
326.922152225475
  0
LINE
  5
68D
100
AcDbEntity
  8
0-0
100
AcDbLine
  6
CONTINUOUS
370
20
 10
167.744485731774
 20
344.922152225475
 11
167.744485731774
 21
326.922152225475
  0
LINE
  5
68E
100
AcDbEntity
  8
0-0
100
AcDbLine
  6
CONTINUOUS
370
20
 10
177.244485731774
 20
344.922152225475
 11
177.244485731774
 21
326.922152225475
  0
LINE
  5
68F
100
AcDbEntity
  8
0-0
100
AcDbLine
  6
CONTINUOUS
370
20
 10
186.744485731774
 20
344.922152225475
 11
186.744485731774
 21
326.922152225475
  0
LINE
  5
690
100
AcDbEntity
  8
0-0
100
AcDbLine
  6
CONTINUOUS
370
20
 10
196.244485731774
 20
344.922152225475
 11
196.244485731774
 21
326.922152225475
  0
LINE
  5
691
100
AcDbEntity
  8
0-0
100
AcDbLine
  6
CONTINUOUS
370
20
 10
205.744485731774
 20
344.922152225475
 11
205.744485731774
 21
326.922152225475
  0
LINE
  5
692
100
AcDbEntity
  8
0-0
100
AcDbLine
  6
CONTINUOUS
370
20
 10
124.994485731774
 20
342.422152225475
 11
124.994485731774
 21
329.422152225475
  0
LINE
  5
693
100
AcDbEntity
  8
0-0
100
AcDbLine
  6
CONTINUOUS
370
20
 10
134.494485731774
 20
342.422152225475
 11
134.494485731774
 21
329.422152225475
  0
LINE
  5
694
100
AcDbEntity
  8
0-0
100
AcDbLine
  6
CONTINUOUS
370
20
 10
143.994485731774
 20
342.422152225475
 11
143.994485731774
 21
329.422152225475
  0
LINE
  5
695
100
AcDbEntity
  8
0-0
100
AcDbLine
  6
CONTINUOUS
370
20
 10
153.494485731774
 20
342.422152225475
 11
153.494485731774
 21
329.422152225475
  0
LINE
  5
696
100
AcDbEntity
  8
0-0
100
AcDbLine
  6
CONTINUOUS
370
20
 10
162.994485731774
 20
342.422152225475
 11
162.994485731774
 21
329.422152225475
  0
LINE
  5
697
100
AcDbEntity
  8
0-0
100
AcDbLine
  6
CONTINUOUS
370
20
 10
172.494485731774
 20
342.422152225475
 11
172.494485731774
 21
329.422152225475
  0
LINE
  5
698
100
AcDbEntity
  8
0-0
100
AcDbLine
  6
CONTINUOUS
370
20
 10
181.994485731774
 20
342.422152225475
 11
181.994485731774
 21
329.422152225475
  0
LINE
  5
699
100
AcDbEntity
  8
0-0
100
AcDbLine
  6
CONTINUOUS
370
20
 10
191.494485731774
 20
342.422152225475
 11
191.494485731774
 21
329.422152225475
  0
LINE
  5
69A
100
AcDbEntity
  8
0-0
100
AcDbLine
  6
CONTINUOUS
370
20
 10
200.994485731774
 20
342.422152225475
 11
200.994485731774
 21
329.422152225475
  0
LINE
  5
69B
100
AcDbEntity
  8
0-0
100
AcDbLine
  6
CONTINUOUS
370
20
 10
210.494485731774
 20
342.422152225475
 11
210.494485731774
 21
329.422152225475
  0
LINE
  5
69C
100
AcDbEntity
  8
0-0
100
AcDbLine
  6
CONTINUOUS
370
20
 10
121.194485731774
 20
339.922152225475
 11
121.194485731774
 21
331.922152225475
  0
LINE
  5
69D
100
AcDbEntity
  8
0-0
100
AcDbLine
  6
CONTINUOUS
370
20
 10
122.144485731774
 20
339.922152225475
 11
122.144485731774
 21
331.922152225475
  0
LINE
  5
69E
100
AcDbEntity
  8
0-0
100
AcDbLine
  6
CONTINUOUS
370
20
 10
123.094485731774
 20
339.922152225475
 11
123.094485731774
 21
331.922152225475
  0
LINE
  5
69F
100
AcDbEntity
  8
0-0
100
AcDbLine
  6
CONTINUOUS
370
20
 10
124.044485731774
 20
339.922152225475
 11
124.044485731774
 21
331.922152225475
  0
LINE
  5
6A0
100
AcDbEntity
  8
0-0
100
AcDbLine
  6
CONTINUOUS
370
20
 10
130.694485731774
 20
339.922152225475
 11
130.694485731774
 21
331.922152225475
  0
LINE
  5
6A1
100
AcDbEntity
  8
0-0
100
AcDbLine
  6
CONTINUOUS
370
20
 10
131.644485731774
 20
339.922152225475
 11
131.644485731774
 21
331.922152225475
  0
LINE
  5
6A2
100
AcDbEntity
  8
0-0
100
AcDbLine
  6
CONTINUOUS
370
20
 10
132.594485731774
 20
339.922152225475
 11
132.594485731774
 21
331.922152225475
  0
LINE
  5
6A3
100
AcDbEntity
  8
0-0
100
AcDbLine
  6
CONTINUOUS
370
20
 10
133.544485731774
 20
339.922152225475
 11
133.544485731774
 21
331.922152225475
  0
LINE
  5
6A4
100
AcDbEntity
  8
0-0
100
AcDbLine
  6
CONTINUOUS
370
20
 10
140.194485731774
 20
339.922152225475
 11
140.194485731774
 21
331.922152225475
  0
LINE
  5
6A5
100
AcDbEntity
  8
0-0
100
AcDbLine
  6
CONTINUOUS
370
20
 10
141.144485731774
 20
339.922152225475
 11
141.144485731774
 21
331.922152225475
  0
LINE
  5
6A6
100
AcDbEntity
  8
0-0
100
AcDbLine
  6
CONTINUOUS
370
20
 10
142.094485731774
 20
339.922152225475
 11
142.094485731774
 21
331.922152225475
  0
LINE
  5
6A7
100
AcDbEntity
  8
0-0
100
AcDbLine
  6
CONTINUOUS
370
20
 10
143.044485731774
 20
339.922152225475
 11
143.044485731774
 21
331.922152225475
  0
LINE
  5
6A8
100
AcDbEntity
  8
0-0
100
AcDbLine
  6
CONTINUOUS
370
20
 10
149.694485731774
 20
339.922152225475
 11
149.694485731774
 21
331.922152225475
  0
LINE
  5
6A9
100
AcDbEntity
  8
0-0
100
AcDbLine
  6
CONTINUOUS
370
20
 10
150.644485731774
 20
339.922152225475
 11
150.644485731774
 21
331.922152225475
  0
LINE
  5
6AA
100
AcDbEntity
  8
0-0
100
AcDbLine
  6
CONTINUOUS
370
20
 10
151.594485731774
 20
339.922152225475
 11
151.594485731774
 21
331.922152225475
  0
LINE
  5
6AB
100
AcDbEntity
  8
0-0
100
AcDbLine
  6
CONTINUOUS
370
20
 10
152.544485731774
 20
339.922152225475
 11
152.544485731774
 21
331.922152225475
  0
LINE
  5
6AC
100
AcDbEntity
  8
0-0
100
AcDbLine
  6
CONTINUOUS
370
20
 10
159.194485731774
 20
339.922152225475
 11
159.194485731774
 21
331.922152225475
  0
LINE
  5
6AD
100
AcDbEntity
  8
0-0
100
AcDbLine
  6
CONTINUOUS
370
20
 10
160.144485731774
 20
339.922152225475
 11
160.144485731774
 21
331.922152225475
  0
LINE
  5
6AE
100
AcDbEntity
  8
0-0
100
AcDbLine
  6
CONTINUOUS
370
20
 10
161.094485731774
 20
339.922152225475
 11
161.094485731774
 21
331.922152225475
  0
LINE
  5
6AF
100
AcDbEntity
  8
0-0
100
AcDbLine
  6
CONTINUOUS
370
20
 10
162.044485731774
 20
339.922152225475
 11
162.044485731774
 21
331.922152225475
  0
LINE
  5
6B0
100
AcDbEntity
  8
0-0
100
AcDbLine
  6
CONTINUOUS
370
20
 10
168.694485731774
 20
339.922152225475
 11
168.694485731774
 21
331.922152225475
  0
LINE
  5
6B1
100
AcDbEntity
  8
0-0
100
AcDbLine
  6
CONTINUOUS
370
20
 10
169.644485731774
 20
339.922152225475
 11
169.644485731774
 21
331.922152225475
  0
LINE
  5
6B2
100
AcDbEntity
  8
0-0
100
AcDbLine
  6
CONTINUOUS
370
20
 10
170.594485731774
 20
339.922152225475
 11
170.594485731774
 21
331.922152225475
  0
LINE
  5
6B3
100
AcDbEntity
  8
0-0
100
AcDbLine
  6
CONTINUOUS
370
20
 10
171.544485731774
 20
339.922152225475
 11
171.544485731774
 21
331.922152225475
  0
LINE
  5
6B4
100
AcDbEntity
  8
0-0
100
AcDbLine
  6
CONTINUOUS
370
20
 10
178.194485731774
 20
339.922152225475
 11
178.194485731774
 21
331.922152225475
  0
LINE
  5
6B5
100
AcDbEntity
  8
0-0
100
AcDbLine
  6
CONTINUOUS
370
20
 10
179.144485731774
 20
339.922152225475
 11
179.144485731774
 21
331.922152225475
  0
LINE
  5
6B6
100
AcDbEntity
  8
0-0
100
AcDbLine
  6
CONTINUOUS
370
20
 10
180.094485731774
 20
339.922152225475
 11
180.094485731774
 21
331.922152225475
  0
LINE
  5
6B7
100
AcDbEntity
  8
0-0
100
AcDbLine
  6
CONTINUOUS
370
20
 10
181.044485731774
 20
339.922152225475
 11
181.044485731774
 21
331.922152225475
  0
LINE
  5
6B8
100
AcDbEntity
  8
0-0
100
AcDbLine
  6
CONTINUOUS
370
20
 10
187.694485731774
 20
339.922152225475
 11
187.694485731774
 21
331.922152225475
  0
LINE
  5
6B9
100
AcDbEntity
  8
0-0
100
AcDbLine
  6
CONTINUOUS
370
20
 10
188.644485731774
 20
339.922152225475
 11
188.644485731774
 21
331.922152225475
  0
LINE
  5
6BA
100
AcDbEntity
  8
0-0
100
AcDbLine
  6
CONTINUOUS
370
20
 10
189.594485731774
 20
339.922152225475
 11
189.594485731774
 21
331.922152225475
  0
LINE
  5
6BB
100
AcDbEntity
  8
0-0
100
AcDbLine
  6
CONTINUOUS
370
20
 10
190.544485731774
 20
339.922152225475
 11
190.544485731774
 21
331.922152225475
  0
LINE
  5
6BC
100
AcDbEntity
  8
0-0
100
AcDbLine
  6
CONTINUOUS
370
20
 10
197.194485731774
 20
339.922152225475
 11
197.194485731774
 21
331.922152225475
  0
LINE
  5
6BD
100
AcDbEntity
  8
0-0
100
AcDbLine
  6
CONTINUOUS
370
20
 10
198.144485731774
 20
339.922152225475
 11
198.144485731774
 21
331.922152225475
  0
LINE
  5
6BE
100
AcDbEntity
  8
0-0
100
AcDbLine
  6
CONTINUOUS
370
20
 10
199.094485731774
 20
339.922152225475
 11
199.094485731774
 21
331.922152225475
  0
LINE
  5
6BF
100
AcDbEntity
  8
0-0
100
AcDbLine
  6
CONTINUOUS
370
20
 10
200.044485731774
 20
339.922152225475
 11
200.044485731774
 21
331.922152225475
  0
LINE
  5
6C0
100
AcDbEntity
  8
0-0
100
AcDbLine
  6
CONTINUOUS
370
20
 10
206.694485731774
 20
339.922152225475
 11
206.694485731774
 21
331.922152225475
  0
LINE
  5
6C1
100
AcDbEntity
  8
0-0
100
AcDbLine
  6
CONTINUOUS
370
20
 10
207.644485731774
 20
339.922152225475
 11
207.644485731774
 21
331.922152225475
  0
LINE
  5
6C2
100
AcDbEntity
  8
0-0
100
AcDbLine
  6
CONTINUOUS
370
20
 10
208.594485731774
 20
339.922152225475
 11
208.594485731774
 21
331.922152225475
  0
LINE
  5
6C3
100
AcDbEntity
  8
0-0
100
AcDbLine
  6
CONTINUOUS
370
20
 10
209.544485731774
 20
339.922152225475
 11
209.544485731774
 21
331.922152225475
  0
LINE
  5
6C4
100
AcDbEntity
  8
0-0
100
AcDbLine
  6
CONTINUOUS
370
20
 10
125.944485731774
 20
339.922152225475
 11
125.944485731774
 21
331.922152225475
  0
LINE
  5
6C5
100
AcDbEntity
  8
0-0
100
AcDbLine
  6
CONTINUOUS
370
20
 10
126.894485731774
 20
339.922152225475
 11
126.894485731774
 21
331.922152225475
  0
LINE
  5
6C6
100
AcDbEntity
  8
0-0
100
AcDbLine
  6
CONTINUOUS
370
20
 10
127.844485731774
 20
339.922152225475
 11
127.844485731774
 21
331.922152225475
  0
LINE
  5
6C7
100
AcDbEntity
  8
0-0
100
AcDbLine
  6
CONTINUOUS
370
20
 10
128.794485731774
 20
339.922152225475
 11
128.794485731774
 21
331.922152225475
  0
LINE
  5
6C8
100
AcDbEntity
  8
0-0
100
AcDbLine
  6
CONTINUOUS
370
20
 10
135.444485731774
 20
339.922152225475
 11
135.444485731774
 21
331.922152225475
  0
LINE
  5
6C9
100
AcDbEntity
  8
0-0
100
AcDbLine
  6
CONTINUOUS
370
20
 10
136.394485731774
 20
339.922152225475
 11
136.394485731774
 21
331.922152225475
  0
LINE
  5
6CA
100
AcDbEntity
  8
0-0
100
AcDbLine
  6
CONTINUOUS
370
20
 10
137.344485731774
 20
339.922152225475
 11
137.344485731774
 21
331.922152225475
  0
LINE
  5
6CB
100
AcDbEntity
  8
0-0
100
AcDbLine
  6
CONTINUOUS
370
20
 10
138.294485731774
 20
339.922152225475
 11
138.294485731774
 21
331.922152225475
  0
LINE
  5
6CC
100
AcDbEntity
  8
0-0
100
AcDbLine
  6
CONTINUOUS
370
20
 10
144.944485731774
 20
339.922152225475
 11
144.944485731774
 21
331.922152225475
  0
LINE
  5
6CD
100
AcDbEntity
  8
0-0
100
AcDbLine
  6
CONTINUOUS
370
20
 10
145.894485731774
 20
339.922152225475
 11
145.894485731774
 21
331.922152225475
  0
LINE
  5
6CE
100
AcDbEntity
  8
0-0
100
AcDbLine
  6
CONTINUOUS
370
20
 10
146.844485731774
 20
339.922152225475
 11
146.844485731774
 21
331.922152225475
  0
LINE
  5
6CF
100
AcDbEntity
  8
0-0
100
AcDbLine
  6
CONTINUOUS
370
20
 10
147.794485731774
 20
339.922152225475
 11
147.794485731774
 21
331.922152225475
  0
LINE
  5
6D0
100
AcDbEntity
  8
0-0
100
AcDbLine
  6
CONTINUOUS
370
20
 10
154.444485731774
 20
339.922152225475
 11
154.444485731774
 21
331.922152225475
  0
LINE
  5
6D1
100
AcDbEntity
  8
0-0
100
AcDbLine
  6
CONTINUOUS
370
20
 10
155.394485731774
 20
339.922152225475
 11
155.394485731774
 21
331.922152225475
  0
LINE
  5
6D2
100
AcDbEntity
  8
0-0
100
AcDbLine
  6
CONTINUOUS
370
20
 10
156.344485731774
 20
339.922152225475
 11
156.344485731774
 21
331.922152225475
  0
LINE
  5
6D3
100
AcDbEntity
  8
0-0
100
AcDbLine
  6
CONTINUOUS
370
20
 10
157.294485731774
 20
339.922152225475
 11
157.294485731774
 21
331.922152225475
  0
LINE
  5
6D4
100
AcDbEntity
  8
0-0
100
AcDbLine
  6
CONTINUOUS
370
20
 10
163.944485731774
 20
339.922152225475
 11
163.944485731774
 21
331.922152225475
  0
LINE
  5
6D5
100
AcDbEntity
  8
0-0
100
AcDbLine
  6
CONTINUOUS
370
20
 10
164.894485731774
 20
339.922152225475
 11
164.894485731774
 21
331.922152225475
  0
LINE
  5
6D6
100
AcDbEntity
  8
0-0
100
AcDbLine
  6
CONTINUOUS
370
20
 10
165.844485731774
 20
339.922152225475
 11
165.844485731774
 21
331.922152225475
  0
LINE
  5
6D7
100
AcDbEntity
  8
0-0
100
AcDbLine
  6
CONTINUOUS
370
20
 10
166.794485731774
 20
339.922152225475
 11
166.794485731774
 21
331.922152225475
  0
LINE
  5
6D8
100
AcDbEntity
  8
0-0
100
AcDbLine
  6
CONTINUOUS
370
20
 10
173.444485731774
 20
339.922152225475
 11
173.444485731774
 21
331.922152225475
  0
LINE
  5
6D9
100
AcDbEntity
  8
0-0
100
AcDbLine
  6
CONTINUOUS
370
20
 10
174.394485731774
 20
339.922152225475
 11
174.394485731774
 21
331.922152225475
  0
LINE
  5
6DA
100
AcDbEntity
  8
0-0
100
AcDbLine
  6
CONTINUOUS
370
20
 10
175.344485731774
 20
339.922152225475
 11
175.344485731774
 21
331.922152225475
  0
LINE
  5
6DB
100
AcDbEntity
  8
0-0
100
AcDbLine
  6
CONTINUOUS
370
20
 10
176.294485731774
 20
339.922152225475
 11
176.294485731774
 21
331.922152225475
  0
LINE
  5
6DC
100
AcDbEntity
  8
0-0
100
AcDbLine
  6
CONTINUOUS
370
20
 10
182.944485731774
 20
339.922152225475
 11
182.944485731774
 21
331.922152225475
  0
LINE
  5
6DD
100
AcDbEntity
  8
0-0
100
AcDbLine
  6
CONTINUOUS
370
20
 10
183.894485731774
 20
339.922152225475
 11
183.894485731774
 21
331.922152225475
  0
LINE
  5
6DE
100
AcDbEntity
  8
0-0
100
AcDbLine
  6
CONTINUOUS
370
20
 10
184.844485731774
 20
339.922152225475
 11
184.844485731774
 21
331.922152225475
  0
LINE
  5
6DF
100
AcDbEntity
  8
0-0
100
AcDbLine
  6
CONTINUOUS
370
20
 10
185.794485731774
 20
339.922152225475
 11
185.794485731774
 21
331.922152225475
  0
LINE
  5
6E0
100
AcDbEntity
  8
0-0
100
AcDbLine
  6
CONTINUOUS
370
20
 10
192.444485731774
 20
339.922152225475
 11
192.444485731774
 21
331.922152225475
  0
LINE
  5
6E1
100
AcDbEntity
  8
0-0
100
AcDbLine
  6
CONTINUOUS
370
20
 10
193.394485731774
 20
339.922152225475
 11
193.394485731774
 21
331.922152225475
  0
LINE
  5
6E2
100
AcDbEntity
  8
0-0
100
AcDbLine
  6
CONTINUOUS
370
20
 10
194.344485731774
 20
339.922152225475
 11
194.344485731774
 21
331.922152225475
  0
LINE
  5
6E3
100
AcDbEntity
  8
0-0
100
AcDbLine
  6
CONTINUOUS
370
20
 10
195.294485731774
 20
339.922152225475
 11
195.294485731774
 21
331.922152225475
  0
LINE
  5
6E4
100
AcDbEntity
  8
0-0
100
AcDbLine
  6
CONTINUOUS
370
20
 10
201.944485731774
 20
339.922152225475
 11
201.944485731774
 21
331.922152225475
  0
LINE
  5
6E5
100
AcDbEntity
  8
0-0
100
AcDbLine
  6
CONTINUOUS
370
20
 10
202.894485731774
 20
339.922152225475
 11
202.894485731774
 21
331.922152225475
  0
LINE
  5
6E6
100
AcDbEntity
  8
0-0
100
AcDbLine
  6
CONTINUOUS
370
20
 10
203.844485731774
 20
339.922152225475
 11
203.844485731774
 21
331.922152225475
  0
LINE
  5
6E7
100
AcDbEntity
  8
0-0
100
AcDbLine
  6
CONTINUOUS
370
20
 10
204.794485731774
 20
339.922152225475
 11
204.794485731774
 21
331.922152225475
  0
LINE
  5
6E8
100
AcDbEntity
  8
0-0
100
AcDbLine
  6
CONTINUOUS
370
20
 10
211.444485731774
 20
339.922152225475
 11
211.444485731774
 21
331.922152225475
  0
TEXT
  5
6E9
100
AcDbEntity
  8
0-0
100
AcDbText
  6
CONTINUOUS
 10
132.244485731774
 20
348.346634151758
 40
5
  1
10
  7
Font_0
 50
90
 11
127.244485731774
 21
348.346634151758
100
AcDbText
 73
3
  0
TEXT
  5
6EA
100
AcDbEntity
  8
0-0
100
AcDbText
  6
CONTINUOUS
 10
141.744485731774
 20
348.346634151758
 40
5
  1
20
  7
Font_0
 50
90
 11
136.744485731774
 21
348.346634151758
100
AcDbText
 73
3
  0
TEXT
  5
6EB
100
AcDbEntity
  8
0-0
100
AcDbText
  6
CONTINUOUS
 10
151.244485731774
 20
348.346634151758
 40
5
  1
30
  7
Font_0
 50
90
 11
146.244485731774
 21
348.346634151758
100
AcDbText
 73
3
  0
TEXT
  5
6EC
100
AcDbEntity
  8
0-0
100
AcDbText
  6
CONTINUOUS
 10
160.744485731774
 20
348.346634151758
 40
5
  1
40
  7
Font_0
 50
90
 11
155.744485731774
 21
348.346634151758
100
AcDbText
 73
3
  0
TEXT
  5
6ED
100
AcDbEntity
  8
0-0
100
AcDbText
  6
CONTINUOUS
 10
170.244485731774
 20
348.346634151758
 40
5
  1
50
  7
Font_0
 50
90
 11
165.244485731774
 21
348.346634151758
100
AcDbText
 73
3
  0
TEXT
  5
6EE
100
AcDbEntity
  8
0-0
100
AcDbText
  6
CONTINUOUS
 10
179.744485731774
 20
348.346634151758
 40
5
  1
60
  7
Font_0
 50
90
 11
174.744485731774
 21
348.346634151758
100
AcDbText
 73
3
  0
TEXT
  5
6EF
100
AcDbEntity
  8
0-0
100
AcDbText
  6
CONTINUOUS
 10
189.244485731774
 20
348.346634151758
 40
5
  1
70
  7
Font_0
 50
90
 11
184.244485731774
 21
348.346634151758
100
AcDbText
 73
3
  0
TEXT
  5
6F0
100
AcDbEntity
  8
0-0
100
AcDbText
  6
CONTINUOUS
 10
198.744485731774
 20
348.346634151758
 40
5
  1
80
  7
Font_0
 50
90
 11
193.744485731774
 21
348.346634151758
100
AcDbText
 73
3
  0
TEXT
  5
6F1
100
AcDbEntity
  8
0-0
100
AcDbText
  6
CONTINUOUS
 10
208.244485731774
 20
348.346634151758
 40
5
  1
90
  7
Font_0
 50
90
 11
203.244485731774
 21
348.346634151758
100
AcDbText
 73
3
  0
LINE
  5
6F2
100
AcDbEntity
  8
0-0
100
AcDbLine
  6
CONTINUOUS
370
20
 10
120.244485731774
 20
274.722150433322
 11
120.244485731774
 21
269.722150433322
  0
LINE
  5
6F3
100
AcDbEntity
  8
0-0
100
AcDbLine
  6
CONTINUOUS
370
20
 10
124.994485731774
 20
274.722150433322
 11
124.994485731774
 21
270.722150433322
  0
LINE
  5
6F4
100
AcDbEntity
  8
0-0
100
AcDbLine
  6
CONTINUOUS
370
20
 10
121.194485731774
 20
274.722150433322
 11
121.194485731774
 21
271.722150433322
  0
LINE
  5
6F5
100
AcDbEntity
  8
0-0
100
AcDbLine
  6
CONTINUOUS
370
20
 10
122.144485731774
 20
274.722150433322
 11
122.144485731774
 21
271.722150433322
  0
LINE
  5
6F6
100
AcDbEntity
  8
0-0
100
AcDbLine
  6
CONTINUOUS
370
20
 10
123.094485731774
 20
274.722150433322
 11
123.094485731774
 21
271.722150433322
  0
LINE
  5
6F7
100
AcDbEntity
  8
0-0
100
AcDbLine
  6
CONTINUOUS
370
20
 10
124.044485731774
 20
274.722150433322
 11
124.044485731774
 21
271.722150433322
  0
LINE
  5
6F8
100
AcDbEntity
  8
0-0
100
AcDbLine
  6
CONTINUOUS
370
20
 10
125.944485731774
 20
274.722150433322
 11
125.944485731774
 21
271.722150433322
  0
LINE
  5
6F9
100
AcDbEntity
  8
0-0
100
AcDbLine
  6
CONTINUOUS
370
20
 10
126.894485731774
 20
274.722150433322
 11
126.894485731774
 21
271.722150433322
  0
LINE
  5
6FA
100
AcDbEntity
  8
0-0
100
AcDbLine
  6
CONTINUOUS
370
20
 10
127.844485731774
 20
274.722150433322
 11
127.844485731774
 21
271.722150433322
  0
LINE
  5
6FB
100
AcDbEntity
  8
0-0
100
AcDbLine
  6
CONTINUOUS
370
20
 10
128.794485731774
 20
274.722150433322
 11
128.794485731774
 21
271.722150433322
  0
LINE
  5
6FC
100
AcDbEntity
  8
0-0
100
AcDbLine
  6
CONTINUOUS
370
20
 10
129.744485731774
 20
274.722150433322
 11
129.744485731774
 21
269.722150433322
  0
LINE
  5
6FD
100
AcDbEntity
  8
0-0
100
AcDbLine
  6
CONTINUOUS
370
20
 10
134.494485731774
 20
274.722150433322
 11
134.494485731774
 21
270.722150433322
  0
LINE
  5
6FE
100
AcDbEntity
  8
0-0
100
AcDbLine
  6
CONTINUOUS
370
20
 10
130.694485731774
 20
274.722150433322
 11
130.694485731774
 21
271.722150433322
  0
LINE
  5
6FF
100
AcDbEntity
  8
0-0
100
AcDbLine
  6
CONTINUOUS
370
20
 10
131.644485731774
 20
274.722150433322
 11
131.644485731774
 21
271.722150433322
  0
LINE
  5
700
100
AcDbEntity
  8
0-0
100
AcDbLine
  6
CONTINUOUS
370
20
 10
132.594485731774
 20
274.722150433322
 11
132.594485731774
 21
271.722150433322
  0
LINE
  5
701
100
AcDbEntity
  8
0-0
100
AcDbLine
  6
CONTINUOUS
370
20
 10
133.544485731774
 20
274.722150433322
 11
133.544485731774
 21
271.722150433322
  0
LINE
  5
702
100
AcDbEntity
  8
0-0
100
AcDbLine
  6
CONTINUOUS
370
20
 10
135.444485731774
 20
274.722150433322
 11
135.444485731774
 21
271.722150433322
  0
LINE
  5
703
100
AcDbEntity
  8
0-0
100
AcDbLine
  6
CONTINUOUS
370
20
 10
136.394485731774
 20
274.722150433322
 11
136.394485731774
 21
271.722150433322
  0
LINE
  5
704
100
AcDbEntity
  8
0-0
100
AcDbLine
  6
CONTINUOUS
370
20
 10
137.344485731774
 20
274.722150433322
 11
137.344485731774
 21
271.722150433322
  0
LINE
  5
705
100
AcDbEntity
  8
0-0
100
AcDbLine
  6
CONTINUOUS
370
20
 10
138.294485731774
 20
274.722150433322
 11
138.294485731774
 21
271.722150433322
  0
LINE
  5
706
100
AcDbEntity
  8
0-0
100
AcDbLine
  6
CONTINUOUS
370
20
 10
139.244485731774
 20
274.722150433322
 11
139.244485731774
 21
269.722150433322
  0
LINE
  5
707
100
AcDbEntity
  8
0-0
100
AcDbLine
  6
CONTINUOUS
370
20
 10
143.994485731774
 20
274.722150433322
 11
143.994485731774
 21
270.722150433322
  0
LINE
  5
708
100
AcDbEntity
  8
0-0
100
AcDbLine
  6
CONTINUOUS
370
20
 10
140.194485731774
 20
274.722150433322
 11
140.194485731774
 21
271.722150433322
  0
LINE
  5
709
100
AcDbEntity
  8
0-0
100
AcDbLine
  6
CONTINUOUS
370
20
 10
141.144485731774
 20
274.722150433322
 11
141.144485731774
 21
271.722150433322
  0
LINE
  5
70A
100
AcDbEntity
  8
0-0
100
AcDbLine
  6
CONTINUOUS
370
20
 10
142.094485731774
 20
274.722150433322
 11
142.094485731774
 21
271.722150433322
  0
LINE
  5
70B
100
AcDbEntity
  8
0-0
100
AcDbLine
  6
CONTINUOUS
370
20
 10
143.044485731774
 20
274.722150433322
 11
143.044485731774
 21
271.722150433322
  0
LINE
  5
70C
100
AcDbEntity
  8
0-0
100
AcDbLine
  6
CONTINUOUS
370
20
 10
144.944485731774
 20
274.722150433322
 11
144.944485731774
 21
271.722150433322
  0
LINE
  5
70D
100
AcDbEntity
  8
0-0
100
AcDbLine
  6
CONTINUOUS
370
20
 10
145.894485731774
 20
274.722150433322
 11
145.894485731774
 21
271.722150433322
  0
LINE
  5
70E
100
AcDbEntity
  8
0-0
100
AcDbLine
  6
CONTINUOUS
370
20
 10
146.844485731774
 20
274.722150433322
 11
146.844485731774
 21
271.722150433322
  0
LINE
  5
70F
100
AcDbEntity
  8
0-0
100
AcDbLine
  6
CONTINUOUS
370
20
 10
147.794485731774
 20
274.722150433322
 11
147.794485731774
 21
271.722150433322
  0
LINE
  5
710
100
AcDbEntity
  8
0-0
100
AcDbLine
  6
CONTINUOUS
370
20
 10
148.744485731774
 20
274.722150433322
 11
148.744485731774
 21
269.722150433322
  0
LINE
  5
711
100
AcDbEntity
  8
0-0
100
AcDbLine
  6
CONTINUOUS
370
20
 10
153.494485731774
 20
274.722150433322
 11
153.494485731774
 21
270.722150433322
  0
LINE
  5
712
100
AcDbEntity
  8
0-0
100
AcDbLine
  6
CONTINUOUS
370
20
 10
149.694485731774
 20
274.722150433322
 11
149.694485731774
 21
271.722150433322
  0
LINE
  5
713
100
AcDbEntity
  8
0-0
100
AcDbLine
  6
CONTINUOUS
370
20
 10
150.644485731774
 20
274.722150433322
 11
150.644485731774
 21
271.722150433322
  0
LINE
  5
714
100
AcDbEntity
  8
0-0
100
AcDbLine
  6
CONTINUOUS
370
20
 10
151.594485731774
 20
274.722150433322
 11
151.594485731774
 21
271.722150433322
  0
LINE
  5
715
100
AcDbEntity
  8
0-0
100
AcDbLine
  6
CONTINUOUS
370
20
 10
152.544485731774
 20
274.722150433322
 11
152.544485731774
 21
271.722150433322
  0
LINE
  5
716
100
AcDbEntity
  8
0-0
100
AcDbLine
  6
CONTINUOUS
370
20
 10
154.444485731774
 20
274.722150433322
 11
154.444485731774
 21
271.722150433322
  0
LINE
  5
717
100
AcDbEntity
  8
0-0
100
AcDbLine
  6
CONTINUOUS
370
20
 10
155.394485731774
 20
274.722150433322
 11
155.394485731774
 21
271.722150433322
  0
LINE
  5
718
100
AcDbEntity
  8
0-0
100
AcDbLine
  6
CONTINUOUS
370
20
 10
156.344485731774
 20
274.722150433322
 11
156.344485731774
 21
271.722150433322
  0
LINE
  5
719
100
AcDbEntity
  8
0-0
100
AcDbLine
  6
CONTINUOUS
370
20
 10
157.294485731774
 20
274.722150433322
 11
157.294485731774
 21
271.722150433322
  0
LINE
  5
71A
100
AcDbEntity
  8
0-0
100
AcDbLine
  6
CONTINUOUS
370
20
 10
158.244485731774
 20
274.722150433322
 11
158.244485731774
 21
269.722150433322
  0
LINE
  5
71B
100
AcDbEntity
  8
0-0
100
AcDbLine
  6
CONTINUOUS
370
20
 10
162.994485731774
 20
274.722150433322
 11
162.994485731774
 21
270.722150433322
  0
LINE
  5
71C
100
AcDbEntity
  8
0-0
100
AcDbLine
  6
CONTINUOUS
370
20
 10
159.194485731774
 20
274.722150433322
 11
159.194485731774
 21
271.722150433322
  0
LINE
  5
71D
100
AcDbEntity
  8
0-0
100
AcDbLine
  6
CONTINUOUS
370
20
 10
160.144485731774
 20
274.722150433322
 11
160.144485731774
 21
271.722150433322
  0
LINE
  5
71E
100
AcDbEntity
  8
0-0
100
AcDbLine
  6
CONTINUOUS
370
20
 10
161.094485731774
 20
274.722150433322
 11
161.094485731774
 21
271.722150433322
  0
LINE
  5
71F
100
AcDbEntity
  8
0-0
100
AcDbLine
  6
CONTINUOUS
370
20
 10
162.044485731774
 20
274.722150433322
 11
162.044485731774
 21
271.722150433322
  0
LINE
  5
720
100
AcDbEntity
  8
0-0
100
AcDbLine
  6
CONTINUOUS
370
20
 10
163.944485731774
 20
274.722150433322
 11
163.944485731774
 21
271.722150433322
  0
LINE
  5
721
100
AcDbEntity
  8
0-0
100
AcDbLine
  6
CONTINUOUS
370
20
 10
164.894485731774
 20
274.722150433322
 11
164.894485731774
 21
271.722150433322
  0
LINE
  5
722
100
AcDbEntity
  8
0-0
100
AcDbLine
  6
CONTINUOUS
370
20
 10
165.844485731774
 20
274.722150433322
 11
165.844485731774
 21
271.722150433322
  0
LINE
  5
723
100
AcDbEntity
  8
0-0
100
AcDbLine
  6
CONTINUOUS
370
20
 10
166.794485731774
 20
274.722150433322
 11
166.794485731774
 21
271.722150433322
  0
LINE
  5
724
100
AcDbEntity
  8
0-0
100
AcDbLine
  6
CONTINUOUS
370
20
 10
167.744485731774
 20
274.722150433322
 11
167.744485731774
 21
269.722150433322
  0
LINE
  5
725
100
AcDbEntity
  8
0-0
100
AcDbLine
  6
CONTINUOUS
370
20
 10
172.494485731774
 20
274.722150433322
 11
172.494485731774
 21
270.722150433322
  0
LINE
  5
726
100
AcDbEntity
  8
0-0
100
AcDbLine
  6
CONTINUOUS
370
20
 10
168.694485731774
 20
274.722150433322
 11
168.694485731774
 21
271.722150433322
  0
LINE
  5
727
100
AcDbEntity
  8
0-0
100
AcDbLine
  6
CONTINUOUS
370
20
 10
169.644485731774
 20
274.722150433322
 11
169.644485731774
 21
271.722150433322
  0
LINE
  5
728
100
AcDbEntity
  8
0-0
100
AcDbLine
  6
CONTINUOUS
370
20
 10
170.594485731774
 20
274.722150433322
 11
170.594485731774
 21
271.722150433322
  0
LINE
  5
729
100
AcDbEntity
  8
0-0
100
AcDbLine
  6
CONTINUOUS
370
20
 10
171.544485731774
 20
274.722150433322
 11
171.544485731774
 21
271.722150433322
  0
LINE
  5
72A
100
AcDbEntity
  8
0-0
100
AcDbLine
  6
CONTINUOUS
370
20
 10
173.444485731774
 20
274.722150433322
 11
173.444485731774
 21
271.722150433322
  0
LINE
  5
72B
100
AcDbEntity
  8
0-0
100
AcDbLine
  6
CONTINUOUS
370
20
 10
174.394485731774
 20
274.722150433322
 11
174.394485731774
 21
271.722150433322
  0
LINE
  5
72C
100
AcDbEntity
  8
0-0
100
AcDbLine
  6
CONTINUOUS
370
20
 10
175.344485731774
 20
274.722150433322
 11
175.344485731774
 21
271.722150433322
  0
LINE
  5
72D
100
AcDbEntity
  8
0-0
100
AcDbLine
  6
CONTINUOUS
370
20
 10
176.294485731774
 20
274.722150433322
 11
176.294485731774
 21
271.722150433322
  0
LINE
  5
72E
100
AcDbEntity
  8
0-0
100
AcDbLine
  6
CONTINUOUS
370
20
 10
177.244485731774
 20
274.722150433322
 11
177.244485731774
 21
269.722150433322
  0
LINE
  5
72F
100
AcDbEntity
  8
0-0
100
AcDbLine
  6
CONTINUOUS
370
20
 10
181.994485731774
 20
274.722150433322
 11
181.994485731774
 21
270.722150433322
  0
LINE
  5
730
100
AcDbEntity
  8
0-0
100
AcDbLine
  6
CONTINUOUS
370
20
 10
178.194485731774
 20
274.722150433322
 11
178.194485731774
 21
271.722150433322
  0
LINE
  5
731
100
AcDbEntity
  8
0-0
100
AcDbLine
  6
CONTINUOUS
370
20
 10
179.144485731774
 20
274.722150433322
 11
179.144485731774
 21
271.722150433322
  0
LINE
  5
732
100
AcDbEntity
  8
0-0
100
AcDbLine
  6
CONTINUOUS
370
20
 10
180.094485731774
 20
274.722150433322
 11
180.094485731774
 21
271.722150433322
  0
LINE
  5
733
100
AcDbEntity
  8
0-0
100
AcDbLine
  6
CONTINUOUS
370
20
 10
181.044485731774
 20
274.722150433322
 11
181.044485731774
 21
271.722150433322
  0
LINE
  5
734
100
AcDbEntity
  8
0-0
100
AcDbLine
  6
CONTINUOUS
370
20
 10
182.944485731774
 20
274.722150433322
 11
182.944485731774
 21
271.722150433322
  0
LINE
  5
735
100
AcDbEntity
  8
0-0
100
AcDbLine
  6
CONTINUOUS
370
20
 10
183.894485731774
 20
274.722150433322
 11
183.894485731774
 21
271.722150433322
  0
LINE
  5
736
100
AcDbEntity
  8
0-0
100
AcDbLine
  6
CONTINUOUS
370
20
 10
184.844485731774
 20
274.722150433322
 11
184.844485731774
 21
271.722150433322
  0
LINE
  5
737
100
AcDbEntity
  8
0-0
100
AcDbLine
  6
CONTINUOUS
370
20
 10
185.794485731774
 20
274.722150433322
 11
185.794485731774
 21
271.722150433322
  0
LINE
  5
738
100
AcDbEntity
  8
0-0
100
AcDbLine
  6
CONTINUOUS
370
20
 10
186.744485731774
 20
274.722150433322
 11
186.744485731774
 21
269.722150433322
  0
LINE
  5
739
100
AcDbEntity
  8
0-0
100
AcDbLine
  6
CONTINUOUS
370
20
 10
191.494485731774
 20
274.722150433322
 11
191.494485731774
 21
270.722150433322
  0
LINE
  5
73A
100
AcDbEntity
  8
0-0
100
AcDbLine
  6
CONTINUOUS
370
20
 10
187.694485731774
 20
274.722150433322
 11
187.694485731774
 21
271.722150433322
  0
LINE
  5
73B
100
AcDbEntity
  8
0-0
100
AcDbLine
  6
CONTINUOUS
370
20
 10
188.644485731774
 20
274.722150433322
 11
188.644485731774
 21
271.722150433322
  0
LINE
  5
73C
100
AcDbEntity
  8
0-0
100
AcDbLine
  6
CONTINUOUS
370
20
 10
189.594485731774
 20
274.722150433322
 11
189.594485731774
 21
271.722150433322
  0
LINE
  5
73D
100
AcDbEntity
  8
0-0
100
AcDbLine
  6
CONTINUOUS
370
20
 10
190.544485731774
 20
274.722150433322
 11
190.544485731774
 21
271.722150433322
  0
LINE
  5
73E
100
AcDbEntity
  8
0-0
100
AcDbLine
  6
CONTINUOUS
370
20
 10
192.444485731774
 20
274.722150433322
 11
192.444485731774
 21
271.722150433322
  0
LINE
  5
73F
100
AcDbEntity
  8
0-0
100
AcDbLine
  6
CONTINUOUS
370
20
 10
193.394485731774
 20
274.722150433322
 11
193.394485731774
 21
271.722150433322
  0
LINE
  5
740
100
AcDbEntity
  8
0-0
100
AcDbLine
  6
CONTINUOUS
370
20
 10
194.344485731774
 20
274.722150433322
 11
194.344485731774
 21
271.722150433322
  0
LINE
  5
741
100
AcDbEntity
  8
0-0
100
AcDbLine
  6
CONTINUOUS
370
20
 10
195.294485731774
 20
274.722150433322
 11
195.294485731774
 21
271.722150433322
  0
LINE
  5
742
100
AcDbEntity
  8
0-0
100
AcDbLine
  6
CONTINUOUS
370
20
 10
196.244485731774
 20
274.722150433322
 11
196.244485731774
 21
269.722150433322
  0
LINE
  5
743
100
AcDbEntity
  8
0-0
100
AcDbLine
  6
CONTINUOUS
370
20
 10
200.994485731774
 20
274.722150433322
 11
200.994485731774
 21
270.722150433322
  0
LINE
  5
744
100
AcDbEntity
  8
0-0
100
AcDbLine
  6
CONTINUOUS
370
20
 10
197.194485731774
 20
274.722150433322
 11
197.194485731774
 21
271.722150433322
  0
LINE
  5
745
100
AcDbEntity
  8
0-0
100
AcDbLine
  6
CONTINUOUS
370
20
 10
198.144485731774
 20
274.722150433322
 11
198.144485731774
 21
271.722150433322
  0
LINE
  5
746
100
AcDbEntity
  8
0-0
100
AcDbLine
  6
CONTINUOUS
370
20
 10
199.094485731774
 20
274.722150433322
 11
199.094485731774
 21
271.722150433322
  0
LINE
  5
747
100
AcDbEntity
  8
0-0
100
AcDbLine
  6
CONTINUOUS
370
20
 10
200.044485731774
 20
274.722150433322
 11
200.044485731774
 21
271.722150433322
  0
LINE
  5
748
100
AcDbEntity
  8
0-0
100
AcDbLine
  6
CONTINUOUS
370
20
 10
201.944485731774
 20
274.722150433322
 11
201.944485731774
 21
271.722150433322
  0
LINE
  5
749
100
AcDbEntity
  8
0-0
100
AcDbLine
  6
CONTINUOUS
370
20
 10
202.894485731774
 20
274.722150433322
 11
202.894485731774
 21
271.722150433322
  0
LINE
  5
74A
100
AcDbEntity
  8
0-0
100
AcDbLine
  6
CONTINUOUS
370
20
 10
203.844485731774
 20
274.722150433322
 11
203.844485731774
 21
271.722150433322
  0
LINE
  5
74B
100
AcDbEntity
  8
0-0
100
AcDbLine
  6
CONTINUOUS
370
20
 10
204.794485731774
 20
274.722150433322
 11
204.794485731774
 21
271.722150433322
  0
LINE
  5
74C
100
AcDbEntity
  8
0-0
100
AcDbLine
  6
CONTINUOUS
370
20
 10
205.744485731774
 20
274.722150433322
 11
205.744485731774
 21
269.722150433322
  0
LINE
  5
74D
100
AcDbEntity
  8
0-0
100
AcDbLine
  6
CONTINUOUS
370
20
 10
210.494485731774
 20
274.722150433322
 11
210.494485731774
 21
270.722150433322
  0
LINE
  5
74E
100
AcDbEntity
  8
0-0
100
AcDbLine
  6
CONTINUOUS
370
20
 10
206.694485731774
 20
274.722150433322
 11
206.694485731774
 21
271.722150433322
  0
LINE
  5
74F
100
AcDbEntity
  8
0-0
100
AcDbLine
  6
CONTINUOUS
370
20
 10
207.644485731774
 20
274.722150433322
 11
207.644485731774
 21
271.722150433322
  0
LINE
  5
750
100
AcDbEntity
  8
0-0
100
AcDbLine
  6
CONTINUOUS
370
20
 10
208.594485731774
 20
274.722150433322
 11
208.594485731774
 21
271.722150433322
  0
LINE
  5
751
100
AcDbEntity
  8
0-0
100
AcDbLine
  6
CONTINUOUS
370
20
 10
209.544485731774
 20
274.722150433322
 11
209.544485731774
 21
271.722150433322
  0
LINE
  5
752
100
AcDbEntity
  8
0-0
100
AcDbLine
  6
CONTINUOUS
370
20
 10
211.444485731774
 20
274.722150433322
 11
211.444485731774
 21
271.722150433322
  0
LINE
  5
753
100
AcDbEntity
  8
0-0
100
AcDbLine
  6
CONTINUOUS
370
20
 10
215.244485731774
 20
271.647058860154
 11
215.244485731774
 21
269.722150433322
  0
TEXT
  5
754
100
AcDbEntity
  8
0-0
100
AcDbText
  6
CONTINUOUS
 10
132.244485731774
 20
264.554821700177
 40
5
 41
0.8
  1
10
  7
Font_0
 50
90
 11
127.244485731774
 21
264.554821700177
100
AcDbText
 73
3
  0
TEXT
  5
755
100
AcDbEntity
  8
0-0
100
AcDbText
  6
CONTINUOUS
 10
141.744485731774
 20
264.554821700177
 40
5
 41
0.8
  1
20
  7
Font_0
 50
90
 11
136.744485731774
 21
264.554821700177
100
AcDbText
 73
3
  0
TEXT
  5
756
100
AcDbEntity
  8
0-0
100
AcDbText
  6
CONTINUOUS
 10
151.244485731774
 20
264.554821700177
 40
5
 41
0.8
  1
30
  7
Font_0
 50
90
 11
146.244485731774
 21
264.554821700177
100
AcDbText
 73
3
  0
TEXT
  5
757
100
AcDbEntity
  8
0-0
100
AcDbText
  6
CONTINUOUS
 10
160.744485731774
 20
264.554821700177
 40
5
 41
0.8
  1
40
  7
Font_0
 50
90
 11
155.744485731774
 21
264.554821700177
100
AcDbText
 73
3
  0
TEXT
  5
758
100
AcDbEntity
  8
0-0
100
AcDbText
  6
CONTINUOUS
 10
170.244485731774
 20
264.554821700177
 40
5
 41
0.8
  1
50
  7
Font_0
 50
90
 11
165.244485731774
 21
264.554821700177
100
AcDbText
 73
3
  0
TEXT
  5
759
100
AcDbEntity
  8
0-0
100
AcDbText
  6
CONTINUOUS
 10
179.744485731774
 20
264.554821700177
 40
5
 41
0.8
  1
60
  7
Font_0
 50
90
 11
174.744485731774
 21
264.554821700177
100
AcDbText
 73
3
  0
TEXT
  5
75A
100
AcDbEntity
  8
0-0
100
AcDbText
  6
CONTINUOUS
 10
189.244485731774
 20
264.554821700177
 40
5
 41
0.8
  1
70
  7
Font_0
 50
90
 11
184.244485731774
 21
264.554821700177
100
AcDbText
 73
3
  0
TEXT
  5
75B
100
AcDbEntity
  8
0-0
100
AcDbText
  6
CONTINUOUS
 10
198.744485731774
 20
264.554821700177
 40
5
 41
0.8
  1
80
  7
Font_0
 50
90
 11
193.744485731774
 21
264.554821700177
100
AcDbText
 73
3
  0
TEXT
  5
75C
100
AcDbEntity
  8
0-0
100
AcDbText
  6
CONTINUOUS
 10
208.244485731774
 20
264.554821700177
 40
5
 41
0.8
  1
90
  7
Font_0
 50
90
 11
203.244485731774
 21
264.554821700177
100
AcDbText
 73
3
  0
TEXT
  5
75D
100
AcDbEntity
  8
0-0
100
AcDbText
  6
CONTINUOUS
 10
217.744485731774
 20
262.9371223371
 40
5
 41
0.8
  1
100
  7
Font_0
 50
90
 11
212.744485731774
 21
262.9371223371
100
AcDbText
 73
3
  0
LINE
  5
75E
100
AcDbEntity
  8
0-0
100
AcDbLine
  6
CONTINUOUS
370
20
 10
212.029640663232
 20
274.722150433322
 11
120.029640663233
 21
274.722150433322
  0
CIRCLE
  5
75F
100
AcDbEntity
  8
0-0
100
AcDbCircle
  6
CONTINUOUS
370
20
 10
65.4199907691952
 20
255.122150433322
 40
2
  0
CIRCLE
  5
760
100
AcDbEntity
  8
0-0
100
AcDbCircle
  6
CONTINUOUS
370
20
 10
65.4199907692127
 20
255.122150433322
 40
5
  0
CIRCLE
  5
761
100
AcDbEntity
  8
0-0
100
AcDbCircle
  6
CONTINUOUS
370
20
 10
65.4199907691952
 20
255.122150433322
 40
1
  0
CIRCLE
  5
762
100
AcDbEntity
  8
0-0
100
AcDbCircle
  6
CONTINUOUS
370
20
 10
65.4199907692127
 20
255.122150433322
 40
4
  0
LINE
  5
763
100
AcDbEntity
  8
0-0
100
AcDbLine
  6
CONTINUOUS
370
13
 10
62.9199907691952
 20
255.122150433322
 11
67.9199907691952
 21
255.122150433322
  0
LINE
  5
764
100
AcDbEntity
  8
0-0
100
AcDbLine
  6
CONTINUOUS
370
13
 10
65.4199907691952
 20
257.622150433322
 11
65.4199907691952
 21
252.622150433322
  0
LINE
  5
765
100
AcDbEntity
  8
0-0
100
AcDbLine
  6
DASHDOT
370
13
 10
420.511223417327
 20
255.122150433322
 11
103.387265499494
 21
255.122150433322
  0
LINE
  5
766
100
AcDbEntity
  8
0-0
100
AcDbLine
  6
DIVIDE
370
13
 10
387.029640663233
 20
225.521751752085
 11
387.029640663233
 21
267.621751752083
  0
ARC
  5
767
100
AcDbEntity
  8
0-0
100
AcDbCircle
  6
DIVIDE
370
13
 10
382.029640663233
 20
225.521751752085
 40
5
100
AcDbArc
 50
-22.3336826546673
 51
0
  0
LINE
  5
768
100
AcDbEntity
  8
0-0
100
AcDbLine
  6
DIVIDE
370
13
 10
405.529640663233
 20
334.438394582531
 11
405.529640663233
 21
345.418833501016
  0
LINE
  5
769
100
AcDbEntity
  8
0-0
100
AcDbLine
  6
DIVIDE
370
13
 10
387.029640663233
 20
334.919318608692
 11
387.029640663233
 21
344.919318608692
  0
LINE
  5
76A
100
AcDbEntity
  8
0-0
100
AcDbLine
  6
DIVIDE
370
13
 10
405.529640663233
 20
344.919318608692
 11
387.029640663233
 21
344.919318608692
  0
LINE
  5
76B
100
AcDbEntity
  8
0-0
100
AcDbLine
  6
DIVIDE
370
13
 10
387.029640663233
 20
334.919318608692
 11
405.529640663233
 21
334.919318608692
  0
LINE
  5
76C
100
AcDbEntity
  8
0-0
100
AcDbLine
  6
DIVIDE
370
13
 10
387.029640663233
 20
324.919318608692
 11
387.029640663233
 21
354.919318608692
  0
LINE
  5
76D
100
AcDbEntity
  8
0-0
100
AcDbLine
  6
DIVIDE
370
13
 10
384.279640663234
 20
324.919318608692
 11
384.279640663234
 21
354.919318608692
  0
LINE
  5
76E
100
AcDbEntity
  8
0-0
100
AcDbLine
  6
DIVIDE
370
13
 10
382.029640663233
 20
227.621751752083
 11
387.029640663233
 21
227.621751752083
  0
LINE
  5
76F
100
AcDbEntity
  8
0-0
100
AcDbLine
  6
DIVIDE
370
13
 10
384.029640663234
 20
267.621751752083
 11
387.029640663233
 21
267.621751752083
  0
LINE
  5
770
100
AcDbEntity
  8
0-0
100
AcDbLine
  6
DIVIDE
370
13
 10
387.029640663233
 20
335.419318608692
 11
387.029640663233
 21
344.419318608692
  0
LINE
  5
771
100
AcDbEntity
  8
0-0
100
AcDbLine
  6
DIVIDE
370
13
 10
384.029640663234
 20
242.521278635135
 11
382.029640663233
 21
242.521278635135
  0
LINE
  5
772
100
AcDbEntity
  8
0-0
100
AcDbLine
  6
DIVIDE
370
13
 10
382.029640663234
 20
227.621751752083
 11
380.529640663233
 21
227.621751752083
  0
LINE
  5
773
100
AcDbEntity
  8
0-0
100
AcDbLine
  6
DIVIDE
370
13
 10
382.029640663234
 20
354.919318608692
 11
380.229640663234
 21
354.919318608692
  0
LINE
  5
774
100
AcDbEntity
  8
0-0
100
AcDbLine
  6
DIVIDE
370
13
 10
380.229640663234
 20
324.919318608692
 11
382.029640663234
 21
324.919318608692
  0
LINE
  5
775
100
AcDbEntity
  8
0-0
100
AcDbLine
  6
DIVIDE
370
13
 10
382.029640663234
 20
353.919318608692
 11
380.229640663234
 21
353.919318608692
  0
LINE
  5
776
100
AcDbEntity
  8
0-0
100
AcDbLine
  6
DIVIDE
370
13
 10
380.229640663234
 20
325.919318608692
 11
382.029640663234
 21
325.919318608692
  0
LINE
  5
777
100
AcDbEntity
  8
0-0
100
AcDbLine
  6
DIVIDE
370
13
 10
380.529640663233
 20
227.621751752083
 11
380.529640663233
 21
253.621751752085
  0
LINE
  5
778
100
AcDbEntity
  8
0-0
100
AcDbLine
  6
DIVIDE
370
13
 10
382.029640663234
 20
253.621751752085
 11
380.529640663233
 21
253.621751752085
  0
LINE
  5
779
100
AcDbEntity
  8
0-0
100
AcDbLine
  6
DIVIDE
370
13
 10
405.529640663233
 20
223.621751752338
 11
405.529640663233
 21
263.52175175234
  0
LINE
  5
77A
100
AcDbEntity
  8
0-0
100
AcDbLine
  6
DIVIDE
370
13
 10
380.229640663234
 20
354.919318608692
 11
380.229640663234
 21
353.722152225475
  0
LINE
  5
77B
100
AcDbEntity
  8
0-0
100
AcDbLine
  6
DIVIDE
370
13
 10
380.229640663234
 20
326.122152225475
 11
380.229640663234
 21
324.919318608692
  0
LINE
  5
77C
100
AcDbEntity
  8
0-0
100
AcDbLine
  6
DIVIDE
370
13
 10
387.029640663233
 20
354.919318608692
 11
384.029640663234
 21
354.919318608692
  0
LINE
  5
77D
100
AcDbEntity
  8
0-0
100
AcDbLine
  6
DIVIDE
370
13
 10
384.029640663234
 20
324.919318608692
 11
387.029640663233
 21
324.919318608692
  0
LINE
  5
77E
100
AcDbEntity
  8
0-0
100
AcDbLine
  6
DIVIDE
370
20
 10
384.029640663234
 20
358.722152225475
 11
384.029640663234
 21
321.122152225475
  0
LINE
  5
77F
100
AcDbEntity
  8
0-0
100
AcDbLine
  6
DIVIDE
370
20
 10
382.029640663234
 20
358.722152225475
 11
382.029640663234
 21
321.122152225475
  0
LINE
  5
780
100
AcDbEntity
  8
0-0
100
AcDbLine
  6
DIVIDE
370
20
 10
384.029640663234
 20
358.722152225475
 11
382.029640663234
 21
358.722152225475
  0
LINE
  5
781
100
AcDbEntity
  8
0-0
100
AcDbLine
  6
DIVIDE
370
20
 10
384.029640663234
 20
321.122152225475
 11
382.029640663234
 21
321.122152225475
  0
LINE
  5
782
100
AcDbEntity
  8
0-0
100
AcDbLine
  6
DIVIDE
370
20
 10
382.029640663234
 20
353.722152225475
 11
357.029640663234
 21
353.722152225475
  0
LINE
  5
783
100
AcDbEntity
  8
0-0
100
AcDbLine
  6
DIVIDE
370
20
 10
382.029640663234
 20
326.122152225475
 11
357.029640663234
 21
326.122152225475
  0
LINE
  5
784
100
AcDbEntity
  8
0-0
100
AcDbLine
  6
DIVIDE
370
20
 10
357.029640663234
 20
339.122152225475
 11
382.029640663234
 21
339.122152225475
  0
LINE
  5
785
100
AcDbEntity
  8
0-0
100
AcDbLine
  6
DIVIDE
370
20
 10
357.029640663234
 20
340.722152225475
 11
382.029640663234
 21
340.722152225475
  0
LINE
  5
786
100
AcDbEntity
  8
0-0
100
AcDbLine
  6
DIVIDE
370
13
 10
384.029640663234
 20
327.321280427289
 11
382.029640663233
 21
327.321280427289
  0
LINE
  5
787
100
AcDbEntity
  8
0-0
100
AcDbLine
  6
CONTINUOUS
370
50
 10
457.329640663233
 20
186.521751752339
 11
449.029640663233
 21
186.521751752339
  0
LINE
  5
788
100
AcDbEntity
  8
0-0
100
AcDbLine
  6
CONTINUOUS
370
13
 10
457.329640663233
 20
191.621751752339
 11
449.029640663233
 21
191.621751752339
  0
LINE
  5
789
100
AcDbEntity
  8
0-0
100
AcDbLine
  6
CONTINUOUS
370
13
 10
457.329640663233
 20
190.421751752339
 11
449.029640663233
 21
190.421751752339
  0
LINE
  5
78A
100
AcDbEntity
  8
0-0
100
AcDbLine
  6
CONTINUOUS
370
13
 10
457.329640663233
 20
189.621751752339
 11
449.029640663233
 21
189.621751752339
  0
LINE
  5
78B
100
AcDbEntity
  8
0-0
100
AcDbLine
  6
CONTINUOUS
370
13
 10
457.329640663233
 20
188.821751752339
 11
449.029640663233
 21
188.821751752339
  0
LINE
  5
78C
100
AcDbEntity
  8
0-0
100
AcDbLine
  6
CONTINUOUS
370
13
 10
457.329640663233
 20
188.021751752339
 11
449.029640663233
 21
188.021751752339
  0
LINE
  5
78D
100
AcDbEntity
  8
0-0
100
AcDbLine
  6
CONTINUOUS
370
13
 10
457.329640663233
 20
187.521751752339
 11
449.029640663233
 21
187.521751752339
  0
LINE
  5
78E
100
AcDbEntity
  8
0-0
100
AcDbLine
  6
CONTINUOUS
370
13
 10
457.329640663233
 20
187.021751752339
 11
449.029640663233
 21
187.021751752339
  0
LINE
  5
78F
100
AcDbEntity
  8
0-0
100
AcDbLine
  6
CONTINUOUS
370
13
 10
457.329640663233
 20
194.021751752339
 11
454.329640663233
 21
194.021751752339
  0
LINE
  5
790
100
AcDbEntity
  8
0-0
100
AcDbLine
  6
CONTINUOUS
370
13
 10
451.329640663233
 20
194.021751752339
 11
449.029640663233
 21
194.021751752339
  0
LINE
  5
791
100
AcDbEntity
  8
0-0
100
AcDbLine
  6
CONTINUOUS
370
13
 10
457.329640663233
 20
192.821751752339
 11
453.729640663233
 21
192.821751752339
  0
LINE
  5
792
100
AcDbEntity
  8
0-0
100
AcDbLine
  6
CONTINUOUS
370
13
 10
451.929640663233
 20
192.821751752339
 11
449.029640663233
 21
192.821751752339
  0
LINE
  5
793
100
AcDbEntity
  8
0-0
100
AcDbLine
  6
CONTINUOUS
370
50
 10
457.329640663233
 20
332.422152225475
 11
449.029640663233
 21
332.422152225475
  0
LINE
  5
794
100
AcDbEntity
  8
0-0
100
AcDbLine
  6
CONTINUOUS
370
13
 10
457.329640663233
 20
337.522152225475
 11
449.029640663233
 21
337.522152225475
  0
LINE
  5
795
100
AcDbEntity
  8
0-0
100
AcDbLine
  6
CONTINUOUS
370
13
 10
457.329640663233
 20
336.322152225475
 11
449.029640663233
 21
336.322152225475
  0
LINE
  5
796
100
AcDbEntity
  8
0-0
100
AcDbLine
  6
CONTINUOUS
370
13
 10
457.329640663233
 20
335.522152225475
 11
449.029640663233
 21
335.522152225475
  0
LINE
  5
797
100
AcDbEntity
  8
0-0
100
AcDbLine
  6
CONTINUOUS
370
13
 10
457.329640663233
 20
334.722152225475
 11
449.029640663233
 21
334.722152225475
  0
LINE
  5
798
100
AcDbEntity
  8
0-0
100
AcDbLine
  6
CONTINUOUS
370
13
 10
457.329640663233
 20
333.922152225475
 11
449.029640663233
 21
333.922152225475
  0
LINE
  5
799
100
AcDbEntity
  8
0-0
100
AcDbLine
  6
CONTINUOUS
370
13
 10
457.329640663233
 20
333.422152225475
 11
449.029640663233
 21
333.422152225475
  0
LINE
  5
79A
100
AcDbEntity
  8
0-0
100
AcDbLine
  6
CONTINUOUS
370
13
 10
457.329640663233
 20
332.922152225475
 11
449.029640663233
 21
332.922152225475
  0
LINE
  5
79B
100
AcDbEntity
  8
0-0
100
AcDbLine
  6
CONTINUOUS
370
13
 10
457.329640663233
 20
339.922152225475
 11
454.329640663233
 21
339.922152225475
  0
LINE
  5
79C
100
AcDbEntity
  8
0-0
100
AcDbLine
  6
CONTINUOUS
370
13
 10
451.329640663233
 20
339.922152225475
 11
449.029640663233
 21
339.922152225475
  0
LINE
  5
79D
100
AcDbEntity
  8
0-0
100
AcDbLine
  6
CONTINUOUS
370
13
 10
457.329640663233
 20
338.722152225475
 11
453.729640663233
 21
338.722152225475
  0
LINE
  5
79E
100
AcDbEntity
  8
0-0
100
AcDbLine
  6
CONTINUOUS
370
13
 10
451.929640663233
 20
338.722152225475
 11
449.029640663233
 21
338.722152225475
  0
LINE
  5
79F
100
AcDbEntity
  8
0-0
100
AcDbLine
  6
CONTINUOUS
370
13
 10
458.329640663233
 20
346.672152225475
 11
458.329640663233
 21
389.449474689622
  0
LINE
  5
7A0
100
AcDbEntity
  8
0-0
100
AcDbLine
  6
CONTINUOUS
370
13
 10
458.329640663233
 20
388.949474689622
 11
449.029640663233
 21
388.949474689622
  0
LINE
  5
7A1
100
AcDbEntity
  8
0-0
100
AcDbLine
  6
CONTINUOUS
370
13
 10
458.329640663233
 20
388.949474689622
 11
461.2274181421
 21
389.72593182493
  0
LINE
  5
7A2
100
AcDbEntity
  8
0-0
100
AcDbLine
  6
CONTINUOUS
370
13
 10
458.329640663233
 20
388.949474689622
 11
461.2274181421
 21
388.173017554315
  0
LINE
  5
7A3
100
AcDbEntity
  8
0-0
100
AcDbLine
  6
CONTINUOUS
370
13
 10
449.029640663233
 20
388.949474689622
 11
446.131863184366
 21
388.173017554315
  0
LINE
  5
7A4
100
AcDbEntity
  8
0-0
100
AcDbLine
  6
CONTINUOUS
370
13
 10
449.029640663233
 20
388.949474689622
 11
446.131863184366
 21
389.72593182493
  0
TEXT
  5
7A5
100
AcDbEntity
  8
0-0
100
AcDbText
  6
CONTINUOUS
 10
447.679640663233
 20
389.199474689622
 40
8
  1
9.3
  7
Font_0
 72
1
 11
453.679640663233
 21
389.199474689622
100
AcDbText
  0
LINE
  5
7A6
100
AcDbEntity
  8
0-0
100
AcDbLine
  6
CONTINUOUS
370
13
 10
449.029640663233
 20
367.872152225475
 11
449.029640663233
 21
389.449474689622
  0
LINE
  5
7A7
100
AcDbEntity
  8
0-0
100
AcDbLine
  6
CONTINUOUS
370
13
 10
449.029640663233
 20
374.153567153018
 11
449.029640663233
 21
389.449474689622
  0
LINE
  5
7A8
100
AcDbEntity
  8
0-0
100
AcDbLine
  6
CONTINUOUS
370
13
 10
449.029640663233
 20
388.949474689622
 11
189.029640663233
 21
388.949474689622
  0
LINE
  5
7A9
100
AcDbEntity
  8
0-0
100
AcDbLine
  6
CONTINUOUS
370
13
 10
449.029640663233
 20
388.949474689622
 11
446.131863184366
 21
388.173017554315
  0
LINE
  5
7AA
100
AcDbEntity
  8
0-0
100
AcDbLine
  6
CONTINUOUS
370
13
 10
449.029640663233
 20
388.949474689622
 11
446.131863184366
 21
389.72593182493
  0
LINE
  5
7AB
100
AcDbEntity
  8
0-0
100
AcDbLine
  6
CONTINUOUS
370
13
 10
189.029640663233
 20
388.949474689622
 11
191.9274181421
 21
389.72593182493
  0
LINE
  5
7AC
100
AcDbEntity
  8
0-0
100
AcDbLine
  6
CONTINUOUS
370
13
 10
189.029640663233
 20
388.949474689622
 11
191.9274181421
 21
388.173017554315
  0
TEXT
  5
7AD
100
AcDbEntity
  8
0-0
100
AcDbText
  6
CONTINUOUS
 10
313.029640663233
 20
389.199474689622
 40
8
  1
260
  7
Font_0
 72
1
 11
319.029640663233
 21
389.199474689622
100
AcDbText
  0
LINE
  5
7AE
100
AcDbEntity
  8
0-0
100
AcDbLine
  6
CONTINUOUS
370
13
 10
189.029640663233
 20
367.872152225475
 11
189.029640663233
 21
389.449474689622
  0
LINE
  5
7AF
100
AcDbEntity
  8
0-0
100
AcDbLine
  6
CONTINUOUS
370
13
 10
110.029640663234
 20
345.172152225475
 11
110.029640663234
 21
389.449474689622
  0
LINE
  5
7B0
100
AcDbEntity
  8
0-0
100
AcDbLine
  6
CONTINUOUS
370
13
 10
110.029640663234
 20
388.949474689622
 11
189.029640663233
 21
388.949474689622
  0
LINE
  5
7B1
100
AcDbEntity
  8
0-0
100
AcDbLine
  6
CONTINUOUS
370
13
 10
110.029640663234
 20
388.949474689622
 11
112.927418142101
 21
389.72593182493
  0
LINE
  5
7B2
100
AcDbEntity
  8
0-0
100
AcDbLine
  6
CONTINUOUS
370
13
 10
110.029640663234
 20
388.949474689622
 11
112.927418142101
 21
388.173017554315
  0
LINE
  5
7B3
100
AcDbEntity
  8
0-0
100
AcDbLine
  6
CONTINUOUS
370
13
 10
189.029640663233
 20
388.949474689622
 11
186.131863184366
 21
388.173017554315
  0
LINE
  5
7B4
100
AcDbEntity
  8
0-0
100
AcDbLine
  6
CONTINUOUS
370
13
 10
189.029640663233
 20
388.949474689622
 11
186.131863184366
 21
389.72593182493
  0
TEXT
  5
7B5
100
AcDbEntity
  8
0-0
100
AcDbText
  6
CONTINUOUS
 10
145.529640663233
 20
389.199474689622
 40
8
  1
79
  7
Font_0
 72
1
 11
149.529640663233
 21
389.199474689622
100
AcDbText
  0
LINE
  5
7B6
100
AcDbEntity
  8
0-0
100
AcDbLine
  6
CONTINUOUS
370
13
 10
189.029640663233
 20
376.146674865032
 11
189.029640663233
 21
389.449474689622
  0
LINE
  5
7B7
100
AcDbEntity
  8
0-0
100
AcDbLine
  6
CONTINUOUS
370
13
 10
449.279640663233
 20
312.222152225475
 11
481.488403757894
 21
312.222152225475
  0
LINE
  5
7B8
100
AcDbEntity
  8
0-0
100
AcDbLine
  6
CONTINUOUS
370
13
 10
480.988403757894
 20
312.222152225475
 11
480.988403757894
 21
367.622152225475
  0
LINE
  5
7B9
100
AcDbEntity
  8
0-0
100
AcDbLine
  6
CONTINUOUS
370
13
 10
480.988403757894
 20
312.222152225475
 11
480.211946622586
 21
315.119929704343
  0
LINE
  5
7BA
100
AcDbEntity
  8
0-0
100
AcDbLine
  6
CONTINUOUS
370
13
 10
480.988403757894
 20
312.222152225475
 11
481.764860893201
 21
315.119929704343
  0
LINE
  5
7BB
100
AcDbEntity
  8
0-0
100
AcDbLine
  6
CONTINUOUS
370
13
 10
480.988403757894
 20
367.622152225475
 11
481.764860893201
 21
364.724374746608
  0
LINE
  5
7BC
100
AcDbEntity
  8
0-0
100
AcDbLine
  6
CONTINUOUS
370
13
 10
480.988403757894
 20
367.622152225475
 11
480.211946622586
 21
364.724374746608
  0
TEXT
  5
7BD
100
AcDbEntity
  8
0-0
100
AcDbText
  6
CONTINUOUS
 10
480.738403757894
 20
331.922152225475
 40
8
  1
55.4
  7
Font_0
 50
90
 72
1
 11
480.738403757894
 21
339.922152225475
100
AcDbText
  0
LINE
  5
7BE
100
AcDbEntity
  8
0-0
100
AcDbLine
  6
CONTINUOUS
370
13
 10
449.279640663233
 20
367.622152225475
 11
481.488403757894
 21
367.622152225475
  0
LINE
  5
7BF
100
AcDbEntity
  8
0-0
100
AcDbLine
  6
CONTINUOUS
370
13
 10
40.170511222646
 20
152.521751752338
 11
15.6014601356164
 21
152.521751752338
  0
LINE
  5
7C0
100
AcDbEntity
  8
0-0
100
AcDbLine
  6
CONTINUOUS
370
13
 10
16.1014601356164
 20
152.521751752338
 11
16.1014601356164
 21
255.122150433322
  0
LINE
  5
7C1
100
AcDbEntity
  8
0-0
100
AcDbLine
  6
CONTINUOUS
370
13
 10
16.1014601356164
 20
152.521751752338
 11
15.3250030003089
 21
155.419529231206
  0
LINE
  5
7C2
100
AcDbEntity
  8
0-0
100
AcDbLine
  6
CONTINUOUS
370
13
 10
16.1014601356164
 20
152.521751752338
 11
16.877917270924
 21
155.419529231206
  0
LINE
  5
7C3
100
AcDbEntity
  8
0-0
100
AcDbLine
  6
CONTINUOUS
370
13
 10
16.1014601356164
 20
255.122150433322
 11
16.877917270924
 21
252.224372954454
  0
LINE
  5
7C4
100
AcDbEntity
  8
0-0
100
AcDbLine
  6
CONTINUOUS
370
13
 10
16.1014601356164
 20
255.122150433322
 11
15.3250030003089
 21
252.224372954454
  0
TEXT
  5
7C5
100
AcDbEntity
  8
0-0
100
AcDbText
  6
CONTINUOUS
 10
15.8514601356164
 20
189.82195109283
 40
8
  1
約102.6
  7
Font_0
 50
90
 72
1
 11
15.8514601356164
 21
203.82195109283
100
AcDbText
  0
LINE
  5
7C6
100
AcDbEntity
  8
0-0
100
AcDbLine
  6
CONTINUOUS
370
13
 10
62.6699907691952
 20
255.122150433322
 11
15.6014601356164
 21
255.122150433322
  0
LINE
  5
7C7
100
AcDbEntity
  8
0-0
100
AcDbLine
  6
CONTINUOUS
370
13
 10
41.5994907692125
 20
280.621751752338
 11
15.6014601356164
 21
280.621751752338
  0
LINE
  5
7C8
100
AcDbEntity
  8
0-0
100
AcDbLine
  6
CONTINUOUS
370
13
 10
16.1014601356164
 20
280.621751752338
 11
16.1014601356164
 21
255.122150433322
  0
LINE
  5
7C9
100
AcDbEntity
  8
0-0
100
AcDbLine
  6
CONTINUOUS
370
13
 10
16.1014601356164
 20
280.621751752338
 11
16.877917270924
 21
277.723974273471
  0
LINE
  5
7CA
100
AcDbEntity
  8
0-0
100
AcDbLine
  6
CONTINUOUS
370
13
 10
16.1014601356164
 20
280.621751752338
 11
15.3250030003089
 21
277.723974273471
  0
LINE
  5
7CB
100
AcDbEntity
  8
0-0
100
AcDbLine
  6
CONTINUOUS
370
13
 10
16.1014601356164
 20
255.122150433322
 11
15.3250030003089
 21
258.019927912189
  0
LINE
  5
7CC
100
AcDbEntity
  8
0-0
100
AcDbLine
  6
CONTINUOUS
370
13
 10
16.1014601356164
 20
255.122150433322
 11
16.877917270924
 21
258.019927912189
  0
TEXT
  5
7CD
100
AcDbEntity
  8
0-0
100
AcDbText
  6
CONTINUOUS
 10
15.8514601356164
 20
259.87195109283
 40
8
  1
25.5
  7
Font_0
 50
90
 72
1
 11
15.8514601356164
 21
267.87195109283
100
AcDbText
  0
LINE
  5
7CE
100
AcDbEntity
  8
0-0
100
AcDbLine
  6
CONTINUOUS
370
13
 10
35.9460079637406
 20
255.122150433322
 11
15.6014601356164
 21
255.122150433322
  0
LINE
  5
7CF
100
AcDbEntity
  8
0-0
100
AcDbLine
  6
CONTINUOUS
370
13
 10
288.029640663234
 20
274.172150433322
 11
288.029640663234
 21
294.990728860828
  0
LINE
  5
7D0
100
AcDbEntity
  8
0-0
100
AcDbLine
  6
CONTINUOUS
370
13
 10
288.029640663234
 20
294.490728860828
 11
384.029640663234
 21
294.490728860828
  0
LINE
  5
7D1
100
AcDbEntity
  8
0-0
100
AcDbLine
  6
CONTINUOUS
370
13
 10
288.029640663234
 20
294.490728860828
 11
290.927418142101
 21
295.267185996136
  0
LINE
  5
7D2
100
AcDbEntity
  8
0-0
100
AcDbLine
  6
CONTINUOUS
370
13
 10
288.029640663234
 20
294.490728860828
 11
290.927418142101
 21
293.71427172552
  0
LINE
  5
7D3
100
AcDbEntity
  8
0-0
100
AcDbLine
  6
CONTINUOUS
370
13
 10
384.029640663234
 20
294.490728860828
 11
381.131863184366
 21
293.71427172552
  0
LINE
  5
7D4
100
AcDbEntity
  8
0-0
100
AcDbLine
  6
CONTINUOUS
370
13
 10
384.029640663234
 20
294.490728860828
 11
381.131863184366
 21
295.267185996136
  0
TEXT
  5
7D5
100
AcDbEntity
  8
0-0
100
AcDbText
  6
CONTINUOUS
 10
326.029640663234
 20
294.740728860828
 40
8
  1
St=96
  7
Font_0
 72
1
 11
336.029640663234
 21
294.740728860828
100
AcDbText
  0
LINE
  5
7D6
100
AcDbEntity
  8
0-0
100
AcDbLine
  6
CONTINUOUS
370
13
 10
384.029640663234
 20
274.172150433322
 11
384.029640663234
 21
294.990728860828
  0
CIRCLE
  5
7D7
100
AcDbEntity
  8
0-0
100
AcDbCircle
  6
CONTINUOUS
370
50
 10
413.429640663233
 20
88.2419778166026
 40
1.55
  0
LINE
  5
7D8
100
AcDbEntity
  8
0-0
100
AcDbLine
  6
CONTINUOUS
370
50
 10
408.429640663233
 20
90.2399263094015
 11
408.429640663233
 21
86.2440293238038
  0
LINE
  5
7D9
100
AcDbEntity
  8
0-0
100
AcDbLine
  6
CONTINUOUS
370
50
 10
416.429640663233
 20
90.1994757552675
 11
416.429640663233
 21
86.2844798779377
  0
CIRCLE
  5
7DA
100
AcDbEntity
  8
0-0
100
AcDbCircle
  6
CONTINUOUS
370
20
 10
413.429640663233
 20
88.2419778166026
 40
1.5
  0
LINE
  5
7DB
100
AcDbEntity
  8
0-0
100
AcDbLine
  6
CONTINUOUS
370
13
 10
320.529640663233
 20
115.741977816602
 11
325.529640663233
 21
115.741977816602
  0
LINE
  5
7DC
100
AcDbEntity
  8
0-0
100
AcDbLine
  6
CONTINUOUS
370
13
 10
323.029640663233
 20
118.241977816602
 11
323.029640663233
 21
113.241977816602
  0
LINE
  5
7DD
100
AcDbEntity
  8
0-0
100
AcDbLine
  6
CONTINUOUS
370
13
 10
320.529640663233
 20
85.7419778166025
 11
325.529640663233
 21
85.7419778166025
  0
LINE
  5
7DE
100
AcDbEntity
  8
0-0
100
AcDbLine
  6
CONTINUOUS
370
13
 10
323.029640663233
 20
88.2419778166025
 11
323.029640663233
 21
83.2419778166025
  0
LINE
  5
7DF
100
AcDbEntity
  8
0-0
100
AcDbLine
  6
CONTINUOUS
370
13
 10
420.529640663233
 20
85.7419778166025
 11
425.529640663233
 21
85.7419778166025
  0
LINE
  5
7E0
100
AcDbEntity
  8
0-0
100
AcDbLine
  6
CONTINUOUS
370
13
 10
423.029640663233
 20
88.2419778166025
 11
423.029640663233
 21
83.2419778166025
  0
LINE
  5
7E1
100
AcDbEntity
  8
0-0
100
AcDbLine
  6
CONTINUOUS
370
13
 10
420.529640663233
 20
115.741977816602
 11
425.529640663233
 21
115.741977816602
  0
LINE
  5
7E2
100
AcDbEntity
  8
0-0
100
AcDbLine
  6
CONTINUOUS
370
13
 10
423.029640663233
 20
118.241977816602
 11
423.029640663233
 21
113.241977816602
  0
LINE
  5
7E3
100
AcDbEntity
  8
0-0
100
AcDbLine
  6
CONTINUOUS
370
13
 10
433.529640663233
 20
79.7419778166025
 11
438.529640663233
 21
79.7419778166025
  0
LINE
  5
7E4
100
AcDbEntity
  8
0-0
100
AcDbLine
  6
CONTINUOUS
370
13
 10
436.029640663233
 20
82.2419778166025
 11
436.029640663233
 21
77.2419778166025
  0
LINE
  5
7E5
100
AcDbEntity
  8
0-0
100
AcDbLine
  6
CONTINUOUS
370
13
 10
433.529640663233
 20
121.741977816602
 11
438.529640663233
 21
121.741977816602
  0
LINE
  5
7E6
100
AcDbEntity
  8
0-0
100
AcDbLine
  6
CONTINUOUS
370
13
 10
436.029640663233
 20
124.241977816602
 11
436.029640663233
 21
119.241977816602
  0
LINE
  5
7E7
100
AcDbEntity
  8
0-0
100
AcDbLine
  6
CONTINUOUS
370
13
 10
253.529640663233
 20
121.741977816602
 11
258.529640663233
 21
121.741977816602
  0
LINE
  5
7E8
100
AcDbEntity
  8
0-0
100
AcDbLine
  6
CONTINUOUS
370
13
 10
256.029640663233
 20
124.241977816602
 11
256.029640663233
 21
119.241977816602
  0
LINE
  5
7E9
100
AcDbEntity
  8
0-0
100
AcDbLine
  6
CONTINUOUS
370
13
 10
253.529640663233
 20
79.7419778166025
 11
258.529640663233
 21
79.7419778166025
  0
LINE
  5
7EA
100
AcDbEntity
  8
0-0
100
AcDbLine
  6
CONTINUOUS
370
13
 10
256.029640663233
 20
82.2419778166025
 11
256.029640663233
 21
77.2419778166025
  0
LINE
  5
7EB
100
AcDbEntity
  8
0-0
100
AcDbLine
  6
CONTINUOUS
370
13
 10
425.779640663233
 20
115.741977816602
 11
481.488403757894
 21
115.741977816602
  0
LINE
  5
7EC
100
AcDbEntity
  8
0-0
100
AcDbLine
  6
CONTINUOUS
370
13
 10
480.988403757894
 20
115.741977816602
 11
480.988403757894
 21
85.7419778166025
  0
LINE
  5
7ED
100
AcDbEntity
  8
0-0
100
AcDbLine
  6
CONTINUOUS
370
13
 10
480.988403757894
 20
115.741977816602
 11
481.764860893201
 21
112.844200337735
  0
LINE
  5
7EE
100
AcDbEntity
  8
0-0
100
AcDbLine
  6
CONTINUOUS
370
13
 10
480.988403757894
 20
115.741977816602
 11
480.211946622586
 21
112.844200337735
  0
LINE
  5
7EF
100
AcDbEntity
  8
0-0
100
AcDbLine
  6
CONTINUOUS
370
13
 10
480.988403757894
 20
85.7419778166025
 11
480.211946622586
 21
88.6397552954697
  0
LINE
  5
7F0
100
AcDbEntity
  8
0-0
100
AcDbLine
  6
CONTINUOUS
370
13
 10
480.988403757894
 20
85.7419778166025
 11
481.764860893201
 21
88.6397552954697
  0
TEXT
  5
7F1
100
AcDbEntity
  8
0-0
100
AcDbText
  6
CONTINUOUS
 10
480.738403757894
 20
96.7419778166025
 40
8
  1
30
  7
Font_0
 50
90
 72
1
 11
480.738403757894
 21
100.741977816602
100
AcDbText
  0
LINE
  5
7F2
100
AcDbEntity
  8
0-0
100
AcDbLine
  6
CONTINUOUS
370
13
 10
425.779640663233
 20
85.7419778166025
 11
481.488403757894
 21
85.7419778166025
  0
LINE
  5
7F3
100
AcDbEntity
  8
0-0
100
AcDbLine
  6
CONTINUOUS
370
13
 10
423.029640663233
 20
82.9919778166025
 11
423.029640663233
 21
58.7182407440539
  0
LINE
  5
7F4
100
AcDbEntity
  8
0-0
100
AcDbLine
  6
CONTINUOUS
370
13
 10
423.029640663233
 20
59.6742987920375
 11
449.029640663233
 21
59.6742987920375
  0
LINE
  5
7F5
100
AcDbEntity
  8
0-0
100
AcDbLine
  6
CONTINUOUS
370
13
 10
423.029640663233
 20
59.6742987920375
 11
425.9274181421
 21
60.450755927345
  0
LINE
  5
7F6
100
AcDbEntity
  8
0-0
100
AcDbLine
  6
CONTINUOUS
370
13
 10
423.029640663233
 20
59.6742987920375
 11
425.9274181421
 21
58.8978416567299
  0
LINE
  5
7F7
100
AcDbEntity
  8
0-0
100
AcDbLine
  6
CONTINUOUS
370
13
 10
449.029640663233
 20
59.6742987920375
 11
446.131863184366
 21
58.8978416567299
  0
LINE
  5
7F8
100
AcDbEntity
  8
0-0
100
AcDbLine
  6
CONTINUOUS
370
13
 10
449.029640663233
 20
59.6742987920375
 11
446.131863184366
 21
60.450755927345
  0
TEXT
  5
7F9
100
AcDbEntity
  8
0-0
100
AcDbText
  6
CONTINUOUS
 10
432.029640663233
 20
59.9242987920375
 40
8
  1
26
  7
Font_0
 72
1
 11
436.029640663233
 21
59.9242987920375
100
AcDbText
  0
LINE
  5
7FA
100
AcDbEntity
  8
0-0
100
AcDbLine
  6
CONTINUOUS
370
13
 10
449.029640663233
 20
72.7919778166026
 11
449.029640663233
 21
58.9172631489021
  0
LINE
  5
7FB
100
AcDbEntity
  8
0-0
100
AcDbLine
  6
CONTINUOUS
370
13
 10
323.029640663233
 20
82.9919778166025
 11
323.029640663233
 21
59.1358252828394
  0
LINE
  5
7FC
100
AcDbEntity
  8
0-0
100
AcDbLine
  6
CONTINUOUS
370
13
 10
323.029640663233
 20
59.6742987920375
 11
423.029640663233
 21
59.6742987920375
  0
LINE
  5
7FD
100
AcDbEntity
  8
0-0
100
AcDbLine
  6
CONTINUOUS
370
13
 10
323.029640663233
 20
59.6742987920375
 11
325.9274181421
 21
60.450755927345
  0
LINE
  5
7FE
100
AcDbEntity
  8
0-0
100
AcDbLine
  6
CONTINUOUS
370
13
 10
323.029640663233
 20
59.6742987920375
 11
325.9274181421
 21
58.8978416567299
  0
LINE
  5
7FF
100
AcDbEntity
  8
0-0
100
AcDbLine
  6
CONTINUOUS
370
13
 10
423.029640663233
 20
59.6742987920375
 11
420.131863184366
 21
58.8978416567299
  0
LINE
  5
800
100
AcDbEntity
  8
0-0
100
AcDbLine
  6
CONTINUOUS
370
13
 10
423.029640663233
 20
59.6742987920375
 11
420.131863184366
 21
60.450755927345
  0
TEXT
  5
801
100
AcDbEntity
  8
0-0
100
AcDbText
  6
CONTINUOUS
 10
367.029640663233
 20
59.9242987920375
 40
8
  1
100
  7
Font_0
 72
1
 11
373.029640663233
 21
59.9242987920375
100
AcDbText
  0
LINE
  5
802
100
AcDbEntity
  8
0-0
100
AcDbLine
  6
CONTINUOUS
370
13
 10
423.029640663233
 20
74.4919778166025
 11
423.029640663233
 21
59.0286671715355
  0
LINE
  5
803
100
AcDbEntity
  8
0-0
100
AcDbLine
  6
CONTINUOUS
370
13
 10
324.382011085863
 20
114.408240340959
 11
333.593172995271
 21
104.372299562125
  0
LINE
  5
804
100
AcDbEntity
  8
0-0
100
AcDbLine
  6
CONTINUOUS
370
13
 10
324.382011085863
 20
114.408240340959
 11
326.069660980698
 21
113.335003259758
  0
LINE
  5
805
100
AcDbEntity
  8
0-0
100
AcDbLine
  6
CONTINUOUS
370
13
 10
324.382011085863
 20
114.408240340959
 11
325.306940226883
 21
112.634964816938
  0
TEXT
  5
806
100
AcDbEntity
  8
0-0
100
AcDbText
  6
CONTINUOUS
 10
334.593172995271
 20
104.372299562125
 40
8
  1
4-M3ﾀｯﾌﾟ取付用
  7
Font_0
100
AcDbText
  0
LINE
  5
807
100
AcDbEntity
  8
0-0
100
AcDbLine
  6
CONTINUOUS
370
13
 10
333.593172995271
 20
104.372299562125
 11
390.593172995271
 21
104.372299562125
  0
LINE
  5
808
100
AcDbEntity
  8
0-0
100
AcDbLine
  6
CONTINUOUS
370
13
 10
167.744485731774
 20
274.722150433322
 11
149.932200787374
 21
296.646472885461
  0
LINE
  5
809
100
AcDbEntity
  8
0-0
100
AcDbLine
  6
CONTINUOUS
370
13
 10
167.744485731774
 20
274.722150433322
 11
165.31460868663
 21
276.481609880277
  0
LINE
  5
80A
100
AcDbEntity
  8
0-0
100
AcDbLine
  6
CONTINUOUS
370
13
 10
167.744485731774
 20
274.722150433322
 11
166.519880206085
 21
277.460825533886
  0
TEXT
  5
80B
100
AcDbEntity
  8
0-0
100
AcDbText
  6
CONTINUOUS
 10
150.932200787374
 20
296.646472885461
 40
8
  1
100mlﾃﾞｨｽﾎﾟｼﾘﾝｼﾞ
  7
Font_0
100
AcDbText
  0
LINE
  5
80C
100
AcDbEntity
  8
0-0
100
AcDbLine
  6
CONTINUOUS
370
13
 10
149.932200787374
 20
296.646472885461
 11
214.932200787374
 21
296.646472885461
  0
LINE
  5
80D
100
AcDbEntity
  8
0-0
100
AcDbLine
  6
CONTINUOUS
370
13
 10
554.029983055757
 20
170.521751752338
 11
529.211091313984
 21
138.476348423667
  0
LINE
  5
80E
100
AcDbEntity
  8
0-0
100
AcDbLine
  6
CONTINUOUS
370
13
 10
554.029983055757
 20
170.521751752338
 11
552.869489154428
 21
167.755300251773
  0
LINE
  5
80F
100
AcDbEntity
  8
0-0
100
AcDbLine
  6
CONTINUOUS
370
13
 10
554.029983055757
 20
170.521751752338
 11
551.641740105986
 21
168.706181425176
  0
TEXT
  5
810
100
AcDbEntity
  8
0-0
100
AcDbText
  6
CONTINUOUS
 10
533.157897890717
 20
138.476348423667
 40
6
  1
吸引ﾘﾐｯﾄ位置調整
  7
Font_0
100
AcDbText
  0
LINE
  5
811
100
AcDbEntity
  8
0-0
100
AcDbLine
  6
CONTINUOUS
370
13
 10
529.211091313984
 20
138.476348423667
 11
580.954274912438
 21
138.476348423667
  0
LINE
  5
812
100
AcDbEntity
  8
0-0
100
AcDbLine
  6
CONTINUOUS
370
50
 10
539.529983055748
 20
263.52175175234
 11
529.529983055748
 21
263.52175175234
  0
LINE
  5
813
100
AcDbEntity
  8
0-0
100
AcDbLine
  6
DIVIDE
370
13
 10
405.529640663233
 20
263.52175175234
 11
387.029640663233
 21
263.52175175234
  0
LINE
  5
814
100
AcDbEntity
  8
0-0
100
AcDbLine
  6
CONTINUOUS
370
50
 10
309.529640663233
 20
263.52175175234
 11
291.029640663233
 21
263.52175175234
  0
LINE
  5
815
100
AcDbEntity
  8
0-0
100
AcDbLine
  6
BYLAYER
370
13
 10
250.529640663233
 20
79.2419778166043
 11
251.029640663233
 21
78.7419778166043
  0
LINE
  5
816
100
AcDbEntity
  8
0-0
100
AcDbLine
  6
BYLAYER
370
13
 10
251.029640663233
 20
83.7419778166007
 11
250.529640663233
 21
83.2419778166007
  0
LINE
  5
817
100
AcDbEntity
  8
0-0
100
AcDbLine
  6
BYLAYER
370
13
 10
250.529640663233
 20
83.2419778166007
 11
250.529640663233
 21
79.2419778166043
  0
LINE
  5
818
100
AcDbEntity
  8
0-0
100
AcDbLine
  6
BYLAYER
370
13
 10
251.029640663233
 20
83.7419778166007
 11
251.029640663233
 21
78.7419778166043
  0
LINE
  5
819
100
AcDbEntity
  8
0-0
100
AcDbLine
  6
BYLAYER
370
13
 10
251.029640663233
 20
78.7419778166043
 11
252.029640663233
 21
78.7419778166043
  0
LINE
  5
81A
100
AcDbEntity
  8
0-0
100
AcDbLine
  6
BYLAYER
370
13
 10
252.029640663233
 20
83.7419778166007
 11
251.029640663233
 21
83.7419778166007
  0
ENDSEC
  0
SECTION
  2
OBJECTS
  0
DICTIONARY
  5
81B
100
AcDbDictionary
  3
ACAD_GROUP
350
81C
  3
ACAD_MLINESTYLE
350
81D
  0
DICTIONARY
  5
81C
102
{ACAD_REACTORS
330
81B
102
}
100
AcDbDictionary
  0
DICTIONARY
  5
81D
102
{ACAD_REACTORS
330
81B
102
}
100
AcDbDictionary
  3
STANDARD
350
81E
  0
MLINESTYLE
  5
81E
102
{ACAD_REACTORS
330
81D
102
}
100
AcDbMlineStyle
  2
Standard
 70
     0
  3

 62
     0
 51
90.0
 52
90.0
 71
     2
 49
0.5
 62
   256
  6
ByLayer
 49
-0.5
 62
   256
  6
ByLayer
  0
ENDSEC
  0
EOF
