999
Outputted By AR_CAD Ver.1.7.0
  0
SECTION
  2
HEADER
  9
$ACADVER
  1
AC1014
  9
$DWGCODEPAGE
  3
ANSI_932
  9
$EXTMIN
 10
0
 20
0
  9
$EXTMAX
 10
297
 20
210
  9
$INSBASE
 10
0.0
 20
0.0
 30
0.0
  9
$HANDLING
 70
     1
  9
$HANDSEED
  5
3FD
  9
$LTSCALE
 40
1
  0
ENDSEC
  0
SECTION
  2
TABLES
  0
TABLE
  2
VPORT
  5
1
100
AcDbSymbolTable
 70
     1
  0
VPORT
  5
30
100
AcDbSymbolTableRecord
100
AcDbViewportTableRecord
  2
*ACTIVE
 70
     0
 10
0.0
 20
0.0
 11
1.0
 21
1.0
 12
210.0
 22
148.5
 13
0.0
 23
0.0
 14
10.0
 24
10.0
 15
10.0
 25
10.0
 16
0.0
 26
0.0
 36
1.0
 17
0.0
 27
0.0
 37
0.0
 40
302.94
 41
1.333333
 42
50.0
 43
0.0
 44
0.0
 50
0.0
 51
0.0
 71
     0
 72
   100
 73
     1
 74
     1
 75
     0
 76
     0
 77
     0
 78
     0
  0
ENDTAB
  0
TABLE
  2
LTYPE
  5
2
100
AcDbSymbolTable
 70
     73
  0
LTYPE
  5
31
100
AcDbSymbolTableRecord
100
AcDbLinetypeTableRecord
  2
BYBLOCK
 70
    64
 3

 72
    65
 73
    0
 40
    0
  0
LTYPE
  5
32
100
AcDbSymbolTableRecord
100
AcDbLinetypeTableRecord
  2
BYLAYER
 70
    64
 3

 72
    65
 73
    0
 40
    0
  0
LTYPE
  5
33
100
AcDbSymbolTableRecord
100
AcDbLinetypeTableRecord
  2
CONTINUOUS
 70
    64
 3
CONTINUOUS
 72
    65
 73
    0
 40
    0
  0
LTYPE
  5
34
100
AcDbSymbolTableRecord
100
AcDbLinetypeTableRecord
  2
DASHED
 70
    64
 3

 72
    65
 73
    2
 40
    0.75
 49
    0.5
 74
    0
 49
    -0.25
 74
    0
  0
LTYPE
  5
35
100
AcDbSymbolTableRecord
100
AcDbLinetypeTableRecord
  2
DOT
 70
    64
 3

 72
    65
 73
    2
 40
    0.5
 49
    0.25
 74
    0
 49
    -0.25
 74
    0
  0
LTYPE
  5
36
100
AcDbSymbolTableRecord
100
AcDbLinetypeTableRecord
  2
DASHDOT
 70
    64
 3

 72
    65
 73
    4
 40
    3.5
 49
    1.84147386461011
 74
    0
 49
    -0.552842045129963
 74
    0
 49
    0.552842045129963
 74
    0
 49
    -0.552842045129963
 74
    0
  0
LTYPE
  5
37
100
AcDbSymbolTableRecord
100
AcDbLinetypeTableRecord
  2
DIVIDE
 70
    64
 3

 72
    65
 73
    6
 40
    3.5
 49
    1.4
 74
    0
 49
    -0.42
 74
    0
 49
    0.42
 74
    0
 49
    -0.42
 74
    0
 49
    0.42
 74
    0
 49
    -0.42
 74
    0
  0
LTYPE
  5
38
100
AcDbSymbolTableRecord
100
AcDbLinetypeTableRecord
  2
HIDDEN
 70
    64
 3

 72
    65
 73
    2
 40
    4
 49
    2
 74
    0
 49
    -2
 74
    0
  0
LTYPE
  5
39
100
AcDbSymbolTableRecord
100
AcDbLinetypeTableRecord
  2
CENTER
 70
    64
 3

 72
    65
 73
    4
 40
    2
 49
    1.25
 74
    0
 49
    -0.25
 74
    0
 49
    0.25
 74
    0
 49
    -0.25
 74
    0
  0
LTYPE
  5
3A
100
AcDbSymbolTableRecord
100
AcDbLinetypeTableRecord
  2
PHANTOM
 70
    64
 3

 72
    65
 73
    6
 40
    2.5
 49
    1.25
 74
    0
 49
    -0.25
 74
    0
 49
    0.25
 74
    0
 49
    -0.25
 74
    0
 49
    0.25
 74
    0
 49
    -0.25
 74
    0
  0
LTYPE
  5
3B
100
AcDbSymbolTableRecord
100
AcDbLinetypeTableRecord
  2

 70
    64
 3

 72
    65
 73
    6
 40
    1.75
 49
    0.5
 74
    0
 49
    -0.25
 74
    0
 49
    0.5
 74
    0
 49
    -0.25
 74
    0
 49
    0
 74
    0
 49
    -0.25
 74
    0
  0
LTYPE
  5
3C
100
AcDbSymbolTableRecord
100
AcDbLinetypeTableRecord
  2

 70
    64
 3

 72
    65
 73
    2
 40
    4
 49
    3
 74
    0
 49
    -1
 74
    0
  0
LTYPE
  5
3D
100
AcDbSymbolTableRecord
100
AcDbLinetypeTableRecord
  2

 70
    64
 3

 72
    65
 73
    3
 40
    4.5
 49
    1.5
 74
    0
 49
    -1.5
 74
    0
 49
    1.5
 74
    0
  0
LTYPE
  5
3E
100
AcDbSymbolTableRecord
100
AcDbLinetypeTableRecord
  2

 70
    64
 3

 72
    65
 73
    5
 40
    30
 49
    12
 74
    0
 49
    -1.5
 74
    0
 49
    3
 74
    0
 49
    -1.5
 74
    0
 49
    12
 74
    0
  0
LTYPE
  5
3F
100
AcDbSymbolTableRecord
100
AcDbLinetypeTableRecord
  2

 70
    64
 3

 72
    65
 73
    2
 40
    0.157
 49
    0.098
 74
    0
 49
    -0.059
 74
    0
  0
LTYPE
  5
40
100
AcDbSymbolTableRecord
100
AcDbLinetypeTableRecord
  2

 70
    64
 3

 72
    65
 73
    2
 40
    0.393
 49
    0.236
 74
    0
 49
    -0.157
 74
    0
  0
LTYPE
  5
41
100
AcDbSymbolTableRecord
100
AcDbLinetypeTableRecord
  2

 70
    64
 3

 72
    65
 73
    2
 40
    0.787
 49
    0.472
 74
    0
 49
    -0.315
 74
    0
  0
LTYPE
  5
42
100
AcDbSymbolTableRecord
100
AcDbLinetypeTableRecord
  2

 70
    64
 3

 72
    65
 73
    4
 40
    0.216
 49
    0.118
 74
    0
 49
    -0.039
 74
    0
 49
    0.02
 74
    0
 49
    -0.039
 74
    0
  0
LTYPE
  5
43
100
AcDbSymbolTableRecord
100
AcDbLinetypeTableRecord
  2

 70
    64
 3

 72
    65
 73
    4
 40
    0.433
 49
    0.236
 74
    0
 49
    -0.079
 74
    0
 49
    0.039
 74
    0
 49
    -0.079
 74
    0
  0
LTYPE
  5
44
100
AcDbSymbolTableRecord
100
AcDbLinetypeTableRecord
  2

 70
    64
 3

 72
    65
 73
    4
 40
    0.906
 49
    0.591
 74
    0
 49
    -0.118
 74
    0
 49
    0.079
 74
    0
 49
    -0.118
 74
    0
  0
LTYPE
  5
45
100
AcDbSymbolTableRecord
100
AcDbLinetypeTableRecord
  2

 70
    64
 3

 72
    65
 73
    6
 40
    0.551
 49
    0.236
 74
    0
 49
    -0.079
 74
    0
 49
    0.039
 74
    0
 49
    -0.079
 74
    0
 49
    0.039
 74
    0
 49
    -0.079
 74
    0
  0
LTYPE
  5
46
100
AcDbSymbolTableRecord
100
AcDbLinetypeTableRecord
  2

 70
    64
 3

 72
    65
 73
    6
 40
    0.875
 49
    0.25
 74
    0
 49
    -0.125
 74
    0
 49
    0.25
 74
    0
 49
    -0.125
 74
    0
 49
    0
 74
    0
 49
    -0.125
 74
    0
  0
LTYPE
  5
47
100
AcDbSymbolTableRecord
100
AcDbLinetypeTableRecord
  2

 70
    64
 3

 72
    65
 73
    6
 40
    3.5
 49
    1
 74
    0
 49
    -0.5
 74
    0
 49
    1
 74
    0
 49
    -0.5
 74
    0
 49
    0
 74
    0
 49
    -0.5
 74
    0
  0
LTYPE
  5
48
100
AcDbSymbolTableRecord
100
AcDbLinetypeTableRecord
  2

 70
    64
 3

 72
    65
 73
    4
 40
    1.125
 49
    0.75
 74
    0
 49
    -0.125
 74
    0
 49
    0.125
 74
    0
 49
    -0.125
 74
    0
  0
LTYPE
  5
49
100
AcDbSymbolTableRecord
100
AcDbLinetypeTableRecord
  2

 70
    64
 3

 72
    65
 73
    4
 40
    4
 49
    2.5
 74
    0
 49
    -0.5
 74
    0
 49
    0.5
 74
    0
 49
    -0.5
 74
    0
  0
LTYPE
  5
4A
100
AcDbSymbolTableRecord
100
AcDbLinetypeTableRecord
  2

 70
    64
 3

 72
    65
 73
    4
 40
    0.5
 49
    0.25
 74
    0
 49
    -0.125
 74
    0
 49
    0
 74
    0
 49
    -0.125
 74
    0
  0
LTYPE
  5
4B
100
AcDbSymbolTableRecord
100
AcDbLinetypeTableRecord
  2

 70
    64
 3

 72
    65
 73
    4
 40
    2
 49
    1
 74
    0
 49
    -0.5
 74
    0
 49
    0
 74
    0
 49
    -0.5
 74
    0
  0
LTYPE
  5
4C
100
AcDbSymbolTableRecord
100
AcDbLinetypeTableRecord
  2

 70
    64
 3

 72
    65
 73
    2
 40
    0.375
 49
    0.25
 74
    0
 49
    -0.125
 74
    0
  0
LTYPE
  5
4D
100
AcDbSymbolTableRecord
100
AcDbLinetypeTableRecord
  2

 70
    64
 3

 72
    65
 73
    2
 40
    1.5
 49
    1
 74
    0
 49
    -0.5
 74
    0
  0
LTYPE
  5
4E
100
AcDbSymbolTableRecord
100
AcDbLinetypeTableRecord
  2

 70
    64
 3

 72
    65
 73
    6
 40
    0.625
 49
    0.25
 74
    0
 49
    -0.125
 74
    0
 49
    0
 74
    0
 49
    -0.125
 74
    0
 49
    0
 74
    0
 49
    -0.125
 74
    0
  0
LTYPE
  5
4F
100
AcDbSymbolTableRecord
100
AcDbLinetypeTableRecord
  2

 70
    64
 3

 72
    65
 73
    6
 40
    2.5
 49
    1
 74
    0
 49
    -0.5
 74
    0
 49
    0
 74
    0
 49
    -0.5
 74
    0
 49
    0
 74
    0
 49
    -0.5
 74
    0
  0
LTYPE
  5
50
100
AcDbSymbolTableRecord
100
AcDbLinetypeTableRecord
  2

 70
    64
 3

 72
    65
 73
    2
 40
    0.125
 49
    0
 74
    0
 49
    -0.125
 74
    0
  0
LTYPE
  5
51
100
AcDbSymbolTableRecord
100
AcDbLinetypeTableRecord
  2

 70
    64
 3

 72
    65
 73
    2
 40
    0.5
 49
    0
 74
    0
 49
    -0.5
 74
    0
  0
LTYPE
  5
52
100
AcDbSymbolTableRecord
100
AcDbLinetypeTableRecord
  2

 70
    64
 3

 72
    65
 73
    2
 40
    0.188
 49
    0.126
 74
    0
 49
    -0.062
 74
    0
  0
LTYPE
  5
53
100
AcDbSymbolTableRecord
100
AcDbLinetypeTableRecord
  2

 70
    64
 3

 72
    65
 73
    2
 40
    0.75
 49
    0.5
 74
    0
 49
    -0.25
 74
    0
  0
LTYPE
  5
54
100
AcDbSymbolTableRecord
100
AcDbLinetypeTableRecord
  2

 70
    64
 3

 72
    65
 73
    6
 40
    1.25
 49
    0.625
 74
    0
 49
    -0.125
 74
    0
 49
    0.125
 74
    0
 49
    -0.125
 74
    0
 49
    0.125
 74
    0
 49
    -0.125
 74
    0
  0
LTYPE
  5
55
100
AcDbSymbolTableRecord
100
AcDbLinetypeTableRecord
  2

 70
    64
 3

 72
    65
 73
    6
 40
    5
 49
    2.5
 74
    0
 49
    -0.5
 74
    0
 49
    0.5
 74
    0
 49
    -0.5
 74
    0
 49
    0.5
 74
    0
 49
    -0.5
 74
    0
  0
LTYPE
  5
56
100
AcDbSymbolTableRecord
100
AcDbLinetypeTableRecord
  2

 70
    64
 3

 72
    65
 73
    5
 40
    2.5
 49
    0.5
 74
    0
 49
    -0.5
 74
    0
 49
    0.5
 74
    0
 49
    -0.5
 74
    0
 49
    0.5
 74
    0
  0
LTYPE
  5
57
100
AcDbSymbolTableRecord
100
AcDbLinetypeTableRecord
  2

 70
    64
 3

 72
    65
 73
    0
 40
    0
  0
LTYPE
  5
58
100
AcDbSymbolTableRecord
100
AcDbLinetypeTableRecord
  2

 70
    64
 3

 72
    65
 73
    0
 40
    0
  0
LTYPE
  5
59
100
AcDbSymbolTableRecord
100
AcDbLinetypeTableRecord
  2

 70
    64
 3

 72
    65
 73
    0
 40
    0
  0
LTYPE
  5
5A
100
AcDbSymbolTableRecord
100
AcDbLinetypeTableRecord
  2

 70
    64
 3

 72
    65
 73
    2
 40
    0.375
 49
    0.25
 74
    0
 49
    -0.125
 74
    0
  0
LTYPE
  5
5B
100
AcDbSymbolTableRecord
100
AcDbLinetypeTableRecord
  2

 70
    64
 3

 72
    65
 73
    2
 40
    0.5
 49
    0.375
 74
    0
 49
    -0.125
 74
    0
  0
LTYPE
  5
5C
100
AcDbSymbolTableRecord
100
AcDbLinetypeTableRecord
  2

 70
    64
 3

 72
    65
 73
    4
 40
    2
 49
    1.25
 74
    0
 49
    -0.25
 74
    0
 49
    0.25
 74
    0
 49
    -0.25
 74
    0
  0
LTYPE
  5
5D
100
AcDbSymbolTableRecord
100
AcDbLinetypeTableRecord
  2

 70
    64
 3

 72
    65
 73
    6
 40
    2.5
 49
    1.25
 74
    0
 49
    -0.25
 74
    0
 49
    0.25
 74
    0
 49
    -0.25
 74
    0
 49
    0.25
 74
    0
 49
    -0.25
 74
    0
  0
LTYPE
  5
5E
100
AcDbSymbolTableRecord
100
AcDbLinetypeTableRecord
  2

 70
    64
 3

 72
    65
 73
    4
 40
    1
 49
    0.5
 74
    0
 49
    -0.25
 74
    0
 49
    0
 74
    0
 49
    -0.25
 74
    0
  0
LTYPE
  5
5F
100
AcDbSymbolTableRecord
100
AcDbLinetypeTableRecord
  2

 70
    64
 3

 72
    65
 73
    0
 40
    0
  0
LTYPE
  5
60
100
AcDbSymbolTableRecord
100
AcDbLinetypeTableRecord
  2

 70
    64
 3

 72
    65
 73
    2
 40
    0.075
 49
    0.04
 74
    0
 49
    -0.035
 74
    0
  0
LTYPE
  5
61
100
AcDbSymbolTableRecord
100
AcDbLinetypeTableRecord
  2

 70
    64
 3

 72
    65
 73
    2
 40
    0.15
 49
    0.11
 74
    0
 49
    -0.04
 74
    0
  0
LTYPE
  5
62
100
AcDbSymbolTableRecord
100
AcDbLinetypeTableRecord
  2

 70
    64
 3

 72
    65
 73
    2
 40
    0.2
 49
    0.15
 74
    0
 49
    -0.05
 74
    0
  0
LTYPE
  5
63
100
AcDbSymbolTableRecord
100
AcDbLinetypeTableRecord
  2

 70
    64
 3

 72
    65
 73
    2
 40
    0.36
 49
    0.28
 74
    0
 49
    -0.08
 74
    0
  0
LTYPE
  5
64
100
AcDbSymbolTableRecord
100
AcDbLinetypeTableRecord
  2

 70
    64
 3

 72
    65
 73
    2
 40
    0.47
 49
    0.39
 74
    0
 49
    -0.08
 74
    0
  0
LTYPE
  5
65
100
AcDbSymbolTableRecord
100
AcDbLinetypeTableRecord
  2

 70
    64
 3

 72
    65
 73
    2
 40
    0.9
 49
    0.81
 74
    0
 49
    -0.09
 74
    0
  0
LTYPE
  5
66
100
AcDbSymbolTableRecord
100
AcDbLinetypeTableRecord
  2

 70
    64
 3

 72
    65
 73
    6
 40
    1
 49
    0.6
 74
    0
 49
    -0.08
 74
    0
 49
    0.08
 74
    0
 49
    -0.08
 74
    0
 49
    0.08
 74
    0
 49
    -0.08
 74
    0
  0
LTYPE
  5
67
100
AcDbSymbolTableRecord
100
AcDbLinetypeTableRecord
  2

 70
    64
 3

 72
    65
 73
    6
 40
    1.08
 49
    0.6
 74
    0
 49
    -0.08
 74
    0
 49
    0.12
 74
    0
 49
    -0.08
 74
    0
 49
    0.12
 74
    0
 49
    -0.08
 74
    0
  0
LTYPE
  5
68
100
AcDbSymbolTableRecord
100
AcDbLinetypeTableRecord
  2

 70
    64
 3

 72
    65
 73
    6
 40
    2
 49
    1.44
 74
    0
 49
    -0.08
 74
    0
 49
    0.16
 74
    0
 49
    -0.08
 74
    0
 49
    0.16
 74
    0
 49
    -0.08
 74
    0
  0
LTYPE
  5
69
100
AcDbSymbolTableRecord
100
AcDbLinetypeTableRecord
  2

 70
    64
 3

 72
    65
 73
    4
 40
    0.7
 49
    0.45
 74
    0
 49
    -0.06
 74
    0
 49
    0.13
 74
    0
 49
    -0.06
 74
    0
  0
LTYPE
  5
6A
100
AcDbSymbolTableRecord
100
AcDbLinetypeTableRecord
  2

 70
    64
 3

 72
    65
 73
    4
 40
    1.2
 49
    0.97741935483871
 74
    0
 49
    -0.0580645161290322
 74
    0
 49
    0.106451612903226
 74
    0
 49
    -0.0580645161290322
 74
    0
  0
LTYPE
  5
6B
100
AcDbSymbolTableRecord
100
AcDbLinetypeTableRecord
  2

 70
    64
 3

 72
    65
 73
    4
 40
    1.2
 49
    0.98
 74
    0
 49
    -0.06
 74
    0
 49
    0.1
 74
    0
 49
    -0.06
 74
    0
  0
LTYPE
  5
6C
100
AcDbSymbolTableRecord
100
AcDbLinetypeTableRecord
  2

 70
    64
 3

 72
    65
 73
    4
 40
    2.2
 49
    1.93
 74
    0
 49
    -0.07
 74
    0
 49
    0.13
 74
    0
 49
    -0.07
 74
    0
  0
LTYPE
  5
6D
100
AcDbSymbolTableRecord
100
AcDbLinetypeTableRecord
  2

 70
    64
 3

 72
    65
 73
    4
 40
    2.2
 49
    1.88
 74
    0
 49
    -0.07
 74
    0
 49
    0.18
 74
    0
 49
    -0.07
 74
    0
  0
LTYPE
  5
6E
100
AcDbSymbolTableRecord
100
AcDbLinetypeTableRecord
  2

 70
    64
 3

 72
    65
 73
    4
 40
    2.7
 49
    0.25
 74
    0
 49
    -0.2
 74
    0
 49
    0.25
 74
    0
 49
    -2
 74
    0
  0
LTYPE
  5
6F
100
AcDbSymbolTableRecord
100
AcDbLinetypeTableRecord
  2

 70
    64
 3

 72
    65
 73
    4
 40
    3.71
 49
    0.423070175438596
 74
    0
 49
    -0.260350877192982
 74
    0
 49
    0.423070175438596
 74
    0
 49
    -2.60350877192982
 74
    0
  0
LTYPE
  5
70
100
AcDbSymbolTableRecord
100
AcDbLinetypeTableRecord
  2

 70
    64
 3

 72
    65
 73
    2
 40
    0.25
 49
    0
 74
    0
 49
    -0.25
 74
    0
  0
LTYPE
  5
71
100
AcDbSymbolTableRecord
100
AcDbLinetypeTableRecord
  2

 70
    64
 3

 72
    65
 73
    6
 40
    2
 49
    1.05882352941176
 74
    0
 49
    -0.588235294117647
 74
    0
 49
    0.117647058823529
 74
    0
 49
    -0.0588235294117647
 74
    0
 49
    0.117647058823529
 74
    0
 49
    -0.0588235294117647
 74
    0
  0
LTYPE
  5
72
100
AcDbSymbolTableRecord
100
AcDbLinetypeTableRecord
  2

 70
    64
 3

 72
    65
 73
    0
 40
    0
  0
LTYPE
  5
73
100
AcDbSymbolTableRecord
100
AcDbLinetypeTableRecord
  2

 70
    64
 3

 72
    65
 73
    0
 40
    0
  0
LTYPE
  5
74
100
AcDbSymbolTableRecord
100
AcDbLinetypeTableRecord
  2

 70
    64
 3

 72
    65
 73
    2
 40
    16
 49
    8
 74
    0
 49
    -8
 74
    0
  0
LTYPE
  5
75
100
AcDbSymbolTableRecord
100
AcDbLinetypeTableRecord
  2

 70
    64
 3

 72
    65
 73
    2
 40
    32
 49
    16
 74
    0
 49
    -16
 74
    0
  0
LTYPE
  5
76
100
AcDbSymbolTableRecord
100
AcDbLinetypeTableRecord
  2

 70
    64
 3

 72
    65
 73
    4
 40
    64
 49
    32
 74
    0
 49
    -8
 74
    0
 49
    16
 74
    0
 49
    -8
 74
    0
  0
LTYPE
  5
77
100
AcDbSymbolTableRecord
100
AcDbLinetypeTableRecord
  2

 70
    64
 3

 72
    65
 73
    6
 40
    64
 49
    24
 74
    0
 49
    -8
 74
    0
 49
    8
 74
    0
 49
    -8
 74
    0
 49
    8
 74
    0
 49
    -8
 74
    0
  0
LTYPE
  5
78
100
AcDbSymbolTableRecord
100
AcDbLinetypeTableRecord
  2

 70
    64
 3

 72
    65
 73
    4
 40
    10.5
 49
    6
 74
    0
 49
    -1.5
 74
    0
 49
    1.5
 74
    0
 49
    -1.5
 74
    0
  0
LTYPE
  5
79
100
AcDbSymbolTableRecord
100
AcDbLinetypeTableRecord
  2

 70
    64
 3

 72
    65
 73
    2
 40
    3.5
 49
    0.5
 74
    0
 49
    -3
 74
    0
  0
LTYPE
  5
7A
100
AcDbSymbolTableRecord
100
AcDbLinetypeTableRecord
  2

 70
    64
 3

 72
    65
 73
    4
 40
    2
 49
    1.25
 74
    0
 49
    -0.25
 74
    0
 49
    0.25
 74
    0
 49
    -0.25
 74
    0
  0
ENDTAB
  0
TABLE
  2
LAYER
  5
3
100
AcDbSymbolTable
 70
   257
  0
LAYER
  5
7B
100
AcDbSymbolTableRecord
100
AcDbLayerTableRecord
  2
0-0
 70
    0
 62
250
  6
CONTINUOUS
  0
LAYER
  5
7C
100
AcDbSymbolTableRecord
100
AcDbLayerTableRecord
  2
0-1
 70
    0
 62
3
  6
CONTINUOUS
  0
LAYER
  5
7D
100
AcDbSymbolTableRecord
100
AcDbLayerTableRecord
  2
0-2
 70
    0
 62
9
  6
CONTINUOUS
  0
LAYER
  5
7E
100
AcDbSymbolTableRecord
100
AcDbLayerTableRecord
  2
0-3
 70
    0
 62
250
  6
CONTINUOUS
  0
LAYER
  5
7F
100
AcDbSymbolTableRecord
100
AcDbLayerTableRecord
  2
0-4
 70
    0
 62
6
  6
CONTINUOUS
  0
LAYER
  5
80
100
AcDbSymbolTableRecord
100
AcDbLayerTableRecord
  2
0-5
 70
    0
 62
1
  6
CONTINUOUS
  0
LAYER
  5
81
100
AcDbSymbolTableRecord
100
AcDbLayerTableRecord
  2
0-6
 70
    0
 62
7
  6
CONTINUOUS
  0
LAYER
  5
82
100
AcDbSymbolTableRecord
100
AcDbLayerTableRecord
  2
0-7
 70
    0
 62
51
  6
CONTINUOUS
  0
LAYER
  5
83
100
AcDbSymbolTableRecord
100
AcDbLayerTableRecord
  2
0-8
 70
    0
 62
61
  6
CONTINUOUS
  0
LAYER
  5
84
100
AcDbSymbolTableRecord
100
AcDbLayerTableRecord
  2
0-9
 70
    0
 62
111
  6
CONTINUOUS
  0
LAYER
  5
85
100
AcDbSymbolTableRecord
100
AcDbLayerTableRecord
  2
0-a
 70
    0
 62
91
  6
CONTINUOUS
  0
LAYER
  5
86
100
AcDbSymbolTableRecord
100
AcDbLayerTableRecord
  2
0-b
 70
    0
 62
131
  6
CONTINUOUS
  0
LAYER
  5
87
100
AcDbSymbolTableRecord
100
AcDbLayerTableRecord
  2
0-c
 70
    0
 62
161
  6
CONTINUOUS
  0
LAYER
  5
88
100
AcDbSymbolTableRecord
100
AcDbLayerTableRecord
  2
0-d
 70
    0
 62
5
  6
CONTINUOUS
  0
LAYER
  5
89
100
AcDbSymbolTableRecord
100
AcDbLayerTableRecord
  2
0-e
 70
    0
 62
7
  6
CONTINUOUS
  0
LAYER
  5
8A
100
AcDbSymbolTableRecord
100
AcDbLayerTableRecord
  2
0-f
 70
    0
 62
11
  6
CONTINUOUS
  0
LAYER
  5
8B
100
AcDbSymbolTableRecord
100
AcDbLayerTableRecord
  2
1-0
 70
    0
 62
250
  6
CONTINUOUS
  0
LAYER
  5
8C
100
AcDbSymbolTableRecord
100
AcDbLayerTableRecord
  2
1-1
 70
    0
 62
70
  6
CONTINUOUS
  0
LAYER
  5
8D
100
AcDbSymbolTableRecord
100
AcDbLayerTableRecord
  2
1-2
 70
    0
 62
211
  6
CONTINUOUS
  0
LAYER
  5
8E
100
AcDbSymbolTableRecord
100
AcDbLayerTableRecord
  2
1-3
 70
    0
 62
137
  6
CONTINUOUS
  0
LAYER
  5
8F
100
AcDbSymbolTableRecord
100
AcDbLayerTableRecord
  2
1-4
 70
    0
 62
4
  6
CONTINUOUS
  0
LAYER
  5
90
100
AcDbSymbolTableRecord
100
AcDbLayerTableRecord
  2
1-5
 70
    0
 62
131
  6
CONTINUOUS
  0
LAYER
  5
91
100
AcDbSymbolTableRecord
100
AcDbLayerTableRecord
  2
1-6
 70
    0
 62
4
  6
CONTINUOUS
  0
LAYER
  5
92
100
AcDbSymbolTableRecord
100
AcDbLayerTableRecord
  2
1-7
 70
    0
 62
4
  6
CONTINUOUS
  0
LAYER
  5
93
100
AcDbSymbolTableRecord
100
AcDbLayerTableRecord
  2
1-8
 70
    0
 62
250
  6
CONTINUOUS
  0
LAYER
  5
94
100
AcDbSymbolTableRecord
100
AcDbLayerTableRecord
  2
1-9
 70
    0
 62
250
  6
CONTINUOUS
  0
LAYER
  5
95
100
AcDbSymbolTableRecord
100
AcDbLayerTableRecord
  2
1-a
 70
    0
 62
250
  6
CONTINUOUS
  0
LAYER
  5
96
100
AcDbSymbolTableRecord
100
AcDbLayerTableRecord
  2
1-b
 70
    0
 62
250
  6
CONTINUOUS
  0
LAYER
  5
97
100
AcDbSymbolTableRecord
100
AcDbLayerTableRecord
  2
1-c
 70
    0
 62
250
  6
CONTINUOUS
  0
LAYER
  5
98
100
AcDbSymbolTableRecord
100
AcDbLayerTableRecord
  2
1-d
 70
    0
 62
250
  6
CONTINUOUS
  0
LAYER
  5
99
100
AcDbSymbolTableRecord
100
AcDbLayerTableRecord
  2
1-e
 70
    0
 62
250
  6
CONTINUOUS
  0
LAYER
  5
9A
100
AcDbSymbolTableRecord
100
AcDbLayerTableRecord
  2
1-f
 70
    0
 62
250
  6
CONTINUOUS
  0
LAYER
  5
9B
100
AcDbSymbolTableRecord
100
AcDbLayerTableRecord
  2
2-0
 70
    0
 62
250
  6
CONTINUOUS
  0
LAYER
  5
9C
100
AcDbSymbolTableRecord
100
AcDbLayerTableRecord
  2
2-1
 70
    0
 62
250
  6
CONTINUOUS
  0
LAYER
  5
9D
100
AcDbSymbolTableRecord
100
AcDbLayerTableRecord
  2
2-2
 70
    0
 62
250
  6
CONTINUOUS
  0
LAYER
  5
9E
100
AcDbSymbolTableRecord
100
AcDbLayerTableRecord
  2
2-3
 70
    0
 62
250
  6
CONTINUOUS
  0
LAYER
  5
9F
100
AcDbSymbolTableRecord
100
AcDbLayerTableRecord
  2
2-4
 70
    0
 62
250
  6
CONTINUOUS
  0
LAYER
  5
A0
100
AcDbSymbolTableRecord
100
AcDbLayerTableRecord
  2
2-5
 70
    0
 62
250
  6
CONTINUOUS
  0
LAYER
  5
A1
100
AcDbSymbolTableRecord
100
AcDbLayerTableRecord
  2
2-6
 70
    0
 62
250
  6
CONTINUOUS
  0
LAYER
  5
A2
100
AcDbSymbolTableRecord
100
AcDbLayerTableRecord
  2
2-7
 70
    0
 62
250
  6
CONTINUOUS
  0
LAYER
  5
A3
100
AcDbSymbolTableRecord
100
AcDbLayerTableRecord
  2
2-8
 70
    0
 62
250
  6
CONTINUOUS
  0
LAYER
  5
A4
100
AcDbSymbolTableRecord
100
AcDbLayerTableRecord
  2
2-9
 70
    0
 62
250
  6
CONTINUOUS
  0
LAYER
  5
A5
100
AcDbSymbolTableRecord
100
AcDbLayerTableRecord
  2
2-a
 70
    0
 62
250
  6
CONTINUOUS
  0
LAYER
  5
A6
100
AcDbSymbolTableRecord
100
AcDbLayerTableRecord
  2
2-b
 70
    0
 62
250
  6
CONTINUOUS
  0
LAYER
  5
A7
100
AcDbSymbolTableRecord
100
AcDbLayerTableRecord
  2
2-c
 70
    0
 62
250
  6
CONTINUOUS
  0
LAYER
  5
A8
100
AcDbSymbolTableRecord
100
AcDbLayerTableRecord
  2
2-d
 70
    0
 62
250
  6
CONTINUOUS
  0
LAYER
  5
A9
100
AcDbSymbolTableRecord
100
AcDbLayerTableRecord
  2
2-e
 70
    0
 62
250
  6
CONTINUOUS
  0
LAYER
  5
AA
100
AcDbSymbolTableRecord
100
AcDbLayerTableRecord
  2
2-f
 70
    0
 62
250
  6
CONTINUOUS
  0
LAYER
  5
AB
100
AcDbSymbolTableRecord
100
AcDbLayerTableRecord
  2
3-0
 70
    0
 62
250
  6
CONTINUOUS
  0
LAYER
  5
AC
100
AcDbSymbolTableRecord
100
AcDbLayerTableRecord
  2
3-1
 70
    0
 62
250
  6
CONTINUOUS
  0
LAYER
  5
AD
100
AcDbSymbolTableRecord
100
AcDbLayerTableRecord
  2
3-2
 70
    0
 62
250
  6
CONTINUOUS
  0
LAYER
  5
AE
100
AcDbSymbolTableRecord
100
AcDbLayerTableRecord
  2
3-3
 70
    0
 62
250
  6
CONTINUOUS
  0
LAYER
  5
AF
100
AcDbSymbolTableRecord
100
AcDbLayerTableRecord
  2
3-4
 70
    0
 62
250
  6
CONTINUOUS
  0
LAYER
  5
B0
100
AcDbSymbolTableRecord
100
AcDbLayerTableRecord
  2
3-5
 70
    0
 62
250
  6
CONTINUOUS
  0
LAYER
  5
B1
100
AcDbSymbolTableRecord
100
AcDbLayerTableRecord
  2
3-6
 70
    0
 62
250
  6
CONTINUOUS
  0
LAYER
  5
B2
100
AcDbSymbolTableRecord
100
AcDbLayerTableRecord
  2
3-7
 70
    0
 62
250
  6
CONTINUOUS
  0
LAYER
  5
B3
100
AcDbSymbolTableRecord
100
AcDbLayerTableRecord
  2
3-8
 70
    0
 62
250
  6
CONTINUOUS
  0
LAYER
  5
B4
100
AcDbSymbolTableRecord
100
AcDbLayerTableRecord
  2
3-9
 70
    0
 62
250
  6
CONTINUOUS
  0
LAYER
  5
B5
100
AcDbSymbolTableRecord
100
AcDbLayerTableRecord
  2
3-a
 70
    0
 62
250
  6
CONTINUOUS
  0
LAYER
  5
B6
100
AcDbSymbolTableRecord
100
AcDbLayerTableRecord
  2
3-b
 70
    0
 62
250
  6
CONTINUOUS
  0
LAYER
  5
B7
100
AcDbSymbolTableRecord
100
AcDbLayerTableRecord
  2
3-c
 70
    0
 62
250
  6
CONTINUOUS
  0
LAYER
  5
B8
100
AcDbSymbolTableRecord
100
AcDbLayerTableRecord
  2
3-d
 70
    0
 62
250
  6
CONTINUOUS
  0
LAYER
  5
B9
100
AcDbSymbolTableRecord
100
AcDbLayerTableRecord
  2
3-e
 70
    0
 62
250
  6
CONTINUOUS
  0
LAYER
  5
BA
100
AcDbSymbolTableRecord
100
AcDbLayerTableRecord
  2
3-f
 70
    0
 62
250
  6
CONTINUOUS
  0
LAYER
  5
BB
100
AcDbSymbolTableRecord
100
AcDbLayerTableRecord
  2
4-0
 70
    0
 62
250
  6
CONTINUOUS
  0
LAYER
  5
BC
100
AcDbSymbolTableRecord
100
AcDbLayerTableRecord
  2
4-1
 70
    0
 62
250
  6
CONTINUOUS
  0
LAYER
  5
BD
100
AcDbSymbolTableRecord
100
AcDbLayerTableRecord
  2
4-2
 70
    0
 62
250
  6
CONTINUOUS
  0
LAYER
  5
BE
100
AcDbSymbolTableRecord
100
AcDbLayerTableRecord
  2
4-3
 70
    0
 62
250
  6
CONTINUOUS
  0
LAYER
  5
BF
100
AcDbSymbolTableRecord
100
AcDbLayerTableRecord
  2
4-4
 70
    0
 62
250
  6
CONTINUOUS
  0
LAYER
  5
C0
100
AcDbSymbolTableRecord
100
AcDbLayerTableRecord
  2
4-5
 70
    0
 62
250
  6
CONTINUOUS
  0
LAYER
  5
C1
100
AcDbSymbolTableRecord
100
AcDbLayerTableRecord
  2
4-6
 70
    0
 62
250
  6
CONTINUOUS
  0
LAYER
  5
C2
100
AcDbSymbolTableRecord
100
AcDbLayerTableRecord
  2
4-7
 70
    0
 62
250
  6
CONTINUOUS
  0
LAYER
  5
C3
100
AcDbSymbolTableRecord
100
AcDbLayerTableRecord
  2
4-8
 70
    0
 62
250
  6
CONTINUOUS
  0
LAYER
  5
C4
100
AcDbSymbolTableRecord
100
AcDbLayerTableRecord
  2
4-9
 70
    0
 62
250
  6
CONTINUOUS
  0
LAYER
  5
C5
100
AcDbSymbolTableRecord
100
AcDbLayerTableRecord
  2
4-a
 70
    0
 62
250
  6
CONTINUOUS
  0
LAYER
  5
C6
100
AcDbSymbolTableRecord
100
AcDbLayerTableRecord
  2
4-b
 70
    0
 62
250
  6
CONTINUOUS
  0
LAYER
  5
C7
100
AcDbSymbolTableRecord
100
AcDbLayerTableRecord
  2
4-c
 70
    0
 62
250
  6
CONTINUOUS
  0
LAYER
  5
C8
100
AcDbSymbolTableRecord
100
AcDbLayerTableRecord
  2
4-d
 70
    0
 62
250
  6
CONTINUOUS
  0
LAYER
  5
C9
100
AcDbSymbolTableRecord
100
AcDbLayerTableRecord
  2
4-e
 70
    0
 62
250
  6
CONTINUOUS
  0
LAYER
  5
CA
100
AcDbSymbolTableRecord
100
AcDbLayerTableRecord
  2
4-f
 70
    0
 62
250
  6
CONTINUOUS
  0
LAYER
  5
CB
100
AcDbSymbolTableRecord
100
AcDbLayerTableRecord
  2
5-0
 70
    0
 62
250
  6
CONTINUOUS
  0
LAYER
  5
CC
100
AcDbSymbolTableRecord
100
AcDbLayerTableRecord
  2
5-1
 70
    0
 62
250
  6
CONTINUOUS
  0
LAYER
  5
CD
100
AcDbSymbolTableRecord
100
AcDbLayerTableRecord
  2
5-2
 70
    0
 62
250
  6
CONTINUOUS
  0
LAYER
  5
CE
100
AcDbSymbolTableRecord
100
AcDbLayerTableRecord
  2
5-3
 70
    0
 62
250
  6
CONTINUOUS
  0
LAYER
  5
CF
100
AcDbSymbolTableRecord
100
AcDbLayerTableRecord
  2
5-4
 70
    0
 62
250
  6
CONTINUOUS
  0
LAYER
  5
D0
100
AcDbSymbolTableRecord
100
AcDbLayerTableRecord
  2
5-5
 70
    0
 62
250
  6
CONTINUOUS
  0
LAYER
  5
D1
100
AcDbSymbolTableRecord
100
AcDbLayerTableRecord
  2
5-6
 70
    0
 62
250
  6
CONTINUOUS
  0
LAYER
  5
D2
100
AcDbSymbolTableRecord
100
AcDbLayerTableRecord
  2
5-7
 70
    0
 62
250
  6
CONTINUOUS
  0
LAYER
  5
D3
100
AcDbSymbolTableRecord
100
AcDbLayerTableRecord
  2
5-8
 70
    0
 62
250
  6
CONTINUOUS
  0
LAYER
  5
D4
100
AcDbSymbolTableRecord
100
AcDbLayerTableRecord
  2
5-9
 70
    0
 62
250
  6
CONTINUOUS
  0
LAYER
  5
D5
100
AcDbSymbolTableRecord
100
AcDbLayerTableRecord
  2
5-a
 70
    0
 62
250
  6
CONTINUOUS
  0
LAYER
  5
D6
100
AcDbSymbolTableRecord
100
AcDbLayerTableRecord
  2
5-b
 70
    0
 62
250
  6
CONTINUOUS
  0
LAYER
  5
D7
100
AcDbSymbolTableRecord
100
AcDbLayerTableRecord
  2
5-c
 70
    0
 62
250
  6
CONTINUOUS
  0
LAYER
  5
D8
100
AcDbSymbolTableRecord
100
AcDbLayerTableRecord
  2
5-d
 70
    0
 62
250
  6
CONTINUOUS
  0
LAYER
  5
D9
100
AcDbSymbolTableRecord
100
AcDbLayerTableRecord
  2
5-e
 70
    0
 62
250
  6
CONTINUOUS
  0
LAYER
  5
DA
100
AcDbSymbolTableRecord
100
AcDbLayerTableRecord
  2
5-f
 70
    0
 62
250
  6
CONTINUOUS
  0
LAYER
  5
DB
100
AcDbSymbolTableRecord
100
AcDbLayerTableRecord
  2
6-0
 70
    0
 62
250
  6
CONTINUOUS
  0
LAYER
  5
DC
100
AcDbSymbolTableRecord
100
AcDbLayerTableRecord
  2
6-1
 70
    0
 62
250
  6
CONTINUOUS
  0
LAYER
  5
DD
100
AcDbSymbolTableRecord
100
AcDbLayerTableRecord
  2
6-2
 70
    0
 62
250
  6
CONTINUOUS
  0
LAYER
  5
DE
100
AcDbSymbolTableRecord
100
AcDbLayerTableRecord
  2
6-3
 70
    0
 62
250
  6
CONTINUOUS
  0
LAYER
  5
DF
100
AcDbSymbolTableRecord
100
AcDbLayerTableRecord
  2
6-4
 70
    0
 62
250
  6
CONTINUOUS
  0
LAYER
  5
E0
100
AcDbSymbolTableRecord
100
AcDbLayerTableRecord
  2
6-5
 70
    0
 62
250
  6
CONTINUOUS
  0
LAYER
  5
E1
100
AcDbSymbolTableRecord
100
AcDbLayerTableRecord
  2
6-6
 70
    0
 62
250
  6
CONTINUOUS
  0
LAYER
  5
E2
100
AcDbSymbolTableRecord
100
AcDbLayerTableRecord
  2
6-7
 70
    0
 62
250
  6
CONTINUOUS
  0
LAYER
  5
E3
100
AcDbSymbolTableRecord
100
AcDbLayerTableRecord
  2
6-8
 70
    0
 62
250
  6
CONTINUOUS
  0
LAYER
  5
E4
100
AcDbSymbolTableRecord
100
AcDbLayerTableRecord
  2
6-9
 70
    0
 62
250
  6
CONTINUOUS
  0
LAYER
  5
E5
100
AcDbSymbolTableRecord
100
AcDbLayerTableRecord
  2
6-a
 70
    0
 62
250
  6
CONTINUOUS
  0
LAYER
  5
E6
100
AcDbSymbolTableRecord
100
AcDbLayerTableRecord
  2
6-b
 70
    0
 62
250
  6
CONTINUOUS
  0
LAYER
  5
E7
100
AcDbSymbolTableRecord
100
AcDbLayerTableRecord
  2
6-c
 70
    0
 62
250
  6
CONTINUOUS
  0
LAYER
  5
E8
100
AcDbSymbolTableRecord
100
AcDbLayerTableRecord
  2
6-d
 70
    0
 62
250
  6
CONTINUOUS
  0
LAYER
  5
E9
100
AcDbSymbolTableRecord
100
AcDbLayerTableRecord
  2
6-e
 70
    0
 62
250
  6
CONTINUOUS
  0
LAYER
  5
EA
100
AcDbSymbolTableRecord
100
AcDbLayerTableRecord
  2
6-f
 70
    0
 62
250
  6
CONTINUOUS
  0
LAYER
  5
EB
100
AcDbSymbolTableRecord
100
AcDbLayerTableRecord
  2
7-0
 70
    0
 62
250
  6
CONTINUOUS
  0
LAYER
  5
EC
100
AcDbSymbolTableRecord
100
AcDbLayerTableRecord
  2
7-1
 70
    0
 62
250
  6
CONTINUOUS
  0
LAYER
  5
ED
100
AcDbSymbolTableRecord
100
AcDbLayerTableRecord
  2
7-2
 70
    0
 62
250
  6
CONTINUOUS
  0
LAYER
  5
EE
100
AcDbSymbolTableRecord
100
AcDbLayerTableRecord
  2
7-3
 70
    0
 62
250
  6
CONTINUOUS
  0
LAYER
  5
EF
100
AcDbSymbolTableRecord
100
AcDbLayerTableRecord
  2
7-4
 70
    0
 62
250
  6
CONTINUOUS
  0
LAYER
  5
F0
100
AcDbSymbolTableRecord
100
AcDbLayerTableRecord
  2
7-5
 70
    0
 62
250
  6
CONTINUOUS
  0
LAYER
  5
F1
100
AcDbSymbolTableRecord
100
AcDbLayerTableRecord
  2
7-6
 70
    0
 62
250
  6
CONTINUOUS
  0
LAYER
  5
F2
100
AcDbSymbolTableRecord
100
AcDbLayerTableRecord
  2
7-7
 70
    0
 62
250
  6
CONTINUOUS
  0
LAYER
  5
F3
100
AcDbSymbolTableRecord
100
AcDbLayerTableRecord
  2
7-8
 70
    0
 62
250
  6
CONTINUOUS
  0
LAYER
  5
F4
100
AcDbSymbolTableRecord
100
AcDbLayerTableRecord
  2
7-9
 70
    0
 62
250
  6
CONTINUOUS
  0
LAYER
  5
F5
100
AcDbSymbolTableRecord
100
AcDbLayerTableRecord
  2
7-a
 70
    0
 62
250
  6
CONTINUOUS
  0
LAYER
  5
F6
100
AcDbSymbolTableRecord
100
AcDbLayerTableRecord
  2
7-b
 70
    0
 62
250
  6
CONTINUOUS
  0
LAYER
  5
F7
100
AcDbSymbolTableRecord
100
AcDbLayerTableRecord
  2
7-c
 70
    0
 62
250
  6
CONTINUOUS
  0
LAYER
  5
F8
100
AcDbSymbolTableRecord
100
AcDbLayerTableRecord
  2
7-d
 70
    0
 62
250
  6
CONTINUOUS
  0
LAYER
  5
F9
100
AcDbSymbolTableRecord
100
AcDbLayerTableRecord
  2
7-e
 70
    0
 62
250
  6
CONTINUOUS
  0
LAYER
  5
FA
100
AcDbSymbolTableRecord
100
AcDbLayerTableRecord
  2
7-f
 70
    0
 62
250
  6
CONTINUOUS
  0
LAYER
  5
FB
100
AcDbSymbolTableRecord
100
AcDbLayerTableRecord
  2
8-0
 70
    0
 62
250
  6
CONTINUOUS
  0
LAYER
  5
FC
100
AcDbSymbolTableRecord
100
AcDbLayerTableRecord
  2
8-1
 70
    0
 62
250
  6
CONTINUOUS
  0
LAYER
  5
FD
100
AcDbSymbolTableRecord
100
AcDbLayerTableRecord
  2
8-2
 70
    0
 62
250
  6
CONTINUOUS
  0
LAYER
  5
FE
100
AcDbSymbolTableRecord
100
AcDbLayerTableRecord
  2
8-3
 70
    0
 62
250
  6
CONTINUOUS
  0
LAYER
  5
FF
100
AcDbSymbolTableRecord
100
AcDbLayerTableRecord
  2
8-4
 70
    0
 62
250
  6
CONTINUOUS
  0
LAYER
  5
100
100
AcDbSymbolTableRecord
100
AcDbLayerTableRecord
  2
8-5
 70
    0
 62
250
  6
CONTINUOUS
  0
LAYER
  5
101
100
AcDbSymbolTableRecord
100
AcDbLayerTableRecord
  2
8-6
 70
    0
 62
250
  6
CONTINUOUS
  0
LAYER
  5
102
100
AcDbSymbolTableRecord
100
AcDbLayerTableRecord
  2
8-7
 70
    0
 62
250
  6
CONTINUOUS
  0
LAYER
  5
103
100
AcDbSymbolTableRecord
100
AcDbLayerTableRecord
  2
8-8
 70
    0
 62
250
  6
CONTINUOUS
  0
LAYER
  5
104
100
AcDbSymbolTableRecord
100
AcDbLayerTableRecord
  2
8-9
 70
    0
 62
250
  6
CONTINUOUS
  0
LAYER
  5
105
100
AcDbSymbolTableRecord
100
AcDbLayerTableRecord
  2
8-a
 70
    0
 62
250
  6
CONTINUOUS
  0
LAYER
  5
106
100
AcDbSymbolTableRecord
100
AcDbLayerTableRecord
  2
8-b
 70
    0
 62
250
  6
CONTINUOUS
  0
LAYER
  5
107
100
AcDbSymbolTableRecord
100
AcDbLayerTableRecord
  2
8-c
 70
    0
 62
250
  6
CONTINUOUS
  0
LAYER
  5
108
100
AcDbSymbolTableRecord
100
AcDbLayerTableRecord
  2
8-d
 70
    0
 62
250
  6
CONTINUOUS
  0
LAYER
  5
109
100
AcDbSymbolTableRecord
100
AcDbLayerTableRecord
  2
8-e
 70
    0
 62
250
  6
CONTINUOUS
  0
LAYER
  5
10A
100
AcDbSymbolTableRecord
100
AcDbLayerTableRecord
  2
8-f
 70
    0
 62
250
  6
CONTINUOUS
  0
LAYER
  5
10B
100
AcDbSymbolTableRecord
100
AcDbLayerTableRecord
  2
9-0
 70
    0
 62
250
  6
CONTINUOUS
  0
LAYER
  5
10C
100
AcDbSymbolTableRecord
100
AcDbLayerTableRecord
  2
9-1
 70
    0
 62
250
  6
CONTINUOUS
  0
LAYER
  5
10D
100
AcDbSymbolTableRecord
100
AcDbLayerTableRecord
  2
9-2
 70
    0
 62
250
  6
CONTINUOUS
  0
LAYER
  5
10E
100
AcDbSymbolTableRecord
100
AcDbLayerTableRecord
  2
9-3
 70
    0
 62
250
  6
CONTINUOUS
  0
LAYER
  5
10F
100
AcDbSymbolTableRecord
100
AcDbLayerTableRecord
  2
9-4
 70
    0
 62
250
  6
CONTINUOUS
  0
LAYER
  5
110
100
AcDbSymbolTableRecord
100
AcDbLayerTableRecord
  2
9-5
 70
    0
 62
250
  6
CONTINUOUS
  0
LAYER
  5
111
100
AcDbSymbolTableRecord
100
AcDbLayerTableRecord
  2
9-6
 70
    0
 62
250
  6
CONTINUOUS
  0
LAYER
  5
112
100
AcDbSymbolTableRecord
100
AcDbLayerTableRecord
  2
9-7
 70
    0
 62
250
  6
CONTINUOUS
  0
LAYER
  5
113
100
AcDbSymbolTableRecord
100
AcDbLayerTableRecord
  2
9-8
 70
    0
 62
250
  6
CONTINUOUS
  0
LAYER
  5
114
100
AcDbSymbolTableRecord
100
AcDbLayerTableRecord
  2
9-9
 70
    0
 62
250
  6
CONTINUOUS
  0
LAYER
  5
115
100
AcDbSymbolTableRecord
100
AcDbLayerTableRecord
  2
9-a
 70
    0
 62
250
  6
CONTINUOUS
  0
LAYER
  5
116
100
AcDbSymbolTableRecord
100
AcDbLayerTableRecord
  2
9-b
 70
    0
 62
250
  6
CONTINUOUS
  0
LAYER
  5
117
100
AcDbSymbolTableRecord
100
AcDbLayerTableRecord
  2
9-c
 70
    0
 62
250
  6
CONTINUOUS
  0
LAYER
  5
118
100
AcDbSymbolTableRecord
100
AcDbLayerTableRecord
  2
9-d
 70
    0
 62
250
  6
CONTINUOUS
  0
LAYER
  5
119
100
AcDbSymbolTableRecord
100
AcDbLayerTableRecord
  2
9-e
 70
    0
 62
250
  6
CONTINUOUS
  0
LAYER
  5
11A
100
AcDbSymbolTableRecord
100
AcDbLayerTableRecord
  2
9-f
 70
    0
 62
250
  6
CONTINUOUS
  0
LAYER
  5
11B
100
AcDbSymbolTableRecord
100
AcDbLayerTableRecord
  2
a-0
 70
    0
 62
250
  6
CONTINUOUS
  0
LAYER
  5
11C
100
AcDbSymbolTableRecord
100
AcDbLayerTableRecord
  2
a-1
 70
    0
 62
250
  6
CONTINUOUS
  0
LAYER
  5
11D
100
AcDbSymbolTableRecord
100
AcDbLayerTableRecord
  2
a-2
 70
    0
 62
250
  6
CONTINUOUS
  0
LAYER
  5
11E
100
AcDbSymbolTableRecord
100
AcDbLayerTableRecord
  2
a-3
 70
    0
 62
250
  6
CONTINUOUS
  0
LAYER
  5
11F
100
AcDbSymbolTableRecord
100
AcDbLayerTableRecord
  2
a-4
 70
    0
 62
250
  6
CONTINUOUS
  0
LAYER
  5
120
100
AcDbSymbolTableRecord
100
AcDbLayerTableRecord
  2
a-5
 70
    0
 62
250
  6
CONTINUOUS
  0
LAYER
  5
121
100
AcDbSymbolTableRecord
100
AcDbLayerTableRecord
  2
a-6
 70
    0
 62
250
  6
CONTINUOUS
  0
LAYER
  5
122
100
AcDbSymbolTableRecord
100
AcDbLayerTableRecord
  2
a-7
 70
    0
 62
250
  6
CONTINUOUS
  0
LAYER
  5
123
100
AcDbSymbolTableRecord
100
AcDbLayerTableRecord
  2
a-8
 70
    0
 62
250
  6
CONTINUOUS
  0
LAYER
  5
124
100
AcDbSymbolTableRecord
100
AcDbLayerTableRecord
  2
a-9
 70
    0
 62
250
  6
CONTINUOUS
  0
LAYER
  5
125
100
AcDbSymbolTableRecord
100
AcDbLayerTableRecord
  2
a-a
 70
    0
 62
250
  6
CONTINUOUS
  0
LAYER
  5
126
100
AcDbSymbolTableRecord
100
AcDbLayerTableRecord
  2
a-b
 70
    0
 62
250
  6
CONTINUOUS
  0
LAYER
  5
127
100
AcDbSymbolTableRecord
100
AcDbLayerTableRecord
  2
a-c
 70
    0
 62
250
  6
CONTINUOUS
  0
LAYER
  5
128
100
AcDbSymbolTableRecord
100
AcDbLayerTableRecord
  2
a-d
 70
    0
 62
250
  6
CONTINUOUS
  0
LAYER
  5
129
100
AcDbSymbolTableRecord
100
AcDbLayerTableRecord
  2
a-e
 70
    0
 62
250
  6
CONTINUOUS
  0
LAYER
  5
12A
100
AcDbSymbolTableRecord
100
AcDbLayerTableRecord
  2
a-f
 70
    0
 62
250
  6
CONTINUOUS
  0
LAYER
  5
12B
100
AcDbSymbolTableRecord
100
AcDbLayerTableRecord
  2
b-0
 70
    0
 62
250
  6
CONTINUOUS
  0
LAYER
  5
12C
100
AcDbSymbolTableRecord
100
AcDbLayerTableRecord
  2
b-1
 70
    0
 62
250
  6
CONTINUOUS
  0
LAYER
  5
12D
100
AcDbSymbolTableRecord
100
AcDbLayerTableRecord
  2
b-2
 70
    0
 62
250
  6
CONTINUOUS
  0
LAYER
  5
12E
100
AcDbSymbolTableRecord
100
AcDbLayerTableRecord
  2
b-3
 70
    0
 62
250
  6
CONTINUOUS
  0
LAYER
  5
12F
100
AcDbSymbolTableRecord
100
AcDbLayerTableRecord
  2
b-4
 70
    0
 62
250
  6
CONTINUOUS
  0
LAYER
  5
130
100
AcDbSymbolTableRecord
100
AcDbLayerTableRecord
  2
b-5
 70
    0
 62
250
  6
CONTINUOUS
  0
LAYER
  5
131
100
AcDbSymbolTableRecord
100
AcDbLayerTableRecord
  2
b-6
 70
    0
 62
250
  6
CONTINUOUS
  0
LAYER
  5
132
100
AcDbSymbolTableRecord
100
AcDbLayerTableRecord
  2
b-7
 70
    0
 62
250
  6
CONTINUOUS
  0
LAYER
  5
133
100
AcDbSymbolTableRecord
100
AcDbLayerTableRecord
  2
b-8
 70
    0
 62
250
  6
CONTINUOUS
  0
LAYER
  5
134
100
AcDbSymbolTableRecord
100
AcDbLayerTableRecord
  2
b-9
 70
    0
 62
250
  6
CONTINUOUS
  0
LAYER
  5
135
100
AcDbSymbolTableRecord
100
AcDbLayerTableRecord
  2
b-a
 70
    0
 62
250
  6
CONTINUOUS
  0
LAYER
  5
136
100
AcDbSymbolTableRecord
100
AcDbLayerTableRecord
  2
b-b
 70
    0
 62
250
  6
CONTINUOUS
  0
LAYER
  5
137
100
AcDbSymbolTableRecord
100
AcDbLayerTableRecord
  2
b-c
 70
    0
 62
250
  6
CONTINUOUS
  0
LAYER
  5
138
100
AcDbSymbolTableRecord
100
AcDbLayerTableRecord
  2
b-d
 70
    0
 62
250
  6
CONTINUOUS
  0
LAYER
  5
139
100
AcDbSymbolTableRecord
100
AcDbLayerTableRecord
  2
b-e
 70
    0
 62
250
  6
CONTINUOUS
  0
LAYER
  5
13A
100
AcDbSymbolTableRecord
100
AcDbLayerTableRecord
  2
b-f
 70
    0
 62
250
  6
CONTINUOUS
  0
LAYER
  5
13B
100
AcDbSymbolTableRecord
100
AcDbLayerTableRecord
  2
c-0
 70
    0
 62
250
  6
CONTINUOUS
  0
LAYER
  5
13C
100
AcDbSymbolTableRecord
100
AcDbLayerTableRecord
  2
c-1
 70
    0
 62
250
  6
CONTINUOUS
  0
LAYER
  5
13D
100
AcDbSymbolTableRecord
100
AcDbLayerTableRecord
  2
c-2
 70
    0
 62
250
  6
CONTINUOUS
  0
LAYER
  5
13E
100
AcDbSymbolTableRecord
100
AcDbLayerTableRecord
  2
c-3
 70
    0
 62
250
  6
CONTINUOUS
  0
LAYER
  5
13F
100
AcDbSymbolTableRecord
100
AcDbLayerTableRecord
  2
c-4
 70
    0
 62
250
  6
CONTINUOUS
  0
LAYER
  5
140
100
AcDbSymbolTableRecord
100
AcDbLayerTableRecord
  2
c-5
 70
    0
 62
250
  6
CONTINUOUS
  0
LAYER
  5
141
100
AcDbSymbolTableRecord
100
AcDbLayerTableRecord
  2
c-6
 70
    0
 62
250
  6
CONTINUOUS
  0
LAYER
  5
142
100
AcDbSymbolTableRecord
100
AcDbLayerTableRecord
  2
c-7
 70
    0
 62
250
  6
CONTINUOUS
  0
LAYER
  5
143
100
AcDbSymbolTableRecord
100
AcDbLayerTableRecord
  2
c-8
 70
    0
 62
250
  6
CONTINUOUS
  0
LAYER
  5
144
100
AcDbSymbolTableRecord
100
AcDbLayerTableRecord
  2
c-9
 70
    0
 62
250
  6
CONTINUOUS
  0
LAYER
  5
145
100
AcDbSymbolTableRecord
100
AcDbLayerTableRecord
  2
c-a
 70
    0
 62
250
  6
CONTINUOUS
  0
LAYER
  5
146
100
AcDbSymbolTableRecord
100
AcDbLayerTableRecord
  2
c-b
 70
    0
 62
250
  6
CONTINUOUS
  0
LAYER
  5
147
100
AcDbSymbolTableRecord
100
AcDbLayerTableRecord
  2
c-c
 70
    0
 62
250
  6
CONTINUOUS
  0
LAYER
  5
148
100
AcDbSymbolTableRecord
100
AcDbLayerTableRecord
  2
c-d
 70
    0
 62
250
  6
CONTINUOUS
  0
LAYER
  5
149
100
AcDbSymbolTableRecord
100
AcDbLayerTableRecord
  2
c-e
 70
    0
 62
250
  6
CONTINUOUS
  0
LAYER
  5
14A
100
AcDbSymbolTableRecord
100
AcDbLayerTableRecord
  2
c-f
 70
    0
 62
250
  6
CONTINUOUS
  0
LAYER
  5
14B
100
AcDbSymbolTableRecord
100
AcDbLayerTableRecord
  2
d-0
 70
    0
 62
250
  6
CONTINUOUS
  0
LAYER
  5
14C
100
AcDbSymbolTableRecord
100
AcDbLayerTableRecord
  2
d-1
 70
    0
 62
250
  6
CONTINUOUS
  0
LAYER
  5
14D
100
AcDbSymbolTableRecord
100
AcDbLayerTableRecord
  2
d-2
 70
    0
 62
250
  6
CONTINUOUS
  0
LAYER
  5
14E
100
AcDbSymbolTableRecord
100
AcDbLayerTableRecord
  2
d-3
 70
    0
 62
250
  6
CONTINUOUS
  0
LAYER
  5
14F
100
AcDbSymbolTableRecord
100
AcDbLayerTableRecord
  2
d-4
 70
    0
 62
250
  6
CONTINUOUS
  0
LAYER
  5
150
100
AcDbSymbolTableRecord
100
AcDbLayerTableRecord
  2
d-5
 70
    0
 62
250
  6
CONTINUOUS
  0
LAYER
  5
151
100
AcDbSymbolTableRecord
100
AcDbLayerTableRecord
  2
d-6
 70
    0
 62
250
  6
CONTINUOUS
  0
LAYER
  5
152
100
AcDbSymbolTableRecord
100
AcDbLayerTableRecord
  2
d-7
 70
    0
 62
250
  6
CONTINUOUS
  0
LAYER
  5
153
100
AcDbSymbolTableRecord
100
AcDbLayerTableRecord
  2
d-8
 70
    0
 62
250
  6
CONTINUOUS
  0
LAYER
  5
154
100
AcDbSymbolTableRecord
100
AcDbLayerTableRecord
  2
d-9
 70
    0
 62
250
  6
CONTINUOUS
  0
LAYER
  5
155
100
AcDbSymbolTableRecord
100
AcDbLayerTableRecord
  2
d-a
 70
    0
 62
250
  6
CONTINUOUS
  0
LAYER
  5
156
100
AcDbSymbolTableRecord
100
AcDbLayerTableRecord
  2
d-b
 70
    0
 62
250
  6
CONTINUOUS
  0
LAYER
  5
157
100
AcDbSymbolTableRecord
100
AcDbLayerTableRecord
  2
d-c
 70
    0
 62
250
  6
CONTINUOUS
  0
LAYER
  5
158
100
AcDbSymbolTableRecord
100
AcDbLayerTableRecord
  2
d-d
 70
    0
 62
250
  6
CONTINUOUS
  0
LAYER
  5
159
100
AcDbSymbolTableRecord
100
AcDbLayerTableRecord
  2
d-e
 70
    0
 62
250
  6
CONTINUOUS
  0
LAYER
  5
15A
100
AcDbSymbolTableRecord
100
AcDbLayerTableRecord
  2
d-f
 70
    0
 62
250
  6
CONTINUOUS
  0
LAYER
  5
15B
100
AcDbSymbolTableRecord
100
AcDbLayerTableRecord
  2
e-0
 70
    0
 62
250
  6
CONTINUOUS
  0
LAYER
  5
15C
100
AcDbSymbolTableRecord
100
AcDbLayerTableRecord
  2
e-1
 70
    0
 62
250
  6
CONTINUOUS
  0
LAYER
  5
15D
100
AcDbSymbolTableRecord
100
AcDbLayerTableRecord
  2
e-2
 70
    0
 62
250
  6
CONTINUOUS
  0
LAYER
  5
15E
100
AcDbSymbolTableRecord
100
AcDbLayerTableRecord
  2
e-3
 70
    0
 62
250
  6
CONTINUOUS
  0
LAYER
  5
15F
100
AcDbSymbolTableRecord
100
AcDbLayerTableRecord
  2
e-4
 70
    0
 62
250
  6
CONTINUOUS
  0
LAYER
  5
160
100
AcDbSymbolTableRecord
100
AcDbLayerTableRecord
  2
e-5
 70
    0
 62
250
  6
CONTINUOUS
  0
LAYER
  5
161
100
AcDbSymbolTableRecord
100
AcDbLayerTableRecord
  2
e-6
 70
    0
 62
250
  6
CONTINUOUS
  0
LAYER
  5
162
100
AcDbSymbolTableRecord
100
AcDbLayerTableRecord
  2
e-7
 70
    0
 62
250
  6
CONTINUOUS
  0
LAYER
  5
163
100
AcDbSymbolTableRecord
100
AcDbLayerTableRecord
  2
e-8
 70
    0
 62
250
  6
CONTINUOUS
  0
LAYER
  5
164
100
AcDbSymbolTableRecord
100
AcDbLayerTableRecord
  2
e-9
 70
    0
 62
250
  6
CONTINUOUS
  0
LAYER
  5
165
100
AcDbSymbolTableRecord
100
AcDbLayerTableRecord
  2
e-a
 70
    0
 62
250
  6
CONTINUOUS
  0
LAYER
  5
166
100
AcDbSymbolTableRecord
100
AcDbLayerTableRecord
  2
e-b
 70
    0
 62
250
  6
CONTINUOUS
  0
LAYER
  5
167
100
AcDbSymbolTableRecord
100
AcDbLayerTableRecord
  2
e-c
 70
    0
 62
250
  6
CONTINUOUS
  0
LAYER
  5
168
100
AcDbSymbolTableRecord
100
AcDbLayerTableRecord
  2
e-d
 70
    0
 62
250
  6
CONTINUOUS
  0
LAYER
  5
169
100
AcDbSymbolTableRecord
100
AcDbLayerTableRecord
  2
e-e
 70
    0
 62
250
  6
CONTINUOUS
  0
LAYER
  5
16A
100
AcDbSymbolTableRecord
100
AcDbLayerTableRecord
  2
e-f
 70
    0
 62
250
  6
CONTINUOUS
  0
LAYER
  5
16B
100
AcDbSymbolTableRecord
100
AcDbLayerTableRecord
  2
f-0
 70
    0
 62
250
  6
CONTINUOUS
  0
LAYER
  5
16C
100
AcDbSymbolTableRecord
100
AcDbLayerTableRecord
  2
f-1
 70
    0
 62
250
  6
CONTINUOUS
  0
LAYER
  5
16D
100
AcDbSymbolTableRecord
100
AcDbLayerTableRecord
  2
f-2
 70
    0
 62
250
  6
CONTINUOUS
  0
LAYER
  5
16E
100
AcDbSymbolTableRecord
100
AcDbLayerTableRecord
  2
f-3
 70
    0
 62
250
  6
CONTINUOUS
  0
LAYER
  5
16F
100
AcDbSymbolTableRecord
100
AcDbLayerTableRecord
  2
f-4
 70
    0
 62
250
  6
CONTINUOUS
  0
LAYER
  5
170
100
AcDbSymbolTableRecord
100
AcDbLayerTableRecord
  2
f-5
 70
    0
 62
250
  6
CONTINUOUS
  0
LAYER
  5
171
100
AcDbSymbolTableRecord
100
AcDbLayerTableRecord
  2
f-6
 70
    0
 62
250
  6
CONTINUOUS
  0
LAYER
  5
172
100
AcDbSymbolTableRecord
100
AcDbLayerTableRecord
  2
f-7
 70
    0
 62
250
  6
CONTINUOUS
  0
LAYER
  5
173
100
AcDbSymbolTableRecord
100
AcDbLayerTableRecord
  2
f-8
 70
    0
 62
250
  6
CONTINUOUS
  0
LAYER
  5
174
100
AcDbSymbolTableRecord
100
AcDbLayerTableRecord
  2
f-9
 70
    0
 62
250
  6
CONTINUOUS
  0
LAYER
  5
175
100
AcDbSymbolTableRecord
100
AcDbLayerTableRecord
  2
f-a
 70
    0
 62
250
  6
CONTINUOUS
  0
LAYER
  5
176
100
AcDbSymbolTableRecord
100
AcDbLayerTableRecord
  2
f-b
 70
    0
 62
250
  6
CONTINUOUS
  0
LAYER
  5
177
100
AcDbSymbolTableRecord
100
AcDbLayerTableRecord
  2
f-c
 70
    0
 62
250
  6
CONTINUOUS
  0
LAYER
  5
178
100
AcDbSymbolTableRecord
100
AcDbLayerTableRecord
  2
f-d
 70
    0
 62
250
  6
CONTINUOUS
  0
LAYER
  5
179
100
AcDbSymbolTableRecord
100
AcDbLayerTableRecord
  2
f-e
 70
    0
 62
250
  6
CONTINUOUS
  0
LAYER
  5
17A
100
AcDbSymbolTableRecord
100
AcDbLayerTableRecord
  2
f-f
 70
    0
 62
250
  6
CONTINUOUS
  0
LAYER
  5
17B
100
AcDbSymbolTableRecord
100
AcDbLayerTableRecord
  2
0
 70
   64
 62
    7
  6
CONTINUOUS
  0
ENDTAB
  0
TABLE
  2
STYLE
  5
4
100
AcDbSymbolTable
 70
     1
  0
STYLE
  5
17C
100
AcDbSymbolTableRecord
100
AcDbTextStyleTableRecord
  2
Standard
 70
     0
 40
0.0
 41
1.0
 50
0.0
 71
     0
 42
3.2
  3
TXT
  4
BIGFONT
  0
STYLE
  5
17D
100
AcDbSymbolTableRecord
100
AcDbTextStyleTableRecord
  2
Font_0
 70
     0
 40
0.0
 41
1.0
 50
0.0
 71
     0
 42
3.2
  3
MS Gothic.ttf
  4

1001
ACAD
1000
MS Gothic
1071
  32817
  0
ENDTAB
  0
TABLE
  2
VIEW
  5
5
100
AcDbSymbolTable
 70
     0
  0
ENDTAB
  0
TABLE
  2
UCS
  5
6
100
AcDbSymbolTable
 70
     0
  0
ENDTAB
  0
TABLE
  2
APPID
  5
7
100
AcDbSymbolTable
 70
     1
  0
APPID
  5
17E
100
AcDbSymbolTableRecord
100
AcDbRegAppTableRecord
  2
ACAD
 70
     0
  0
ENDTAB
  0
TABLE
  2
DIMSTYLE
  5
8
100
AcDbSymbolTable
 70
     1
  0
DIMSTYLE
105
2A
100
AcDbSymbolTableRecord
100
AcDbDimStyleTableRecord
  2
STANDARD
 70
     0
  3

  4

  5

  6

  7

 40
1.0
 41
2.5
 42
2.0
 43
7.0
 44
1.25
 45
0.0
 46
0.0
 47
0.0
 48
0.0
 71
     0
 72
     0
 73
     0
 74
     0
 75
     0
 76
     0
 77
     1
 78
     0
140
2.5
141
2.5
142
0.0
143
0.0394
144
1.0
145
0.0
146
1.0
147
1.0
170
     0
171
     2
172
     0
173
     0
174
     1
175
     0
176
     0
177
     0
178
     0
270
     2
271
     2
272
     4
273
     2
274
     2
275
     0
280
     0
281
     0
282
     0
283
     1
284
     0
285
     0
286
     0
287
     3
288
     0
  0
ENDTAB
  0
TABLE
  2
BLOCK_RECORD
  5
9
100
AcDbSymbolTable
 70
     0
  0
BLOCK_RECORD
  5
17F
100
AcDbSymbolTableRecord
100
AcDbBlockTableRecord
  2
*MODEL_SPACE
  0
BLOCK_RECORD
  5
180
100
AcDbSymbolTableRecord
100
AcDbBlockTableRecord
  2
*PAPER_SPACE
  0
ENDTAB
  0
ENDSEC
  0
SECTION
  2
BLOCKS
  0
BLOCK
  5
182
100
AcDbEntity
  8
0
100
AcDbBlockBegin
2
*MODEL_SPACE
 70
     0
 10
0.0
 20
0.0
 30
0.0
  3
*MODEL_SPACE
  1

  0
ENDBLK
  5
183
100
AcDbEntity
  8
0-0
100
AcDbBlockEnd
  0
BLOCK
  5
184
100
AcDbEntity
 67
     1
  8
0-0
100
AcDbBlockBegin
  2
*PAPER_SPACE
 70
     0
 10
0.0
 20
0.0
 30
0.0
  3
*PAPER_SPACE
  1

  0
ENDBLK
  5
185
100
AcDbEntity
 67
     1
  8
0-0
100
AcDbBlockEnd
  0
ENDSEC
  0
SECTION
  2
ENTITIES
  0
LINE
  5
186
100
AcDbEntity
  8
0-0
100
AcDbLine
  6
CONTINUOUS
 62
7
370
30
 10
12.500006
 20
285.39137
 11
12.500006
 21
12.391351
  0
LINE
  5
187
100
AcDbEntity
  8
0-0
100
AcDbLine
  6
CONTINUOUS
 62
7
370
30
 10
407.499996
 20
285.39137
 11
407.499996
 21
12.391351
  0
LINE
  5
188
100
AcDbEntity
  8
0-0
100
AcDbLine
  6
CONTINUOUS
 62
7
370
30
 10
12.500006
 20
12.391351
 11
407.499996
 21
12.391351
  0
LINE
  5
189
100
AcDbEntity
  8
0-0
100
AcDbLine
  6
CONTINUOUS
 62
7
370
30
 10
12.500006
 20
285.39137
 11
407.499996
 21
285.39137
  0
LINE
  5
18A
100
AcDbEntity
  8
0-0
100
AcDbLine
  6
CONTINUOUS
 62
7
370
30
 10
203.499996
 20
55.391371
 11
203.499996
 21
12.391351
  0
LINE
  5
18B
100
AcDbEntity
  8
0-0
100
AcDbLine
  6
CONTINUOUS
 62
7
370
30
 10
203.499996
 20
30.391351
 11
407.499996
 21
30.391351
  0
LINE
  5
18C
100
AcDbEntity
  8
0-0
100
AcDbLine
  6
CONTINUOUS
 62
7
370
30
 10
203.499996
 20
35.391351
 11
407.499996
 21
35.391351
  0
LINE
  5
18D
100
AcDbEntity
  8
0-0
100
AcDbLine
  6
CONTINUOUS
 62
7
370
30
 10
203.499996
 20
55.391371
 11
407.499996
 21
55.391371
  0
LINE
  5
18E
100
AcDbEntity
  8
0-0
100
AcDbLine
  6
CONTINUOUS
 62
7
370
30
 10
212.499996
 20
55.391371
 11
212.499996
 21
30.391351
  0
LINE
  5
18F
100
AcDbEntity
  8
0-0
100
AcDbLine
  6
CONTINUOUS
 62
7
370
30
 10
237.499996
 20
55.391371
 11
237.499996
 21
30.391351
  0
LINE
  5
190
100
AcDbEntity
  8
0-0
100
AcDbLine
  6
CONTINUOUS
 62
7
370
30
 10
280.499996
 20
55.391371
 11
280.499996
 21
30.391351
  0
LINE
  5
191
100
AcDbEntity
  8
0-0
100
AcDbLine
  6
CONTINUOUS
 62
7
370
30
 10
217.499996
 20
30.391351
 11
217.499996
 21
12.391351
  0
LINE
  5
192
100
AcDbEntity
  8
0-0
100
AcDbLine
  6
CONTINUOUS
 62
7
370
30
 10
231.499996
 20
30.391351
 11
231.499996
 21
12.391351
  0
LINE
  5
193
100
AcDbEntity
  8
0-0
100
AcDbLine
  6
CONTINUOUS
 62
7
370
30
 10
245.499996
 20
30.391351
 11
245.499996
 21
12.391351
  0
LINE
  5
194
100
AcDbEntity
  8
0-0
100
AcDbLine
  6
CONTINUOUS
 62
7
370
30
 10
259.499996
 20
30.391351
 11
259.499996
 21
12.391351
  0
LINE
  5
195
100
AcDbEntity
  8
0-0
100
AcDbLine
  6
CONTINUOUS
 62
7
370
30
 10
273.499996
 20
30.391351
 11
273.499996
 21
12.391351
  0
LINE
  5
196
100
AcDbEntity
  8
0-0
100
AcDbLine
  6
CONTINUOUS
 62
7
370
30
 10
347.499996
 20
30.391351
 11
347.499996
 21
12.391351
  0
LINE
  5
197
100
AcDbEntity
  8
0-0
100
AcDbLine
  6
CONTINUOUS
 62
7
370
30
 10
342.235395
 20
14.391351
 11
278.338895
 21
14.391351
  0
TEXT
  5
198
100
AcDbEntity
  8
0-0
 62
7
100
AcDbText
  6
BYLAYER
 62
7
 10
215.749996
 20
30.89135
 40
4
  1
年月日
  7
Font_0
100
AcDbText
  0
TEXT
  5
199
100
AcDbEntity
  8
0-0
 62
7
100
AcDbText
  6
BYLAYER
 62
7
 10
249.166662
 20
30.89135
 40
4
  1
記事
  7
Font_0
100
AcDbText
  0
LINE
  5
19A
100
AcDbEntity
  8
0-0
100
AcDbLine
  6
CONTINUOUS
 62
7
370
30
 10
205.690596
 20
51.044371
 11
210.309395
 21
51.044371
  0
LINE
  5
19B
100
AcDbEntity
  8
0-0
100
AcDbLine
  6
CONTINUOUS
 62
7
370
30
 10
207.999996
 20
55.044371
 11
210.309396
 21
51.044371
  0
LINE
  5
19C
100
AcDbEntity
  8
0-0
100
AcDbLine
  6
CONTINUOUS
 62
7
370
30
 10
207.999996
 20
55.04437
 11
205.690596
 21
51.04437
  0
LINE
  5
19D
100
AcDbEntity
  8
0-0
100
AcDbLine
  6
CONTINUOUS
 62
7
370
30
 10
207.999996
 20
50.044371
 11
205.690596
 21
46.044371
  0
LINE
  5
19E
100
AcDbEntity
  8
0-0
100
AcDbLine
  6
CONTINUOUS
 62
7
370
30
 10
205.690596
 20
46.044371
 11
210.309395
 21
46.044371
  0
LINE
  5
19F
100
AcDbEntity
  8
0-0
100
AcDbLine
  6
CONTINUOUS
 62
7
370
30
 10
207.999996
 20
50.044371
 11
210.309396
 21
46.044371
  0
LINE
  5
1A0
100
AcDbEntity
  8
0-0
100
AcDbLine
  6
CONTINUOUS
 62
7
370
30
 10
207.999995
 20
45.044371
 11
205.690595
 21
41.044411
  0
LINE
  5
1A1
100
AcDbEntity
  8
0-0
100
AcDbLine
  6
CONTINUOUS
 62
7
370
30
 10
205.690596
 20
41.04441
 11
210.309395
 21
41.04441
  0
LINE
  5
1A2
100
AcDbEntity
  8
0-0
100
AcDbLine
  6
CONTINUOUS
 62
7
370
30
 10
207.999996
 20
45.044371
 11
210.309395
 21
41.044411
  0
LINE
  5
1A3
100
AcDbEntity
  8
0-0
100
AcDbLine
  6
CONTINUOUS
 62
7
370
30
 10
207.999996
 20
40.044411
 11
205.690596
 21
36.044411
  0
POINT
  5
1A4
100
AcDbEntity
  8
0-0
100
AcDbPoint
 62
7
 10
288.499996
 20
16.656241
  0
TEXT
  5
1A5
100
AcDbEntity
  8
0-0
 62
7
100
AcDbText
  6
BYLAYER
 62
7
 10
206.892096
 20
26.159181
 40
3
  1
尺度
  7
Font_0
100
AcDbText
  0
LINE
  5
1A6
100
AcDbEntity
  8
0-0
100
AcDbLine
  6
CONTINUOUS
 62
7
370
30
 10
207.3879
 20
18.279228
 11
214.035495
 21
24.92688
  0
POINT
  5
1A7
100
AcDbEntity
  8
0-0
100
AcDbPoint
 62
7
 10
224.499996
 20
19.391351
  0
POINT
  5
1A8
100
AcDbEntity
  8
0-0
100
AcDbPoint
 62
7
 10
252.499996
 20
19.391351
  0
POINT
  5
1A9
100
AcDbEntity
  8
0-0
100
AcDbPoint
 62
7
 10
266.499996
 20
19.391351
  0
LINE
  5
1AA
100
AcDbEntity
  8
0-0
100
AcDbLine
  6
CONTINUOUS
 62
7
370
30
 10
203.499996
 20
40.391351
 11
407.499996
 21
40.391351
  0
LINE
  5
1AB
100
AcDbEntity
  8
0-0
100
AcDbLine
  6
CONTINUOUS
 62
7
370
30
 10
203.499996
 20
45.391351
 11
407.499996
 21
45.391351
  0
LINE
  5
1AC
100
AcDbEntity
  8
0-0
100
AcDbLine
  6
CONTINUOUS
 62
7
370
30
 10
203.499996
 20
50.391351
 11
407.499996
 21
50.391351
  0
LINE
  5
1AD
100
AcDbEntity
  8
0-0
100
AcDbLine
  6
CONTINUOUS
 62
7
370
30
 10
203.499996
 20
17.391351
 11
217.499996
 21
17.391351
  0
POINT
  5
1AE
100
AcDbEntity
  8
0-0
100
AcDbPoint
 62
7
 10
238.499996
 20
19.391351
  0
LINE
  5
1AF
100
AcDbEntity
  8
0-0
100
AcDbLine
  6
CONTINUOUS
 62
7
370
30
 10
290.499996
 20
55.391371
 11
290.499996
 21
30.391351
  0
LINE
  5
1B0
100
AcDbEntity
  8
0-0
100
AcDbLine
  6
CONTINUOUS
 62
7
370
30
 10
335.499996
 20
55.391371
 11
335.499996
 21
30.391351
  0
LINE
  5
1B1
100
AcDbEntity
  8
0-0
100
AcDbLine
  6
CONTINUOUS
 62
7
370
30
 10
365.499996
 20
55.391371
 11
365.499996
 21
30.391351
  0
LINE
  5
1B2
100
AcDbEntity
  8
0-0
100
AcDbLine
  6
CONTINUOUS
 62
7
370
30
 10
375.499996
 20
55.391371
 11
375.499996
 21
30.391351
  0
TEXT
  5
1B3
100
AcDbEntity
  8
0-0
 62
7
100
AcDbText
  6
BYLAYER
 62
7
 10
281.766662
 20
31.34135
 40
3.1
  1
品番
  7
Font_0
 11
281.766662
 21
34.44135
100
AcDbText
 73
3
  0
TEXT
  5
1B4
100
AcDbEntity
  8
0-0
 62
7
100
AcDbText
  6
BYLAYER
 62
7
 10
299.424995
 20
31.34135
 40
3.1
  1
部品名
  7
Font_0
 11
299.424995
 21
34.44135
100
AcDbText
 73
3
  0
TEXT
  5
1B5
100
AcDbEntity
  8
0-0
 62
7
100
AcDbText
  6
BYLAYER
 62
7
 10
343.433329
 20
31.34135
 40
3.1
  1
材質
  7
Font_0
 11
343.433329
 21
34.44135
100
AcDbText
 73
3
  0
TEXT
  5
1B6
100
AcDbEntity
  8
0-0
 62
7
100
AcDbText
  6
BYLAYER
 62
7
 10
368.949995
 20
31.34135
 40
3.1
  1
数
  7
Font_0
 11
368.949995
 21
34.44135
100
AcDbText
 73
3
  0
TEXT
  5
1B7
100
AcDbEntity
  8
0-0
 62
7
100
AcDbText
  6
BYLAYER
 62
7
 10
384.099995
 20
31.34135
 40
3.1
  1
備考
  7
Font_0
 11
384.099995
 21
34.44135
100
AcDbText
 73
3
  0
TEXT
  5
1B8
100
AcDbEntity
  8
0-0
 62
7
100
AcDbText
  6
BYLAYER
 62
7
 10
248.166662
 20
26.391351
 40
3
  1
検図
  7
Font_0
100
AcDbText
  0
TEXT
  5
1B9
100
AcDbEntity
  8
0-0
 62
5
100
AcDbText
  6
CONTINUOUS
 62
5
 10
284.128634676853
 20
35.5293164888174
 40
4
  1
1
  7
Font_0
 11
284.128634676853
 21
39.5293164888174
100
AcDbText
 73
3
  0
TEXT
  5
1BA
100
AcDbEntity
  8
0-0
 62
5
100
AcDbText
  6
CONTINUOUS
 62
5
 10
284.128633676853
 20
40.5293164888174
 40
4
  1
2
  7
Font_0
 11
284.128633676853
 21
44.5293164888174
100
AcDbText
 73
3
  0
TEXT
  5
1BB
100
AcDbEntity
  8
0-0
 62
5
100
AcDbText
  6
CONTINUOUS
 62
5
 10
284.128633676853
 20
45.5293164888174
 40
4
  1
3
  7
Font_0
 11
284.128633676853
 21
49.5293164888174
100
AcDbText
 73
3
  0
MTEXT
  5
1BC
100
AcDbEntity
  8
0-0
100
AcDbMText
 10
180
 20
10
 40
6
 41
  0.0
  1
{\fMS Gothic|b1;MinatoConcept,Inc.}
  7
Font_0
  0
TEXT
  5
1BD
100
AcDbEntity
  8
0-0
100
AcDbText
  6
CONTINUOUS
 10
288.423560864708
 20
24.2895829992316
 40
4
  1
パネルマウント型
  7
Font_0
 11
288.423560864708
 21
28.2895829992316
100
AcDbText
 73
3
  0
TEXT
  5
1BE
100
AcDbEntity
  8
0-0
100
AcDbText
  6
CONTINUOUS
 10
288.504646942409
 20
14.5864056176379
 40
6
  1
ＭＣＲＰ１０３Ｐ
  7
Font_0
 11
288.504646942409
 21
20.5864056176379
100
AcDbText
 73
3
  0
TEXT
  5
1BF
100
AcDbEntity
  8
0-0
100
AcDbText
  6
CONTINUOUS
 10
290.499996
 20
35.5682753166465
 40
4
  1
２相ステッピングモータ
  7
Font_0
 11
290.499996
 21
39.5682753166465
100
AcDbText
 73
3
  0
TEXT
  5
1C0
100
AcDbEntity
  8
0-0
100
AcDbText
  6
CONTINUOUS
 10
369.267875327942
 20
35.4100809556544
 40
4
  1
1
  7
Font_0
 11
369.267875327942
 21
39.4100809556544
100
AcDbText
 73
3
  0
TEXT
  5
1C1
100
AcDbEntity
  8
0-0
100
AcDbText
  6
CONTINUOUS
 10
369.186789250241
 20
40.4374177731172
 40
4
  1
1
  7
Font_0
 11
369.186789250241
 21
44.4374177731172
100
AcDbText
 73
3
  0
TEXT
  5
1C2
100
AcDbEntity
  8
0-0
100
AcDbText
  6
CONTINUOUS
 10
369.10570317254
 20
45.383668512879
 40
4
  1
4
  7
Font_0
 11
369.10570317254
 21
49.383668512879
100
AcDbText
 73
3
  0
TEXT
  5
1C3
100
AcDbEntity
  8
0-0
100
AcDbText
  6
CONTINUOUS
 10
290.959468510065
 20
40.7664376395467
 40
4
  1
カップリング
  7
Font_0
 11
290.959468510065
 21
44.7664376395467
100
AcDbText
 73
3
  0
TEXT
  5
1C4
100
AcDbEntity
  8
0-0
100
AcDbText
  6
CONTINUOUS
 10
291.33284002608
 20
45.7096721090763
 40
4
  1
スペーサー
  7
Font_0
 11
291.33284002608
 21
49.7096721090763
100
AcDbText
 73
3
  0
TEXT
  5
1C5
100
AcDbEntity
  8
0-0
100
AcDbText
  6
CONTINUOUS
 10
206.395141375886
 20
20.2412853514189
 40
5
  1
1
  7
Font_0
 11
206.395141375886
 21
25.2412853514189
100
AcDbText
 73
3
  0
TEXT
  5
1C6
100
AcDbEntity
  8
0-0
100
AcDbText
  6
CONTINUOUS
 10
212.550927302134
 20
17.5737781167116
 40
5
  1
1
  7
Font_0
 11
212.550927302134
 21
22.5737781167116
100
AcDbText
 73
3
  0
TEXT
  5
1C7
100
AcDbEntity
  8
0-0
100
AcDbText
  6
CONTINUOUS
 10
93.5168943795031
 20
246.376225734434
 40
6
  1
１
  7
Font_0
 72
1
 11
96.5168943795031
 21
249.376225734434
100
AcDbText
 73
2
  0
CIRCLE
  5
1C8
100
AcDbEntity
  8
0-0
100
AcDbCircle
  6
CONTINUOUS
370
13
 10
96.5168943795031
 20
249.376225734434
 40
5
  0
LINE
  5
1C9
100
AcDbEntity
  8
0-0
100
AcDbLine
  6
CONTINUOUS
370
13
 10
120.156879399095
 20
225.736240714842
 11
100.052428285436
 21
245.840691828501
  0
LINE
  5
1CA
100
AcDbEntity
  8
0-0
100
AcDbLine
  6
CONTINUOUS
370
13
 10
120.156879399095
 20
225.736240714842
 11
117.558803187742
 21
227.236240714842
  0
LINE
  5
1CB
100
AcDbEntity
  8
0-0
100
AcDbLine
  6
CONTINUOUS
370
13
 10
120.156879399095
 20
225.736240714842
 11
118.656879399095
 21
228.334316926195
  0
TEXT
  5
1CC
100
AcDbEntity
  8
0-0
100
AcDbText
  6
CONTINUOUS
 10
122.585280283222
 20
167.461063102058
 40
6
  1
2
  7
Font_0
 72
1
 11
124.085280283222
 21
170.461063102058
100
AcDbText
 73
2
  0
CIRCLE
  5
1CD
100
AcDbEntity
  8
0-0
100
AcDbCircle
  6
CONTINUOUS
370
13
 10
124.085280283222
 20
170.461063102058
 40
5
  0
LINE
  5
1CE
100
AcDbEntity
  8
0-0
100
AcDbLine
  6
CONTINUOUS
370
13
 10
150.179016224364
 20
196.5547990432
 11
127.620814189154
 21
173.996597007991
  0
LINE
  5
1CF
100
AcDbEntity
  8
0-0
100
AcDbLine
  6
CONTINUOUS
370
13
 10
150.179016224364
 20
196.5547990432
 11
148.679016224364
 21
193.956722831847
  0
LINE
  5
1D0
100
AcDbEntity
  8
0-0
100
AcDbLine
  6
CONTINUOUS
370
13
 10
150.179016224364
 20
196.5547990432
 11
147.58094001301
 21
195.0547990432
  0
TEXT
  5
1D1
100
AcDbEntity
  8
0-0
100
AcDbText
  6
CONTINUOUS
 10
137.762921655807
 20
167.461063102058
 40
6
  1
3
  7
Font_0
 72
1
 11
139.262921655807
 21
170.461063102058
100
AcDbText
 73
2
  0
CIRCLE
  5
1D2
100
AcDbEntity
  8
0-0
100
AcDbCircle
  6
CONTINUOUS
370
13
 10
139.262921655807
 20
170.461063102058
 40
5
  0
LINE
  5
1D3
100
AcDbEntity
  8
0-0
100
AcDbLine
  6
CONTINUOUS
370
13
 10
154.910664727721
 20
186.108806173972
 11
142.79845556174
 21
173.996597007991
  0
LINE
  5
1D4
100
AcDbEntity
  8
0-0
100
AcDbLine
  6
CONTINUOUS
370
13
 10
154.910664727721
 20
186.108806173972
 11
153.410664727721
 21
183.510729962618
  0
LINE
  5
1D5
100
AcDbEntity
  8
0-0
100
AcDbLine
  6
CONTINUOUS
370
13
 10
154.910664727721
 20
186.108806173972
 11
152.312588516367
 21
184.608806173972
  0
LINE
  5
1D6
100
AcDbEntity
  8
0-0
100
AcDbLine
  6
CONTINUOUS
370
13
 10
166.433172119697
 20
240.309140172311
 11
154.496230624828
 21
260.9845293284
  0
LINE
  5
1D7
100
AcDbEntity
  8
0-0
100
AcDbLine
  6
CONTINUOUS
370
13
 10
166.433172119697
 20
240.309140172311
 11
164.311851776137
 21
242.43046051587
  0
LINE
  5
1D8
100
AcDbEntity
  8
0-0
100
AcDbLine
  6
CONTINUOUS
370
13
 10
166.433172119697
 20
240.309140172311
 11
165.656714984389
 21
243.206917651178
  0
TEXT
  5
1D9
100
AcDbEntity
  8
0-0
100
AcDbText
  6
CONTINUOUS
 10
155.496230624828
 20
260.9845293284
 40
6
  1
取付パネル
  7
Font_0
100
AcDbText
  0
LINE
  5
1DA
100
AcDbEntity
  8
0-0
100
AcDbLine
  6
CONTINUOUS
370
13
 10
154.496230624828
 20
260.9845293284
 11
189.496230624828
 21
260.9845293284
  0
LINE
  5
1DB
100
AcDbEntity
  8
0-0
100
AcDbLine
  6
CONTINUOUS
370
50
 10
301.468139116255
 20
210.102082395516
 11
291.7480903704
 21
210.102082395516
  0
CIRCLE
  5
1DC
100
AcDbEntity
  8
0-0
100
AcDbCircle
  6
CONTINUOUS
370
50
 10
299.468139116255
 20
215.112082395516
 40
3
  0
LINE
  5
1DD
100
AcDbEntity
  8
0-0
100
AcDbLine
  6
CONTINUOUS
370
50
 10
254.966894808762
 20
229.106317558984
 11
255.466894808762
 21
229.606317558984
  0
LINE
  5
1DE
100
AcDbEntity
  8
0-0
100
AcDbLine
  6
CONTINUOUS
370
50
 10
304.966894808762
 20
229.106317558984
 11
304.466894808762
 21
229.606317558984
  0
LINE
  5
1DF
100
AcDbEntity
  8
0-0
100
AcDbLine
  6
CONTINUOUS
370
50
 10
304.966894808762
 20
180.106317558986
 11
304.466894808762
 21
179.606317558986
  0
LINE
  5
1E0
100
AcDbEntity
  8
0-0
100
AcDbLine
  6
CONTINUOUS
370
30
 10
254.966894808762
 20
180.106317558986
 11
255.466894808762
 21
179.606317558986
  0
CIRCLE
  5
1E1
100
AcDbEntity
  8
0-0
100
AcDbCircle
  6
DASHED
370
30
 10
299.466894808762
 20
215.112082395515
 40
3
  0
ARC
  5
1E2
100
AcDbEntity
  8
0-0
100
AcDbCircle
  6
CONTINUOUS
370
50
 10
259.968139116255
 20
212.602082395516
 40
5
100
AcDbArc
 50
154.158067236833
 51
-30.0305654409744
  0
LINE
  5
1E3
100
AcDbEntity
  8
0-0
100
AcDbLine
  6
CONTINUOUS
370
50
 10
304.468139116255
 20
213.102082395516
 11
304.468139116255
 21
220.599772768968
  0
LINE
  5
1E4
100
AcDbEntity
  8
0-0
100
AcDbLine
  6
CONTINUOUS
370
50
 10
255.468139116255
 20
213.099772768968
 11
255.468139116255
 21
220.599772768968
  0
LINE
  5
1E5
100
AcDbEntity
  8
0-0
100
AcDbLine
  6
CONTINUOUS
370
50
 10
304.468139116255
 20
213.102082395516
 11
301.468139116255
 21
210.102082395516
  0
LINE
  5
1E6
100
AcDbEntity
  8
0-0
100
AcDbLine
  6
CONTINUOUS
370
50
 10
255.468139116255
 20
220.599772768968
 11
263.262367750315
 21
225.099772768968
  0
LINE
  5
1E7
100
AcDbEntity
  8
0-0
100
AcDbLine
  6
CONTINUOUS
370
50
 10
304.468139116255
 20
220.599772768968
 11
296.673910482196
 21
225.099772768968
  0
CIRCLE
  5
1E8
100
AcDbEntity
  8
0-0
100
AcDbCircle
  6
CONTINUOUS
370
50
 10
299.468139116255
 20
215.112082395516
 40
3
  0
LINE
  5
1E9
100
AcDbEntity
  8
0-0
100
AcDbLine
  6
CONTINUOUS
370
50
 10
193.610664727721
 20
202.106317558985
 11
193.110343759385
 21
202.106317558985
  0
LINE
  5
1EA
100
AcDbEntity
  8
0-0
100
AcDbLine
  6
CONTINUOUS
370
50
 10
193.610664727721
 20
207.106317558985
 11
193.110343759385
 21
207.106317558985
  0
LINE
  5
1EB
100
AcDbEntity
  8
0-0
100
AcDbLine
  6
CONTINUOUS
370
40
 10
193.610664727721
 20
194.356317558987
 11
193.610664727721
 21
216.406317558985
  0
LINE
  5
1EC
100
AcDbEntity
  8
0-0
100
AcDbLine
  6
CONTINUOUS
370
50
 10
199.610664727721
 20
192.806317558985
 11
199.610664727721
 21
216.406317558985
  0
LINE
  5
1ED
100
AcDbEntity
  8
0-0
100
AcDbLine
  6
CONTINUOUS
370
50
 10
197.857294525345
 20
191.606317558985
 11
198.410664727721
 21
191.606317558985
  0
LINE
  5
1EE
100
AcDbEntity
  8
0-0
100
AcDbLine
  6
CONTINUOUS
370
50
 10
198.410664727721
 20
217.606317558985
 11
194.810664727721
 21
217.606317558985
  0
LINE
  5
1EF
100
AcDbEntity
  8
0-0
100
AcDbLine
  6
CONTINUOUS
370
50
 10
185.110343759385
 20
204.606317558985
 11
185.110343759385
 21
217.608806173971
  0
LINE
  5
1F0
100
AcDbEntity
  8
0-0
100
AcDbLine
  6
CONTINUOUS
370
50
 10
176.110343759385
 20
204.606317558985
 11
185.110343759385
 21
204.606317558985
  0
LINE
  5
1F1
100
AcDbEntity
  8
0-0
100
AcDbLine
  6
CONTINUOUS
370
50
 10
176.110343759385
 20
180.106317558986
 11
176.110343759385
 21
229.106317558984
  0
LINE
  5
1F2
100
AcDbEntity
  8
0-0
100
AcDbLine
  6
CONTINUOUS
370
30
 10
166.910664727721
 20
180.606317558985
 11
166.910664727721
 21
228.606317558985
  0
LINE
  5
1F3
100
AcDbEntity
  8
0-0
100
AcDbLine
  6
CONTINUOUS
370
50
 10
188.110343759385
 20
210.099289471469
 11
188.110343759385
 21
225.106979844921
  0
LINE
  5
1F4
100
AcDbEntity
  8
0-0
100
AcDbLine
  6
DASHED
370
30
 10
166.910664727721
 20
218.107561866479
 11
164.910664727721
 21
218.107561866479
  0
LINE
  5
1F5
100
AcDbEntity
  8
0-0
100
AcDbLine
  6
CONTINUOUS
370
40
 10
193.110343759385
 20
215.608806173971
 11
193.110343759385
 21
194.356317558987
  0
LINE
  5
1F6
100
AcDbEntity
  8
0-0
100
AcDbLine
  6
CONTINUOUS
370
50
 10
184.910343759385
 20
217.599289471469
 11
176.110343759385
 21
217.599289471469
  0
LINE
  5
1F7
100
AcDbEntity
  8
0-0
100
AcDbLine
  6
CONTINUOUS
370
50
 10
184.910343759385
 20
207.599289471469
 11
176.110343759385
 21
207.599289471469
  0
LINE
  5
1F8
100
AcDbEntity
  8
0-0
100
AcDbLine
  6
DASHED
370
30
 10
166.910664727721
 20
191.10756186648
 11
164.910664727721
 21
191.10756186648
  0
LINE
  5
1F9
100
AcDbEntity
  8
0-0
100
AcDbLine
  6
BYLAYER
370
30
 10
148.410764727721
 20
196.608806173972
 11
148.410764727721
 21
212.608806173972
  0
LINE
  5
1FA
100
AcDbEntity
  8
0-0
100
AcDbLine
  6
BYLAYER
370
30
 10
162.410764727721
 20
212.608806173972
 11
162.410764727721
 21
208.608806173972
  0
LINE
  5
1FB
100
AcDbEntity
  8
0-0
100
AcDbLine
  6
BYLAYER
370
30
 10
151.410764727721
 20
197.678806173971
 11
151.410764727721
 21
211.538806173971
  0
LINE
  5
1FC
100
AcDbEntity
  8
0-0
100
AcDbLine
  6
BYLAYER
370
30
 10
147.910764727721
 20
212.108806173971
 11
147.910764727721
 21
197.108806173972
  0
LINE
  5
1FD
100
AcDbEntity
  8
0-0
100
AcDbLine
  6
BYLAYER
370
30
 10
150.910764727721
 20
197.678806173971
 11
150.910764727721
 21
211.538806173971
  0
LINE
  5
1FE
100
AcDbEntity
  8
0-0
100
AcDbLine
  6
BYLAYER
370
30
 10
162.910764727721
 20
212.608806173972
 11
162.910764727721
 21
208.608806173972
  0
LINE
  5
1FF
100
AcDbEntity
  8
0-0
100
AcDbLine
  6
BYLAYER
370
30
 10
154.910764727721
 20
212.608806173972
 11
148.410764727721
 21
212.608806173972
  0
LINE
  5
200
100
AcDbEntity
  8
0-0
100
AcDbLine
  6
BYLAYER
370
30
 10
150.910764727721
 20
211.538806173971
 11
155.410764727721
 21
211.538806173971
  0
LINE
  5
201
100
AcDbEntity
  8
0-0
100
AcDbLine
  6
BYLAYER
370
30
 10
155.410764727721
 20
212.608806173972
 11
162.410764727721
 21
212.608806173972
  0
LINE
  5
202
100
AcDbEntity
  8
0-0
100
AcDbLine
  6
BYLAYER
370
30
 10
164.910664727721
 20
212.608806173972
 11
162.910764727721
 21
212.608806173972
  0
LINE
  5
203
100
AcDbEntity
  8
0-0
100
AcDbLine
  6
BYLAYER
370
30
 10
162.910764727721
 20
211.858806173972
 11
162.410764727721
 21
212.147481173972
  0
LINE
  5
204
100
AcDbEntity
  8
0-0
100
AcDbLine
  6
BYLAYER
370
30
 10
155.410764727721
 20
211.538806173971
 11
155.410764727721
 21
212.608806173972
  0
LINE
  5
205
100
AcDbEntity
  8
0-0
100
AcDbLine
  6
BYLAYER
370
30
 10
154.910764727721
 20
211.538806173971
 11
154.910764727721
 21
212.608806173972
  0
LINE
  5
206
100
AcDbEntity
  8
0-0
100
AcDbLine
  6
BYLAYER
370
30
 10
148.410764727721
 20
212.608806173972
 11
147.910764727721
 21
212.108806173971
  0
LINE
  5
207
100
AcDbEntity
  8
0-0
100
AcDbLine
  6
BYLAYER
370
30
 10
155.410764727721
 20
197.678806173971
 11
150.910764727721
 21
197.678806173971
  0
LINE
  5
208
100
AcDbEntity
  8
0-0
100
AcDbLine
  6
BYLAYER
370
30
 10
148.410764727721
 20
196.608806173972
 11
154.910764727721
 21
196.608806173972
  0
LINE
  5
209
100
AcDbEntity
  8
0-0
100
AcDbLine
  6
BYLAYER
370
30
 10
162.410764727721
 20
200.608806173972
 11
162.410764727721
 21
196.608806173972
  0
LINE
  5
20A
100
AcDbEntity
  8
0-0
100
AcDbLine
  6
BYLAYER
370
30
 10
162.910764727721
 20
200.608806173972
 11
162.910764727721
 21
196.608806173972
  0
LINE
  5
20B
100
AcDbEntity
  8
0-0
100
AcDbLine
  6
BYLAYER
370
30
 10
158.610764727721
 20
200.608806173972
 11
162.910764727721
 21
200.608806173972
  0
LINE
  5
20C
100
AcDbEntity
  8
0-0
100
AcDbLine
  6
BYLAYER
370
30
 10
162.910764727721
 20
208.608806173972
 11
158.610764727721
 21
208.608806173972
  0
CIRCLE
  5
20D
100
AcDbEntity
  8
0-0
100
AcDbCircle
  6
BYLAYER
370
13
 10
162.410764727721
 20
204.608806173972
 40
1.25
  0
CIRCLE
  5
20E
100
AcDbEntity
  8
0-0
100
AcDbCircle
  6
CONTINUOUS
 62
3
370
13
 10
162.410764727721
 20
204.608806173972
 40
1.5
  0
LINE
  5
20F
100
AcDbEntity
  8
0-0
100
AcDbLine
  6
BYLAYER
370
30
 10
162.910764727721
 20
209.358806173972
 11
162.410764727721
 21
209.070131173971
  0
LINE
  5
210
100
AcDbEntity
  8
0-0
100
AcDbLine
  6
BYLAYER
370
30
 10
162.910764727721
 20
199.858806173972
 11
162.410764727721
 21
200.147481173972
  0
LINE
  5
211
100
AcDbEntity
  8
0-0
100
AcDbLine
  6
BYLAYER
370
30
 10
158.910764727721
 20
208.408806173972
 11
158.910764727721
 21
200.808806173971
  0
LINE
  5
212
100
AcDbEntity
  8
0-0
100
AcDbLine
  6
BYLAYER
370
30
 10
158.410764727721
 20
208.408806173972
 11
158.410764727721
 21
200.808806173971
  0
LINE
  5
213
100
AcDbEntity
  8
0-0
100
AcDbLine
  6
BYLAYER
370
30
 10
158.910764727721
 20
208.408806173972
 11
159.110764727721
 21
208.608806173972
  0
ARC
  5
214
100
AcDbEntity
  8
0-0
100
AcDbCircle
  6
BYLAYER
370
30
 10
158.610764727721
 20
208.408806173972
 40
0.2
100
AcDbArc
 50
450
 51
540
  0
LINE
  5
215
100
AcDbEntity
  8
0-0
100
AcDbLine
  6
BYLAYER
370
30
 10
158.910764727721
 20
200.808806173971
 11
159.110764727721
 21
200.608806173972
  0
ARC
  5
216
100
AcDbEntity
  8
0-0
100
AcDbCircle
  6
BYLAYER
370
30
 10
158.610764727721
 20
200.808806173971
 40
0.2
100
AcDbArc
 50
180
 51
270
  0
LINE
  5
217
100
AcDbEntity
  8
0-0
100
AcDbLine
  6
BYLAYER
370
30
 10
162.410764727721
 20
196.608806173972
 11
155.410764727721
 21
196.608806173972
  0
LINE
  5
218
100
AcDbEntity
  8
0-0
100
AcDbLine
  6
BYLAYER
370
30
 10
162.910764727721
 20
196.608806173972
 11
164.910664727721
 21
196.608806173972
  0
LINE
  5
219
100
AcDbEntity
  8
0-0
100
AcDbLine
  6
BYLAYER
370
30
 10
162.910764727721
 20
197.358806173972
 11
162.410764727721
 21
197.070131173971
  0
LINE
  5
21A
100
AcDbEntity
  8
0-0
100
AcDbLine
  6
BYLAYER
370
30
 10
155.410764727721
 20
197.678806173971
 11
155.410764727721
 21
196.608806173972
  0
LINE
  5
21B
100
AcDbEntity
  8
0-0
100
AcDbLine
  6
BYLAYER
370
30
 10
154.910764727721
 20
196.608806173972
 11
154.910764727721
 21
197.678806173971
  0
LINE
  5
21C
100
AcDbEntity
  8
0-0
100
AcDbLine
  6
BYLAYER
370
30
 10
150.910764727721
 20
205.858806173972
 11
151.410764727721
 21
206.147481173972
  0
LINE
  5
21D
100
AcDbEntity
  8
0-0
100
AcDbLine
  6
BYLAYER
370
30
 10
150.910764727721
 20
203.358806173972
 11
151.410764727721
 21
203.070131173971
  0
LINE
  5
21E
100
AcDbEntity
  8
0-0
100
AcDbLine
  6
BYLAYER
370
30
 10
148.410764727721
 20
196.608806173972
 11
147.910764727721
 21
197.108806173972
  0
LINE
  5
21F
100
AcDbEntity
  8
0-0
100
AcDbLine
  6
CONTINUOUS
370
30
 10
164.910664727721
 20
186.108806173972
 11
144.910664727721
 21
186.108806173972
  0
LINE
  5
220
100
AcDbEntity
  8
0-0
100
AcDbLine
  6
CONTINUOUS
370
30
 10
164.910664727721
 20
192.108806173972
 11
144.910664727721
 21
192.108806173972
  0
LINE
  5
221
100
AcDbEntity
  8
0-0
100
AcDbLine
  6
CONTINUOUS
370
30
 10
164.910664727721
 20
223.108806173971
 11
144.910664727721
 21
223.108806173972
  0
LINE
  5
222
100
AcDbEntity
  8
0-0
100
AcDbLine
  6
CONTINUOUS
370
30
 10
164.910664727721
 20
217.108806173971
 11
144.910664727721
 21
217.108806173972
  0
LINE
  5
223
100
AcDbEntity
  8
0-0
100
AcDbLine
  6
CONTINUOUS
370
30
 10
166.910664727721
 20
180.606317558985
 11
164.910664727721
 21
180.606317558985
  0
LINE
  5
224
100
AcDbEntity
  8
0-0
100
AcDbLine
  6
CONTINUOUS
370
30
 10
166.910664727721
 20
228.606317558985
 11
164.910664727721
 21
228.606317558985
  0
LINE
  5
225
100
AcDbEntity
  8
0-0
100
AcDbLine
  6
CONTINUOUS
370
50
 10
258.468139116255
 20
210.099772768968
 11
268.184622113908
 21
210.099772768968
  0
LINE
  5
226
100
AcDbEntity
  8
0-0
100
AcDbLine
  6
CONTINUOUS
370
50
 10
263.262367750315
 20
225.099772768968
 11
296.673910482196
 21
225.099772768968
  0
LINE
  5
227
100
AcDbEntity
  8
0-0
100
AcDbLine
  6
CONTINUOUS
370
30
 10
186.110343759385
 20
221.109289471469
 11
176.110343759385
 21
221.109289471469
  0
LINE
  5
228
100
AcDbEntity
  8
0-0
100
AcDbLine
  6
CONTINUOUS
370
50
 10
179.110343759385
 20
217.599289471469
 11
179.110343759385
 21
221.109289471469
  0
LINE
  5
229
100
AcDbEntity
  8
0-0
100
AcDbLine
  6
CONTINUOUS
370
50
 10
183.110343759385
 20
217.606979844921
 11
183.110343759385
 21
221.109289471469
  0
LINE
  5
22A
100
AcDbEntity
  8
0-0
100
AcDbLine
  6
CONTINUOUS
370
20
 10
194.810664727721
 20
194.356317558987
 11
194.810664727721
 21
217.606317558985
  0
LINE
  5
22B
100
AcDbEntity
  8
0-0
100
AcDbLine
  6
CONTINUOUS
370
20
 10
198.410664727721
 20
191.606317558985
 11
198.410664727721
 21
217.606317558985
  0
CIRCLE
  5
22C
100
AcDbEntity
  8
0-0
100
AcDbCircle
  6
CONTINUOUS
370
50
 10
299.468139116255
 20
215.112082395516
 40
3
  0
LINE
  5
22D
100
AcDbEntity
  8
0-0
100
AcDbLine
  6
CONTINUOUS
370
20
 10
176.110343759385
 20
191.60352463494
 11
176.110343759385
 21
189.60352463494
  0
LINE
  5
22E
100
AcDbEntity
  8
0-0
100
AcDbLine
  6
CONTINUOUS
370
30
 10
164.910664727721
 20
180.606317558985
 11
164.910664727721
 21
228.606317558985
  0
LINE
  5
22F
100
AcDbEntity
  8
0-0
100
AcDbLine
  6
CONTINUOUS
370
30
 10
164.910664727721
 20
217.108806173971
 11
164.910664727721
 21
223.108806173971
  0
LINE
  5
230
100
AcDbEntity
  8
0-0
100
AcDbLine
  6
CONTINUOUS
370
50
 10
168.110664727721
 20
229.606317558984
 11
168.110664727721
 21
179.606317558986
  0
LINE
  5
231
100
AcDbEntity
  8
0-0
100
AcDbLine
  6
CONTINUOUS
370
50
 10
175.610343759385
 20
229.606317558984
 11
168.110664727721
 21
229.606317558984
  0
LINE
  5
232
100
AcDbEntity
  8
0-0
100
AcDbLine
  6
CONTINUOUS
370
50
 10
175.610343759385
 20
179.606317558986
 11
168.110664727721
 21
179.606317558986
  0
LINE
  5
233
100
AcDbEntity
  8
0-0
100
AcDbLine
  6
CONTINUOUS
370
50
 10
255.466894808762
 20
179.606317558986
 11
304.466894808762
 21
179.606317558986
  0
LINE
  5
234
100
AcDbEntity
  8
0-0
100
AcDbLine
  6
CONTINUOUS
370
50
 10
193.610664727721
 20
216.406317558985
 11
194.810664727721
 21
217.606317558985
  0
LINE
  5
235
100
AcDbEntity
  8
0-0
100
AcDbLine
  6
CONTINUOUS
370
50
 10
198.410664727721
 20
217.606317558985
 11
199.610664727721
 21
216.406317558985
  0
LINE
  5
236
100
AcDbEntity
  8
0-0
100
AcDbLine
  6
CONTINUOUS
370
50
 10
199.610664727721
 20
192.806317558985
 11
198.410664727721
 21
191.606317558985
  0
CIRCLE
  5
237
100
AcDbEntity
  8
0-0
100
AcDbCircle
  6
CONTINUOUS
370
13
 10
279.966894808762
 20
204.606317558985
 40
11.0029719124837
  0
LINE
  5
238
100
AcDbEntity
  8
0-0
100
AcDbLine
  6
CONTINUOUS
370
20
 10
188.110343759385
 20
220.606979844921
 11
183.110343759385
 21
220.606979844921
  0
LINE
  5
239
100
AcDbEntity
  8
0-0
100
AcDbLine
  6
CONTINUOUS
370
20
 10
179.110343759385
 20
220.606979844921
 11
176.110343759385
 21
220.606979844921
  0
CIRCLE
  5
23A
100
AcDbEntity
  8
0-0
100
AcDbCircle
  6
CONTINUOUS
370
20
 10
279.966894808762
 20
204.606317558985
 40
11.8029719124837
  0
CIRCLE
  5
23B
100
AcDbEntity
  8
0-0
100
AcDbCircle
  6
CONTINUOUS
370
50
 10
279.966894808762
 20
204.606317558985
 40
13
  0
LINE
  5
23C
100
AcDbEntity
  8
0-0
100
AcDbLine
  6
CONTINUOUS
370
30
 10
176.419927999562
 20
236.107153516469
 11
185.800759519209
 21
236.107153516469
  0
ARC
  5
23D
100
AcDbEntity
  8
0-0
100
AcDbCircle
  6
CONTINUOUS
370
30
 10
181.110343759385
 20
240.607153516469
 40
6.5
100
AcDbArc
 50
316.186938539597
 51
583.813061460403
  0
LINE
  5
23E
100
AcDbEntity
  8
0-0
100
AcDbLine
  6
CONTINUOUS
370
30
 10
177.110343759385
 20
221.109289471469
 11
185.110343759385
 21
221.109289471469
  0
LINE
  5
23F
100
AcDbEntity
  8
0-0
100
AcDbLine
  6
CONTINUOUS
370
30
 10
185.610343759385
 20
236.107153516469
 11
185.610343759385
 21
221.609289471469
  0
LINE
  5
240
100
AcDbEntity
  8
0-0
100
AcDbLine
  6
CONTINUOUS
370
30
 10
176.610343759385
 20
236.107153516469
 11
176.610343759385
 21
221.609289471469
  0
LINE
  5
241
100
AcDbEntity
  8
0-0
100
AcDbLine
  6
CONTINUOUS
370
30
 10
185.110343759385
 20
221.109289471469
 11
185.610343759385
 21
221.609289471469
  0
LINE
  5
242
100
AcDbEntity
  8
0-0
100
AcDbLine
  6
CONTINUOUS
370
30
 10
177.110343759385
 20
221.109289471469
 11
176.610343759385
 21
221.609289471469
  0
LINE
  5
243
100
AcDbEntity
  8
0-0
100
AcDbLine
  6
CONTINUOUS
370
30
 10
179.610343759385
 20
221.109289471469
 11
179.610343759385
 21
217.599289471469
  0
LINE
  5
244
100
AcDbEntity
  8
0-0
100
AcDbLine
  6
CONTINUOUS
370
30
 10
182.610343759385
 20
221.109289471469
 11
182.610343759385
 21
217.599289471469
  0
LINE
  5
245
100
AcDbEntity
  8
0-0
100
AcDbLine
  6
CONTINUOUS
370
20
 10
182.610343759385
 20
217.599289471469
 11
179.610343759385
 21
217.599289471469
  0
LINE
  5
246
100
AcDbEntity
  8
0-0
100
AcDbLine
  6
CONTINUOUS
370
20
 10
179.910343759385
 20
217.599289471469
 11
179.610343759385
 21
217.899289471469
  0
LINE
  5
247
100
AcDbEntity
  8
0-0
100
AcDbLine
  6
CONTINUOUS
370
20
 10
182.310343759385
 20
217.599289471469
 11
182.610343759385
 21
217.899289471469
  0
LINE
  5
248
100
AcDbEntity
  8
0-0
100
AcDbLine
  6
CONTINUOUS
370
30
 10
255.277723356432
 20
236.107153516469
 11
264.658554876079
 21
236.107153516469
  0
ARC
  5
249
100
AcDbEntity
  8
0-0
100
AcDbCircle
  6
CONTINUOUS
370
30
 10
259.968139116256
 20
240.607153516469
 40
6.5
100
AcDbArc
 50
316.186938539597
 51
583.813061460403
  0
LINE
  5
24A
100
AcDbEntity
  8
0-0
100
AcDbLine
  6
CONTINUOUS
370
30
 10
255.968139116256
 20
221.109289471469
 11
256.350647932292
 21
221.109289471469
  0
LINE
  5
24B
100
AcDbEntity
  8
0-0
100
AcDbLine
  6
CONTINUOUS
370
30
 10
264.468139116256
 20
236.107153516469
 11
264.468139116256
 21
225.099772768968
  0
LINE
  5
24C
100
AcDbEntity
  8
0-0
100
AcDbLine
  6
CONTINUOUS
370
30
 10
255.468139116255
 20
236.107153516469
 11
255.468139116256
 21
221.609289471469
  0
LINE
  5
24D
100
AcDbEntity
  8
0-0
100
AcDbLine
  6
CONTINUOUS
370
30
 10
255.968139116256
 20
221.109289471469
 11
255.468139116256
 21
221.609289471469
  0
ARC
  5
24E
100
AcDbEntity
  8
0-0
100
AcDbCircle
  6
CONTINUOUS
370
20
 10
279.966894808762
 20
226.601325016468
 40
2.5
100
AcDbArc
 50
-36.9143792155311
 51
-143.085620784469
  0
LINE
  5
24F
100
AcDbEntity
  8
0-0
100
AcDbLine
  6
CONTINUOUS
370
50
 10
193.110343759385
 20
215.608806173971
 11
191.110343759385
 21
217.608806173971
  0
LINE
  5
250
100
AcDbEntity
  8
0-0
100
AcDbLine
  6
CONTINUOUS
370
50
 10
176.110343759385
 20
185.858806173971
 11
176.110343759385
 21
191.607561866478
  0
LINE
  5
251
100
AcDbEntity
  8
0-0
100
AcDbLine
  6
CONTINUOUS
370
13
 10
185.110343759385
 20
209.599063885292
 11
185.110343759385
 21
215.599500301944
  0
LINE
  5
252
100
AcDbEntity
  8
0-0
100
AcDbLine
  6
CONTINUOUS
370
13
 10
185.810343759385
 20
215.249063885292
 11
185.810343759385
 21
209.949063885292
  0
LINE
  5
253
100
AcDbEntity
  8
0-0
100
AcDbLine
  6
CONTINUOUS
370
13
 10
185.110343759385
 20
211.099063885292
 11
184.910343759385
 21
211.099063885292
  0
LINE
  5
254
100
AcDbEntity
  8
0-0
100
AcDbLine
  6
CONTINUOUS
370
13
 10
185.110343759385
 20
214.099063885292
 11
184.910343759385
 21
214.099063885292
  0
LINE
  5
255
100
AcDbEntity
  8
0-0
100
AcDbLine
  6
CONTINUOUS
370
13
 10
185.460343759385
 20
209.599063885292
 11
185.110343759385
 21
209.599063885292
  0
LINE
  5
256
100
AcDbEntity
  8
0-0
100
AcDbLine
  6
CONTINUOUS
370
13
 10
185.460343759385
 20
215.599063885292
 11
185.110343759385
 21
215.599063885292
  0
ARC
  5
257
100
AcDbEntity
  8
0-0
100
AcDbCircle
  6
CONTINUOUS
370
13
 10
185.460343759385
 20
209.949063885292
 40
0.35
100
AcDbArc
 50
270
 51
360
  0
ARC
  5
258
100
AcDbEntity
  8
0-0
100
AcDbCircle
  6
CONTINUOUS
370
13
 10
185.460343759385
 20
215.249063885292
 40
0.35
100
AcDbArc
 50
360
 51
450
  0
LINE
  5
259
100
AcDbEntity
  8
0-0
100
AcDbLine
  6
CONTINUOUS
370
50
 10
255.468139116255
 20
213.099772768968
 11
258.468139116255
 21
210.099772768968
  0
LINE
  5
25A
100
AcDbEntity
  8
0-0
100
AcDbLine
  6
CONTINUOUS
370
50
 10
184.910343759385
 20
217.599289471469
 11
184.910343759385
 21
207.599289471469
  0
LINE
  5
25B
100
AcDbEntity
  8
0-0
100
AcDbLine
  6
CONTINUOUS
370
50
 10
185.810343759385
 20
210.099289471469
 11
188.110343759385
 21
210.099289471469
  0
ARC
  5
25C
100
AcDbEntity
  8
0-0
100
AcDbCircle
  6
CONTINUOUS
370
30
 10
279.966894808762
 20
204.606317558985
 40
18.75
100
AcDbArc
 50
170.062925327167
 51
-136.105446236342
  0
ARC
  5
25D
100
AcDbEntity
  8
0-0
100
AcDbCircle
  6
CONTINUOUS
370
30
 10
279.966894808762
 20
204.606317558985
 40
18.75
100
AcDbArc
 50
-43.894553763658
 51
17.0440869059531
  0
CIRCLE
  5
25E
100
AcDbEntity
  8
0-0
100
AcDbCircle
  6
CONTINUOUS
370
30
 10
299.468139116255
 20
215.112082395516
 40
4.15
  0
CIRCLE
  5
25F
100
AcDbEntity
  8
0-0
100
AcDbCircle
  6
CONTINUOUS
370
13
 10
299.468139116255
 20
215.112082395516
 40
3
  0
ARC
  5
260
100
AcDbEntity
  8
0-0
100
AcDbCircle
  6
CONTINUOUS
370
13
 10
300.916676632671
 20
216.560619911932
 40
1.04854140132172
100
AcDbArc
 50
-179.844032103345
 51
-90.1559678966551
  0
ARC
  5
261
100
AcDbEntity
  8
0-0
100
AcDbCircle
  6
CONTINUOUS
370
13
 10
300.916676632671
 20
213.6635448791
 40
1.04854140132172
100
AcDbArc
 50
90.1559678966551
 51
179.844032103345
  0
ARC
  5
262
100
AcDbEntity
  8
0-0
100
AcDbCircle
  6
CONTINUOUS
370
13
 10
298.019601599839
 20
213.6635448791
 40
1.04854140132172
100
AcDbArc
 50
0.155967896655134
 51
89.8440321033449
  0
ARC
  5
263
100
AcDbEntity
  8
0-0
100
AcDbCircle
  6
CONTINUOUS
370
13
 10
298.019601599839
 20
216.560619911932
 40
1.0485414013217
100
AcDbArc
 50
-89.8440321033464
 51
-0.155967896653586
  0
ARC
  5
264
100
AcDbEntity
  8
0-0
100
AcDbCircle
  6
CONTINUOUS
370
13
 10
299.468139116255
 20
215.112082395516
 40
1.5
100
AcDbArc
 50
164.533990046579
 51
-164.533990046579
  0
ARC
  5
265
100
AcDbEntity
  8
0-0
100
AcDbCircle
  6
CONTINUOUS
370
13
 10
299.468139116255
 20
215.112082395516
 40
1.5
100
AcDbArc
 50
-105.466009953421
 51
-74.5339900465793
  0
ARC
  5
266
100
AcDbEntity
  8
0-0
100
AcDbCircle
  6
CONTINUOUS
370
13
 10
299.468139116255
 20
215.112082395516
 40
1.5
100
AcDbArc
 50
-15.4660099534208
 51
15.4660099534208
  0
ARC
  5
267
100
AcDbEntity
  8
0-0
100
AcDbCircle
  6
CONTINUOUS
370
13
 10
299.468139116255
 20
215.112082395516
 40
1.5
100
AcDbArc
 50
74.5339900465793
 51
105.466009953421
  0
ARC
  5
268
100
AcDbEntity
  8
0-0
100
AcDbCircle
  6
CONTINUOUS
370
30
 10
279.966894808762
 20
226.601325016468
 40
2
100
AcDbArc
 50
311.339010602566
 51
588.660989397434
  0
LINE
  5
269
100
AcDbEntity
  8
0-0
100
AcDbLine
  6
CONTINUOUS
370
13
 10
280.462147079951
 20
227.451325016468
 11
279.471642537574
 21
227.451325016468
  0
LINE
  5
26A
100
AcDbEntity
  8
0-0
100
AcDbLine
  6
CONTINUOUS
370
13
 10
280.462147079951
 20
225.751325016468
 11
279.471642537574
 21
225.751325016468
  0
LINE
  5
26B
100
AcDbEntity
  8
0-0
100
AcDbLine
  6
CONTINUOUS
370
13
 10
278.980894808762
 20
226.601325016468
 11
279.471642537574
 21
225.751325016468
  0
LINE
  5
26C
100
AcDbEntity
  8
0-0
100
AcDbLine
  6
CONTINUOUS
370
13
 10
280.952894808762
 20
226.601325016468
 11
280.462147079951
 21
227.451325016468
  0
LINE
  5
26D
100
AcDbEntity
  8
0-0
100
AcDbLine
  6
CONTINUOUS
370
13
 10
280.952894808762
 20
226.601325016468
 11
280.462147079951
 21
225.751325016468
  0
LINE
  5
26E
100
AcDbEntity
  8
0-0
100
AcDbLine
  6
CONTINUOUS
370
13
 10
278.980894808762
 20
226.601325016468
 11
279.471642537574
 21
227.451325016468
  0
ARC
  5
26F
100
AcDbEntity
  8
0-0
100
AcDbCircle
  6
CONTINUOUS
370
13
 10
279.966894808762
 20
226.601325016468
 40
1.8
100
AcDbArc
 50
303.46337843618
 51
596.53662156382
  0
LINE
  5
270
100
AcDbEntity
  8
0-0
100
AcDbLine
  6
CONTINUOUS
370
50
 10
304.466894808762
 20
229.606317558984
 11
264.468139116256
 21
229.606317558984
  0
LINE
  5
271
100
AcDbEntity
  8
0-0
100
AcDbLine
  6
CONTINUOUS
370
50
 10
255.468139116255
 20
229.606317558984
 11
255.466894808762
 21
229.606317558984
  0
LINE
  5
272
100
AcDbEntity
  8
0-0
100
AcDbLine
  6
CONTINUOUS
370
20
 10
191.110343759385
 20
217.608806173971
 11
191.110343759385
 21
203.606317558987
  0
LINE
  5
273
100
AcDbEntity
  8
0-0
100
AcDbLine
  6
CONTINUOUS
370
13
 10
168.110664727721
 20
170.072349078576
 11
168.110664727721
 21
245.953001341243
  0
LINE
  5
274
100
AcDbEntity
  8
0-0
100
AcDbLine
  6
CONTINUOUS
370
13
 10
166.910664727721
 20
169.877282497149
 11
166.910664727721
 21
246.634926063023
  0
LINE
  5
275
100
AcDbEntity
  8
0-0
100
AcDbLine
  6
CONTINUOUS
370
13
 10
197.997208862424
 20
191.606317558985
 11
198.410664727721
 21
192.019773424282
  0
LINE
  5
276
100
AcDbEntity
  8
0-0
100
AcDbLine
  6
CONTINUOUS
370
13
 10
197.223175094523
 20
192.953604134644
 11
198.410664727721
 21
194.141093767842
  0
LINE
  5
277
100
AcDbEntity
  8
0-0
100
AcDbLine
  6
CONTINUOUS
370
13
 10
196.386388431584
 20
194.238137815264
 11
198.410664727721
 21
196.262414111401
  0
LINE
  5
278
100
AcDbEntity
  8
0-0
100
AcDbLine
  6
CONTINUOUS
370
13
 10
194.810664727721
 20
194.783734454961
 11
198.410664727721
 21
198.383734454961
  0
LINE
  5
279
100
AcDbEntity
  8
0-0
100
AcDbLine
  6
CONTINUOUS
370
13
 10
194.810664727721
 20
196.905054798521
 11
198.410664727721
 21
200.505054798521
  0
LINE
  5
27A
100
AcDbEntity
  8
0-0
100
AcDbLine
  6
CONTINUOUS
370
13
 10
194.810664727721
 20
199.02637514208
 11
198.410664727721
 21
202.62637514208
  0
LINE
  5
27B
100
AcDbEntity
  8
0-0
100
AcDbLine
  6
CONTINUOUS
370
13
 10
194.810664727721
 20
205.390336172759
 11
198.410664727721
 21
208.990336172759
  0
LINE
  5
27C
100
AcDbEntity
  8
0-0
100
AcDbLine
  6
CONTINUOUS
370
13
 10
194.810664727721
 20
207.511656516319
 11
198.410664727721
 21
211.111656516319
  0
LINE
  5
27D
100
AcDbEntity
  8
0-0
100
AcDbLine
  6
CONTINUOUS
370
13
 10
194.810664727721
 20
209.632976859878
 11
198.410664727721
 21
213.232976859878
  0
LINE
  5
27E
100
AcDbEntity
  8
0-0
100
AcDbLine
  6
CONTINUOUS
370
13
 10
194.810664727721
 20
211.754297203438
 11
198.410664727721
 21
215.354297203438
  0
LINE
  5
27F
100
AcDbEntity
  8
0-0
100
AcDbLine
  6
CONTINUOUS
370
13
 10
194.810664727721
 20
213.875617546998
 11
198.410664727721
 21
217.475617546998
  0
LINE
  5
280
100
AcDbEntity
  8
0-0
100
AcDbLine
  6
CONTINUOUS
370
13
 10
194.810664727721
 20
215.996937890557
 11
196.420044396148
 21
217.606317558985
  0
LINE
  5
281
100
AcDbEntity
  8
0-0
100
AcDbLine
  6
CONTINUOUS
370
13
 10
198.410664727721
 20
215.736816840383
 11
196.541164009118
 21
217.606317558985
  0
LINE
  5
282
100
AcDbEntity
  8
0-0
100
AcDbLine
  6
CONTINUOUS
370
13
 10
198.410664727721
 20
213.615496496823
 11
194.810664727721
 21
217.215496496823
  0
LINE
  5
283
100
AcDbEntity
  8
0-0
100
AcDbLine
  6
CONTINUOUS
370
13
 10
198.410664727721
 20
211.494176153263
 11
194.810664727721
 21
215.094176153263
  0
LINE
  5
284
100
AcDbEntity
  8
0-0
100
AcDbLine
  6
CONTINUOUS
370
13
 10
198.410664727721
 20
209.372855809704
 11
194.810664727721
 21
212.972855809704
  0
LINE
  5
285
100
AcDbEntity
  8
0-0
100
AcDbLine
  6
CONTINUOUS
370
13
 10
198.410664727721
 20
207.251535466144
 11
194.810664727721
 21
210.851535466144
  0
LINE
  5
286
100
AcDbEntity
  8
0-0
100
AcDbLine
  6
CONTINUOUS
370
13
 10
198.410664727721
 20
205.130215122584
 11
194.810664727721
 21
208.730215122584
  0
LINE
  5
287
100
AcDbEntity
  8
0-0
100
AcDbLine
  6
CONTINUOUS
370
13
 10
198.410664727721
 20
198.766254091905
 11
194.810664727721
 21
202.366254091905
  0
LINE
  5
288
100
AcDbEntity
  8
0-0
100
AcDbLine
  6
CONTINUOUS
370
13
 10
198.410664727721
 20
196.644933748346
 11
194.810664727721
 21
200.244933748346
  0
LINE
  5
289
100
AcDbEntity
  8
0-0
100
AcDbLine
  6
CONTINUOUS
370
13
 10
198.410664727721
 20
194.523613404786
 11
194.810664727721
 21
198.123613404786
  0
LINE
  5
28A
100
AcDbEntity
  8
0-0
100
AcDbLine
  6
CONTINUOUS
370
13
 10
198.410664727721
 20
192.402293061226
 11
194.810664727721
 21
196.002293061226
  0
LINE
  5
28B
100
AcDbEntity
  8
0-0
100
AcDbLine
  6
CONTINUOUS
370
20
 10
188.110343759385
 20
213.099772768968
 11
186.110343759385
 21
213.099772768968
  0
LINE
  5
28C
100
AcDbEntity
  8
0-0
100
AcDbLine
  6
CONTINUOUS
370
13
 10
279.151268380749
 20
214.733420665222
 11
279.548157392931
 21
211.759790037183
  0
LINE
  5
28D
100
AcDbEntity
  8
0-0
100
AcDbLine
  6
CONTINUOUS
370
13
 10
279.151268380749
 20
214.733420665222
 11
275.551292724846
 21
212.954677856014
  0
LINE
  5
28E
100
AcDbEntity
  8
0-0
100
AcDbLine
  6
CONTINUOUS
370
13
 10
279.548157392931
 20
211.759790037183
 11
275.551292724846
 21
212.954677856014
  0
LINE
  5
28F
100
AcDbEntity
  8
0-0
100
AcDbLine
  6
CONTINUOUS
370
13
 10
280.783871895348
 20
214.743540269383
 11
280.386982883166
 21
211.769909641344
  0
LINE
  5
290
100
AcDbEntity
  8
0-0
100
AcDbLine
  6
CONTINUOUS
370
13
 10
280.783871895348
 20
214.743540269383
 11
284.383847551252
 21
212.964797460174
  0
LINE
  5
291
100
AcDbEntity
  8
0-0
100
AcDbLine
  6
CONTINUOUS
370
13
 10
280.386982883166
 20
211.769909641344
 11
284.383847551252
 21
212.964797460174
  0
LINE
  5
292
100
AcDbEntity
  8
0-0
100
AcDbLine
  6
CONTINUOUS
370
13
 10
304.466894808762
 20
229.106317558984
 11
264.468139116256
 21
229.106317558984
  0
LINE
  5
293
100
AcDbEntity
  8
0-0
100
AcDbLine
  6
CONTINUOUS
370
13
 10
255.466894808762
 20
194.356317558985
 11
255.466894808762
 21
229.106317558984
  0
LINE
  5
294
100
AcDbEntity
  8
0-0
100
AcDbLine
  6
CONTINUOUS
370
13
 10
304.466894808762
 20
229.106317558984
 11
304.466894808762
 21
229.606317558984
  0
LINE
  5
295
100
AcDbEntity
  8
0-0
100
AcDbLine
  6
CONTINUOUS
370
13
 10
304.466894808762
 20
229.106317558984
 11
304.966894808762
 21
229.106317558984
  0
LINE
  5
296
100
AcDbEntity
  8
0-0
100
AcDbLine
  6
CONTINUOUS
370
13
 10
304.466894808762
 20
180.106317558986
 11
304.466894808762
 21
179.606317558986
  0
LINE
  5
297
100
AcDbEntity
  8
0-0
100
AcDbLine
  6
CONTINUOUS
370
13
 10
304.466894808762
 20
180.106317558986
 11
304.966894808762
 21
180.106317558986
  0
LINE
  5
298
100
AcDbEntity
  8
0-0
100
AcDbLine
  6
CONTINUOUS
370
50
 10
175.610343759385
 20
229.606317558984
 11
176.110343759385
 21
229.106317558984
  0
LINE
  5
299
100
AcDbEntity
  8
0-0
100
AcDbLine
  6
CONTINUOUS
370
50
 10
175.610343759385
 20
179.606317558986
 11
176.110343759385
 21
180.106317558986
  0
LINE
  5
29A
100
AcDbEntity
  8
0-0
100
AcDbLine
  6
CONTINUOUS
370
13
 10
175.610343759385
 20
179.606317558986
 11
175.610343759385
 21
229.606317558984
  0
LINE
  5
29B
100
AcDbEntity
  8
0-0
100
AcDbLine
  6
CONTINUOUS
370
50
 10
188.110343759385
 20
225.106979844921
 11
185.610343759385
 21
225.106979844921
  0
LINE
  5
29C
100
AcDbEntity
  8
0-0
100
AcDbLine
  6
CONTINUOUS
370
50
 10
176.610343759385
 20
225.106979844921
 11
176.110343759385
 21
225.106979844921
  0
ARC
  5
29D
100
AcDbEntity
  8
0-0
100
AcDbCircle
  6
CONTINUOUS
370
30
 10
183.110343759385
 20
222.106979844921
 40
3
100
AcDbArc
 50
360
 51
393.557309761924
  0
LINE
  5
29E
100
AcDbEntity
  8
0-0
100
AcDbLine
  6
CONTINUOUS
370
50
 10
191.110343759385
 20
217.608806173971
 11
188.110343759385
 21
217.608806173971
  0
LINE
  5
29F
100
AcDbEntity
  8
0-0
100
AcDbLine
  6
CONTINUOUS
370
50
 10
186.110343759385
 20
217.608806173971
 11
183.110343759385
 21
217.608806173971
  0
LINE
  5
2A0
100
AcDbEntity
  8
0-0
100
AcDbLine
  6
DASHDOT
370
13
 10
279.966894808762
 20
175.835339417344
 11
279.966894808762
 21
233.964754564147
  0
LINE
  5
2A1
100
AcDbEntity
  8
0-0
100
AcDbLine
  6
DASHDOT
370
13
 10
92.4448280295692
 20
204.608806173972
 11
204.59193657377
 21
204.608806173971
  0
LINE
  5
2A2
100
AcDbEntity
  8
0-0
100
AcDbLine
  6
DASHDOT
370
13
 10
251.3111153953
 20
204.608806173971
 11
307.541483191286
 21
204.608806173971
  0
CIRCLE
  5
2A3
100
AcDbEntity
  8
0-0
100
AcDbCircle
  6
CONTINUOUS
370
30
 10
196.61066472772
 20
204.608806173971
 40
1.5
  0
CIRCLE
  5
2A4
100
AcDbEntity
  8
0-0
100
AcDbCircle
  6
CONTINUOUS
370
13
 10
196.61066472772
 20
204.608806173971
 40
1.2
  0
LINE
  5
2A5
100
AcDbEntity
  8
0-0
100
AcDbLine
  6
CONTINUOUS
370
13
 10
194.810664727721
 20
203.269015829199
 11
195.345160572162
 21
203.80351167364
  0
LINE
  5
2A6
100
AcDbEntity
  8
0-0
100
AcDbLine
  6
CONTINUOUS
370
13
 10
197.415959228051
 20
205.87431032953
 11
198.410664727721
 21
206.869015829199
  0
LINE
  5
2A7
100
AcDbEntity
  8
0-0
100
AcDbLine
  6
CONTINUOUS
370
13
 10
198.410664727721
 20
203.008894779025
 11
197.766640437836
 21
203.65291906891
  0
LINE
  5
2A8
100
AcDbEntity
  8
0-0
100
AcDbLine
  6
CONTINUOUS
370
13
 10
195.654777622659
 20
205.764781884087
 11
194.810664727721
 21
206.608894779025
  0
LINE
  5
2A9
100
AcDbEntity
  8
0-0
100
AcDbLine
  6
CONTINUOUS
370
13
 10
194.810664727721
 20
201.14769548564
 11
196.781539982542
 21
203.118570740461
  0
LINE
  5
2AA
100
AcDbEntity
  8
0-0
100
AcDbLine
  6
CONTINUOUS
370
13
 10
198.100900161231
 20
204.43793091915
 11
198.410664727721
 21
204.74769548564
  0
LINE
  5
2AB
100
AcDbEntity
  8
0-0
100
AcDbLine
  6
CONTINUOUS
370
13
 10
198.410664727721
 20
200.887574435465
 11
196.099734472802
 21
203.198504690384
  0
LINE
  5
2AC
100
AcDbEntity
  8
0-0
100
AcDbLine
  6
CONTINUOUS
370
13
 10
195.200363244133
 20
204.097875919053
 11
194.810664727721
 21
204.487574435465
  0
LINE
  5
2AD
100
AcDbEntity
  8
0-0
100
AcDbLine
  6
DIVIDE
370
13
 10
258.968139116256
 20
179.606317558987
 11
304.968139116255
 21
179.606317558987
  0
CIRCLE
  5
2AE
100
AcDbEntity
  8
0-0
100
AcDbCircle
  6
DIVIDE
370
13
 10
299.468139116255
 20
215.112082395516
 40
4.15
  0
LINE
  5
2AF
100
AcDbEntity
  8
0-0
100
AcDbLine
  6
DIVIDE
370
13
 10
298.797708663863
 20
223.950862789031
 11
294.138012097333
 21
215.880031587947
  0
CIRCLE
  5
2B0
100
AcDbEntity
  8
0-0
100
AcDbCircle
  6
DIVIDE
370
13
 10
299.468139116255
 20
215.112082395516
 40
3
  0
LINE
  5
2B1
100
AcDbEntity
  8
0-0
100
AcDbLine
  6
DIVIDE
370
13
 10
295.236088308687
 20
211.781955376594
 11
301.729278641806
 21
208.033110189868
  0
LINE
  5
2B2
100
AcDbEntity
  8
0-0
100
AcDbLine
  6
DIVIDE
370
13
 10
319.734088113423
 20
254.218354975305
 11
326.229278641806
 21
250.468354975305
  0
LINE
  5
2B3
100
AcDbEntity
  8
0-0
100
AcDbLine
  6
DIVIDE
370
13
 10
295.236088308687
 20
211.781955376594
 11
294.138012097333
 21
215.880031587947
  0
LINE
  5
2B4
100
AcDbEntity
  8
0-0
100
AcDbLine
  6
DIVIDE
370
13
 10
326.229278641806
 20
250.468354975305
 11
326.229278641806
 21
241.468354975305
  0
LINE
  5
2B5
100
AcDbEntity
  8
0-0
100
AcDbLine
  6
DIVIDE
370
13
 10
301.729278641806
 20
208.033110189868
 11
309.523507275866
 21
212.533110189868
  0
LINE
  5
2B6
100
AcDbEntity
  8
0-0
100
AcDbLine
  6
DIVIDE
370
13
 10
310.977691588408
 20
245.051831302759
 11
315.63601190207
 21
253.120278763952
  0
LINE
  5
2B7
100
AcDbEntity
  8
0-0
100
AcDbLine
  6
DIVIDE
370
13
 10
326.229278641806
 20
241.468354975305
 11
309.523507275866
 21
212.533110189868
  0
ARC
  5
2B8
100
AcDbEntity
  8
0-0
100
AcDbCircle
  6
DIVIDE
370
13
 10
300.124872376519
 20
237.249577769312
 40
11.4
100
AcDbArc
 50
290
 51
370
  0
ARC
  5
2B9
100
AcDbEntity
  8
0-0
100
AcDbCircle
  6
DIVIDE
370
13
 10
300.124872376519
 20
237.249577769312
 40
13
100
AcDbArc
 50
265.891643629489
 51
394.116137714868
  0
LINE
  5
2BA
100
AcDbEntity
  8
0-0
100
AcDbLine
  6
DIVIDE
370
13
 10
300.237401284649
 20
225.158908336141
 11
304.023902010432
 21
226.537081892353
  0
LINE
  5
2BB
100
AcDbEntity
  8
0-0
100
AcDbLine
  6
DIVIDE
370
13
 10
310.651339766075
 20
243.200998145963
 11
311.351680760858
 21
239.229166994715
  0
LINE
  5
2BC
100
AcDbEntity
  8
0-0
100
AcDbLine
  6
DIVIDE
370
13
 10
319.734088113423
 20
254.218354975305
 11
315.63601190207
 21
253.120278763952
  0
LINE
  5
2BD
100
AcDbEntity
  8
0-0
100
AcDbLine
  6
DIVIDE
370
13
 10
300.237401284649
 20
225.158908336141
 11
298.797708663863
 21
223.950862789031
  0
LINE
  5
2BE
100
AcDbEntity
  8
0-0
100
AcDbLine
  6
DIVIDE
370
13
 10
310.651339766075
 20
243.200998145963
 11
310.977691588408
 21
245.051831302759
  0
LINE
  5
2BF
100
AcDbEntity
  8
0-0
100
AcDbLine
  6
DIVIDE
370
13
 10
241.683590204244
 20
217.742646028786
 11
246.374005964068
 21
225.866684433422
  0
ARC
  5
2C0
100
AcDbEntity
  8
0-0
100
AcDbCircle
  6
DIVIDE
370
13
 10
240.131683767126
 20
224.054665231104
 40
6.5
100
AcDbArc
 50
376.186938539597
 51
643.813061460403
  0
LINE
  5
2C1
100
AcDbEntity
  8
0-0
100
AcDbLine
  6
DIVIDE
370
13
 10
254.151303945847
 20
211.341631593466
 11
255.272998982447
 21
213.284464387454
  0
LINE
  5
2C2
100
AcDbEntity
  8
0-0
100
AcDbLine
  6
DIVIDE
370
13
 10
246.278798084156
 20
225.701779548134
 11
255.926679103435
 21
220.131572844543
  0
LINE
  5
2C3
100
AcDbEntity
  8
0-0
100
AcDbLine
  6
DIVIDE
370
13
 10
241.778798084156
 20
217.907550914074
 11
253.468291243955
 21
211.158618891574
  0
LINE
  5
2C4
100
AcDbEntity
  8
0-0
100
AcDbLine
  6
DIVIDE
370
13
 10
254.151303945847
 20
211.341631593466
 11
253.468291243955
 21
211.158618891574
  0
ARC
  5
2C5
100
AcDbEntity
  8
0-0
100
AcDbCircle
  6
DIVIDE
370
13
 10
236.67499457315
 20
226.124611652433
 40
6.5
100
AcDbArc
 50
70.5587943586559
 51
-118.509300631133
  0
ARC
  5
2C6
100
AcDbEntity
  8
0-0
100
AcDbCircle
  6
DIVIDE
370
13
 10
259.968139116255
 20
212.602082395516
 40
33.5050711209532
100
AcDbArc
 50
97.9195881577495
 51
147.635071295532
  0
ARC
  5
2C7
100
AcDbEntity
  8
0-0
100
AcDbCircle
  6
DIVIDE
370
13
 10
299.468139116255
 20
215.112082395516
 40
44.0455360262599
100
AcDbArc
 50
64.7720985656636
 51
156.145309349682
  0
LINE
  5
2C8
100
AcDbEntity
  8
0-0
100
AcDbLine
  6
DASHDOT
370
13
 10
180.610343759385
 20
170.339371147427
 11
180.610343759385
 21
249.391075008393
  0
LINE
  5
2C9
100
AcDbEntity
  8
0-0
100
AcDbLine
  6
DASHDOT
370
13
 10
265.968139116255
 20
169.741600257886
 11
265.968139116255
 21
202.642890928872
  0
LINE
  5
2CA
100
AcDbEntity
  8
0-0
100
AcDbLine
  6
DASHDOT
370
13
 10
293.968139116254
 20
169.49933960063
 11
293.968139116254
 21
202.359468760972
  0
ARC
  5
2CB
100
AcDbEntity
  8
0-0
100
AcDbCircle
  6
DIVIDE
370
30
 10
279.966894808762
 20
201.96386774634
 40
14.8143255846807
100
AcDbArc
 50
146.688420416558
 51
177.372894373929
  0
ARC
  5
2CC
100
AcDbEntity
  8
0-0
100
AcDbCircle
  6
DIVIDE
370
30
 10
279.966894808762
 20
201.96386774634
 40
14.8143255846807
100
AcDbArc
 50
-0.398781246781509
 51
33.3222691627349
  0
LINE
  5
2CD
100
AcDbEntity
  8
0-0
100
AcDbLine
  6
DIVIDE
370
30
 10
265.168139116255
 20
172.09263229086
 11
265.168139116255
 21
179.606317558986
  0
LINE
  5
2CE
100
AcDbEntity
  8
0-0
100
AcDbLine
  6
DIVIDE
370
30
 10
265.168139116255
 20
201.893380448607
 11
265.168139116255
 21
202.642890928872
  0
LINE
  5
2CF
100
AcDbEntity
  8
0-0
100
AcDbLine
  6
DIVIDE
370
30
 10
266.768139116255
 20
172.01916253983
 11
266.768139116255
 21
179.606317558986
  0
LINE
  5
2D0
100
AcDbEntity
  8
0-0
100
AcDbLine
  6
DIVIDE
370
30
 10
294.768139116254
 20
172.570375193703
 11
294.768139116254
 21
179.606317558986
  0
LINE
  5
2D1
100
AcDbEntity
  8
0-0
100
AcDbLine
  6
DIVIDE
370
30
 10
294.768139116254
 20
201.888043596549
 11
294.768139116254
 21
202.359468760972
  0
LINE
  5
2D2
100
AcDbEntity
  8
0-0
100
AcDbLine
  6
DIVIDE
370
30
 10
293.168139116254
 20
172.553527371369
 11
293.168139116254
 21
179.606317558986
  0
LINE
  5
2D3
100
AcDbEntity
  8
0-0
100
AcDbLine
  6
DIVIDE
370
30
 10
179.810343759385
 20
173.556486086032
 11
179.810343759385
 21
180.856317558987
  0
LINE
  5
2D4
100
AcDbEntity
  8
0-0
100
AcDbLine
  6
DIVIDE
370
30
 10
179.810343759385
 20
194.356317558987
 11
179.810343759385
 21
207.599289471469
  0
LINE
  5
2D5
100
AcDbEntity
  8
0-0
100
AcDbLine
  6
DIVIDE
370
30
 10
181.410343759385
 20
173.556486086032
 11
181.410343759385
 21
180.856317558987
  0
LINE
  5
2D6
100
AcDbEntity
  8
0-0
100
AcDbLine
  6
DIVIDE
370
30
 10
181.410343759385
 20
194.356317558987
 11
181.410343759385
 21
207.599289471469
  0
LINE
  5
2D7
100
AcDbEntity
  8
0-0
100
AcDbLine
  6
CONTINUOUS
370
50
 10
186.110343759385
 20
222.106979844921
 11
186.110343759385
 21
221.109289471469
  0
LINE
  5
2D8
100
AcDbEntity
  8
0-0
100
AcDbLine
  6
CONTINUOUS
370
50
 10
186.110343759385
 20
217.608806173971
 11
186.110343759385
 21
210.106979844921
  0
LINE
  5
2D9
100
AcDbEntity
  8
0-0
100
AcDbLine
  6
CONTINUOUS
370
13
 10
254.968139116256
 20
179.356317558987
 11
254.968139116256
 21
148.317193498798
  0
LINE
  5
2DA
100
AcDbEntity
  8
0-0
100
AcDbLine
  6
CONTINUOUS
370
13
 10
254.968139116256
 20
148.817193498798
 11
304.968139116255
 21
148.817193498798
  0
LINE
  5
2DB
100
AcDbEntity
  8
0-0
100
AcDbLine
  6
CONTINUOUS
370
13
 10
254.968139116256
 20
148.817193498798
 11
257.865916595123
 21
149.593650634106
  0
LINE
  5
2DC
100
AcDbEntity
  8
0-0
100
AcDbLine
  6
CONTINUOUS
370
13
 10
254.968139116256
 20
148.817193498798
 11
257.865916595123
 21
148.040736363491
  0
LINE
  5
2DD
100
AcDbEntity
  8
0-0
100
AcDbLine
  6
CONTINUOUS
370
13
 10
304.968139116255
 20
148.817193498798
 11
302.070361637388
 21
148.040736363491
  0
LINE
  5
2DE
100
AcDbEntity
  8
0-0
100
AcDbLine
  6
CONTINUOUS
370
13
 10
304.968139116255
 20
148.817193498798
 11
302.070361637388
 21
149.593650634106
  0
TEXT
  5
2DF
100
AcDbEntity
  8
0-0
100
AcDbText
  6
CONTINUOUS
 10
275.968139116256
 20
149.067193498798
 40
7
  1
50
  7
Font_0
 72
1
 11
279.968139116256
 21
156.067193498798
100
AcDbText
 73
3
  0
LINE
  5
2E0
100
AcDbEntity
  8
0-0
100
AcDbLine
  6
CONTINUOUS
370
13
 10
304.968139116255
 20
179.356317558987
 11
304.968139116255
 21
148.317193498798
  0
LINE
  5
2E1
100
AcDbEntity
  8
0-0
100
AcDbLine
  6
CONTINUOUS
370
13
 10
304.716894808762
 20
229.606317558984
 11
333.852697351603
 21
229.606317558984
  0
LINE
  5
2E2
100
AcDbEntity
  8
0-0
100
AcDbLine
  6
CONTINUOUS
370
13
 10
333.352697351603
 20
229.606317558984
 11
333.352697351603
 21
179.606317558987
  0
LINE
  5
2E3
100
AcDbEntity
  8
0-0
100
AcDbLine
  6
CONTINUOUS
370
13
 10
333.352697351603
 20
229.606317558984
 11
334.129154486911
 21
226.708540080117
  0
LINE
  5
2E4
100
AcDbEntity
  8
0-0
100
AcDbLine
  6
CONTINUOUS
370
13
 10
333.352697351603
 20
229.606317558984
 11
332.576240216296
 21
226.708540080117
  0
LINE
  5
2E5
100
AcDbEntity
  8
0-0
100
AcDbLine
  6
CONTINUOUS
370
13
 10
333.352697351603
 20
179.606317558987
 11
332.576240216296
 21
182.504095037854
  0
LINE
  5
2E6
100
AcDbEntity
  8
0-0
100
AcDbLine
  6
CONTINUOUS
370
13
 10
333.352697351603
 20
179.606317558987
 11
334.129154486911
 21
182.504095037854
  0
TEXT
  5
2E7
100
AcDbEntity
  8
0-0
100
AcDbText
  6
CONTINUOUS
 10
333.102697351603
 20
200.606317558986
 40
7
  1
50
  7
Font_0
 50
90
 72
1
 11
326.102697351603
 21
204.606317558986
100
AcDbText
 73
3
  0
LINE
  5
2E8
100
AcDbEntity
  8
0-0
100
AcDbLine
  6
CONTINUOUS
370
13
 10
305.218139116255
 20
179.606317558987
 11
333.852697351603
 21
179.606317558987
  0
LINE
  5
2E9
100
AcDbEntity
  8
0-0
100
AcDbLine
  6
CONTINUOUS
370
13
 10
168.110664727721
 20
168.373472677645
 11
168.110664727721
 21
148.317193498798
  0
LINE
  5
2EA
100
AcDbEntity
  8
0-0
100
AcDbLine
  6
CONTINUOUS
370
13
 10
168.110664727721
 20
148.817193498798
 11
199.610664727721
 21
148.817193498798
  0
LINE
  5
2EB
100
AcDbEntity
  8
0-0
100
AcDbLine
  6
CONTINUOUS
370
13
 10
168.110664727721
 20
148.817193498798
 11
171.008442206588
 21
149.593650634106
  0
LINE
  5
2EC
100
AcDbEntity
  8
0-0
100
AcDbLine
  6
CONTINUOUS
370
13
 10
168.110664727721
 20
148.817193498798
 11
171.008442206588
 21
148.040736363491
  0
LINE
  5
2ED
100
AcDbEntity
  8
0-0
100
AcDbLine
  6
CONTINUOUS
370
13
 10
199.610664727721
 20
148.817193498798
 11
196.712887248854
 21
148.040736363491
  0
LINE
  5
2EE
100
AcDbEntity
  8
0-0
100
AcDbLine
  6
CONTINUOUS
370
13
 10
199.610664727721
 20
148.817193498798
 11
196.712887248854
 21
149.593650634106
  0
TEXT
  5
2EF
100
AcDbEntity
  8
0-0
100
AcDbText
  6
CONTINUOUS
 10
175.860664727721
 20
149.067193498798
 40
7
  1
31.5
  7
Font_0
 72
1
 11
184.360664727721
 21
156.067193498798
100
AcDbText
 73
3
  0
LINE
  5
2F0
100
AcDbEntity
  8
0-0
100
AcDbLine
  6
CONTINUOUS
370
13
 10
199.610664727721
 20
192.556317558985
 11
199.610664727721
 21
148.317193498798
  0
LWPOLYLINE
  5
2F1
100
AcDbEntity
  8
0-0
100
AcDbPolyline
  6
DIVIDE
370
20
 90
     28
 10
265.168139116255
  20
172.09263229086
 10
265.220972257131
  20
172.182596770683
 10
265.274179362959
  20
172.26478282879
 10
265.327777171205
  20
172.337750426506
 10
265.381782419335
  20
172.400059525154
 10
265.436211844815
  20
172.450270086059
 10
265.491082185111
  20
172.486942070547
 10
265.546410177689
  20
172.50863543994
 10
265.602212560015
  20
172.513910155563
 10
265.658506069555
  20
172.501326178742
 10
265.724745001913
  20
172.463515580653
 10
265.791608871882
  20
172.405079098944
 10
265.859032696556
  20
172.331607657568
 10
265.926951493028
  20
172.248692180478
 10
265.99530027839
  20
172.161923591628
 10
266.064014069734
  20
172.076892814972
 10
266.133027884155
  20
171.999190774463
 10
266.202276738745
  20
171.934408394055
 10
266.271695650596
  20
171.888136597701
 10
266.326403316362
  20
171.867730426959
 10
266.38119047557
  20
171.861004504935
 10
266.436071565241
  20
171.866716715867
 10
266.491061022399
  20
171.883624943993
 10
266.546173284065
  20
171.91048707355
 10
266.601422787261
  20
171.946060988778
 10
266.65682396901
  20
171.989104573914
 10
266.712391266334
  20
172.038375713195
 10
266.768139116255
  20
172.09263229086
  0
LWPOLYLINE
  5
2F2
100
AcDbEntity
  8
0-0
100
AcDbPolyline
  6
DIVIDE
370
20
 90
     28
 10
265.168139116255
  20
172.09263229086
 10
265.218999625626
  20
172.042554291779
 10
265.268198260613
  20
171.996694173169
 10
265.316113194408
  20
171.956187514978
 10
265.363122600206
  20
171.922169897152
 10
265.4096046512
  20
171.895776899637
 10
265.455937520584
  20
171.878144102381
 10
265.502499381551
  20
171.870407085329
 10
265.549668407294
  20
171.873701428427
 10
265.597822771008
  20
171.889162711624
 10
265.647844750667
  20
171.917691132947
 10
265.698108551287
  20
171.95643546618
 10
265.74745078324
  20
172.001902280392
 10
265.794708056898
  20
172.050598144655
 10
265.838716982633
  20
172.099029628038
 10
265.878314170819
  20
172.143703299612
 10
265.912336231827
  20
172.181125728447
 10
265.939619776031
  20
172.207803483615
 10
265.959001413802
  20
172.220243134185
 10
265.961943520304
  20
172.220735683991
 10
265.964514738161
  20
172.22052673723
 10
265.966737950025
  20
172.219685006022
 10
265.968636038549
  20
172.218279202487
 10
265.970231886386
  20
172.216378038743
 10
265.971548376189
  20
172.21405022691
 10
265.97260839061
  20
172.211364479107
 10
265.973434812302
  20
172.208389507454
 10
265.974050523919
  20
172.205194024069
  0
LWPOLYLINE
  5
2F3
100
AcDbEntity
  8
0-0
100
AcDbPolyline
  6
DIVIDE
370
20
 90
     28
 10
293.168139116254
  20
172.553527371369
 10
293.22097225713
  20
172.643491851192
 10
293.274179362958
  20
172.725677909299
 10
293.327777171204
  20
172.798645507014
 10
293.381782419334
  20
172.860954605663
 10
293.436211844814
  20
172.911165166568
 10
293.49108218511
  20
172.947837151055
 10
293.546410177688
  20
172.969530520449
 10
293.602212560014
  20
172.974805236072
 10
293.658506069554
  20
172.96222125925
 10
293.724745001912
  20
172.924410661162
 10
293.791608871881
  20
172.865974179453
 10
293.859032696556
  20
172.792502738077
 10
293.926951493027
  20
172.709587260987
 10
293.995300278389
  20
172.622818672137
 10
294.064014069734
  20
172.537787895481
 10
294.133027884154
  20
172.460085854972
 10
294.202276738744
  20
172.395303474563
 10
294.271695650595
  20
172.34903167821
 10
294.326403316361
  20
172.328625507468
 10
294.381190475569
  20
172.321899585444
 10
294.43607156524
  20
172.327611796376
 10
294.491061022398
  20
172.344520024502
 10
294.546173284064
  20
172.371382154059
 10
294.60142278726
  20
172.406956069287
 10
294.656823969009
  20
172.449999654422
 10
294.712391266333
  20
172.499270793704
 10
294.768139116254
  20
172.553527371369
  0
LWPOLYLINE
  5
2F4
100
AcDbEntity
  8
0-0
100
AcDbPolyline
  6
DIVIDE
370
20
 90
     28
 10
293.168139116254
  20
172.553527371369
 10
293.218999625625
  20
172.503449372287
 10
293.268198260612
  20
172.457589253678
 10
293.316113194407
  20
172.417082595487
 10
293.363122600205
  20
172.383064977661
 10
293.409604651199
  20
172.356671980146
 10
293.455937520583
  20
172.33903918289
 10
293.50249938155
  20
172.331302165837
 10
293.549668407293
  20
172.334596508936
 10
293.597822771007
  20
172.350057792132
 10
293.647844750666
  20
172.378586213456
 10
293.698108551286
  20
172.417330546689
 10
293.747450783239
  20
172.462797360901
 10
293.794708056897
  20
172.511493225163
 10
293.838716982632
  20
172.559924708546
 10
293.878314170818
  20
172.60459838012
 10
293.912336231826
  20
172.642020808956
 10
293.93961977603
  20
172.668698564124
 10
293.959001413801
  20
172.681138214694
 10
293.961943520303
  20
172.681630764499
 10
293.96451473816
  20
172.681421817739
 10
293.966737950024
  20
172.680580086531
 10
293.968636038548
  20
172.679174282995
 10
293.970231886385
  20
172.677273119252
 10
293.971548376188
  20
172.674945307419
 10
293.972608390609
  20
172.672259559616
 10
293.973434812302
  20
172.669284587962
 10
293.974050523918
  20
172.666089104578
  0
LWPOLYLINE
  5
2F5
100
AcDbEntity
  8
0-0
100
AcDbPolyline
  6
DIVIDE
370
20
 90
     28
 10
179.810343759385
  20
173.556486086032
 10
179.863176900261
  20
173.646450565855
 10
179.916384006089
  20
173.728636623962
 10
179.969981814335
  20
173.801604221677
 10
180.023987062465
  20
173.863913320326
 10
180.078416487945
  20
173.914123881231
 10
180.133286828241
  20
173.950795865718
 10
180.188614820819
  20
173.972489235112
 10
180.244417203145
  20
173.977763950735
 10
180.300710712685
  20
173.965179973913
 10
180.366949645043
  20
173.927369375825
 10
180.433813515012
  20
173.868932894116
 10
180.501237339686
  20
173.79546145274
 10
180.569156136158
  20
173.71254597565
 10
180.637504921519
  20
173.6257773868
 10
180.706218712864
  20
173.540746610144
 10
180.775232527285
  20
173.463044569635
 10
180.844481381874
  20
173.398262189227
 10
180.913900293726
  20
173.351990392873
 10
180.968607959492
  20
173.331584222131
 10
181.023395118699
  20
173.324858300107
 10
181.078276208371
  20
173.330570511039
 10
181.133265665529
  20
173.347478739165
 10
181.188377927195
  20
173.374340868722
 10
181.243627430391
  20
173.40991478395
 10
181.29902861214
  20
173.452958369085
 10
181.354595909464
  20
173.502229508367
 10
181.410343759385
  20
173.556486086032
  0
LWPOLYLINE
  5
2F6
100
AcDbEntity
  8
0-0
100
AcDbPolyline
  6
DIVIDE
370
20
 90
     28
 10
179.810343759385
  20
173.556486086032
 10
179.861204268756
  20
173.506408086951
 10
179.910402903742
  20
173.460547968341
 10
179.958317837538
  20
173.42004131015
 10
180.005327243336
  20
173.386023692324
 10
180.05180929433
  20
173.359630694809
 10
180.098142163714
  20
173.341997897553
 10
180.14470402468
  20
173.3342608805
 10
180.191873050424
  20
173.337555223599
 10
180.240027414137
  20
173.353016506795
 10
180.290049393797
  20
173.381544928119
 10
180.340313194417
  20
173.420289261352
 10
180.38965542637
  20
173.465756075564
 10
180.436912700027
  20
173.514451939827
 10
180.480921625763
  20
173.562883423209
 10
180.520518813948
  20
173.607557094783
 10
180.554540874957
  20
173.644979523619
 10
180.58182441916
  20
173.671657278787
 10
180.601206056932
  20
173.684096929357
 10
180.604148163434
  20
173.684589479162
 10
180.606719381291
  20
173.684380532402
 10
180.608942593155
  20
173.683538801194
 10
180.610840681679
  20
173.682132997659
 10
180.612436529516
  20
173.680231833915
 10
180.613753019319
  20
173.677904022082
 10
180.61481303374
  20
173.675218274279
 10
180.615639455432
  20
173.672243302625
 10
180.616255167048
  20
173.669047819241
  0
LINE
  5
2F7
100
AcDbEntity
  8
0-0
100
AcDbLine
  6
DASHDOT
370
13
 10
259.968139116255
 20
212.602082395516
 11
227.112393351594
 21
231.571356057169
  0
LINE
  5
2F8
100
AcDbEntity
  8
0-0
100
AcDbLine
  6
CONTINUOUS
 62
7
370
30
 10
144.910664727721
 20
224.608806173971
 11
144.910664727721
 21
184.608807173971
  0
LINE
  5
2F9
100
AcDbEntity
  8
0-0
100
AcDbLine
  6
CONTINUOUS
 62
7
370
30
 10
135.010664727721
 20
189.608906173971
 11
135.010664727721
 21
219.608806173971
  0
LINE
  5
2FA
100
AcDbEntity
  8
0-0
100
AcDbLine
  6
CONTINUOUS
 62
7
370
30
 10
119.010664727721
 20
219.608806173971
 11
119.010664727721
 21
189.608806173971
  0
LINE
  5
2FB
100
AcDbEntity
  8
0-0
100
AcDbLine
  6
CONTINUOUS
 62
7
370
30
 10
147.910764727721
 20
202.108806173971
 11
146.910725727721
 21
202.108806173971
  0
LINE
  5
2FC
100
AcDbEntity
  8
0-0
100
AcDbLine
  6
CONTINUOUS
 62
7
370
30
 10
147.910764727721
 20
207.108806173971
 11
146.910702727721
 21
207.108806173971
  0
LINE
  5
2FD
100
AcDbEntity
  8
0-0
100
AcDbLine
  6
CONTINUOUS
 62
7
370
30
 10
143.910663727721
 20
183.608807173971
 11
119.010664727721
 21
183.608817173971
  0
LINE
  5
2FE
100
AcDbEntity
  8
0-0
100
AcDbLine
  6
CONTINUOUS
 62
7
370
30
 10
143.910664727721
 20
225.608806173971
 11
107.010664727721
 21
225.608806173971
  0
LINE
  5
2FF
100
AcDbEntity
  8
0-0
100
AcDbLine
  6
CONTINUOUS
 62
54
370
13
 10
119.410664727721
 20
215.918006173971
 11
119.410664727721
 21
225.608806173971
  0
LINE
  5
300
100
AcDbEntity
  8
0-0
100
AcDbLine
  6
CONTINUOUS
 62
54
370
13
 10
120.210664727721
 20
217.187806173971
 11
120.210664727721
 21
225.608806173971
  0
LINE
  5
301
100
AcDbEntity
  8
0-0
100
AcDbLine
  6
CONTINUOUS
 62
54
370
13
 10
121.010664727721
 20
218.457606173971
 11
121.010664727721
 21
225.608806173971
  0
LINE
  5
302
100
AcDbEntity
  8
0-0
100
AcDbLine
  6
CONTINUOUS
 62
54
370
13
 10
121.810664727721
 20
219.727406173971
 11
121.810664727721
 21
225.608806173971
  0
LINE
  5
303
100
AcDbEntity
  8
0-0
100
AcDbLine
  6
CONTINUOUS
 62
54
370
13
 10
122.610664727721
 20
220.997206173971
 11
122.610664727721
 21
225.608806173971
  0
LINE
  5
304
100
AcDbEntity
  8
0-0
100
AcDbLine
  6
CONTINUOUS
 62
54
370
13
 10
123.410664727721
 20
222.266906173971
 11
123.410664727721
 21
225.608806173971
  0
LINE
  5
305
100
AcDbEntity
  8
0-0
100
AcDbLine
  6
CONTINUOUS
 62
54
370
13
 10
134.610764727721
 20
193.299506173971
 11
134.610764727721
 21
183.608706173971
  0
LINE
  5
306
100
AcDbEntity
  8
0-0
100
AcDbLine
  6
CONTINUOUS
 62
54
370
13
 10
133.810764727721
 20
192.029706173971
 11
133.810764727721
 21
183.608706173971
  0
LINE
  5
307
100
AcDbEntity
  8
0-0
100
AcDbLine
  6
CONTINUOUS
 62
54
370
13
 10
133.010764727721
 20
190.759906173971
 11
133.010764727721
 21
183.608706173971
  0
LINE
  5
308
100
AcDbEntity
  8
0-0
100
AcDbLine
  6
CONTINUOUS
 62
54
370
13
 10
132.210764727721
 20
189.490106173971
 11
132.210764727721
 21
183.608706173971
  0
LINE
  5
309
100
AcDbEntity
  8
0-0
100
AcDbLine
  6
CONTINUOUS
 62
54
370
13
 10
131.410764727721
 20
188.220406173971
 11
131.410764727721
 21
183.608706173971
  0
LINE
  5
30A
100
AcDbEntity
  8
0-0
100
AcDbLine
  6
CONTINUOUS
 62
54
370
13
 10
130.610764727721
 20
186.950606173971
 11
130.610764727721
 21
183.608706173971
  0
LINE
  5
30B
100
AcDbEntity
  8
0-0
100
AcDbLine
  6
CONTINUOUS
 62
7
370
30
 10
135.010664727721
 20
189.608906173971
 11
119.010664727721
 21
189.608806173971
  0
LINE
  5
30C
100
AcDbEntity
  8
0-0
100
AcDbLine
  6
CONTINUOUS
 62
7
370
30
 10
135.010664727721
 20
219.608806173971
 11
119.010664727721
 21
219.608806173971
  0
LINE
  5
30D
100
AcDbEntity
  8
0-0
100
AcDbLine
  6
CONTINUOUS
 62
7
370
30
 10
144.910664727721
 20
224.608806173971
 11
144.910664727721
 21
224.239798173971
  0
LINE
  5
30E
100
AcDbEntity
  8
0-0
100
AcDbLine
  6
CONTINUOUS
 62
7
370
30
 10
146.910664727721
 20
215.608806173971
 11
144.910664727721
 21
215.608806173971
  0
LINE
  5
30F
100
AcDbEntity
  8
0-0
100
AcDbLine
  6
CONTINUOUS
 62
7
370
30
 10
146.910764727721
 20
193.608806173971
 11
144.910664727721
 21
193.608806173971
  0
LINE
  5
310
100
AcDbEntity
  8
0-0
100
AcDbLine
  6
CONTINUOUS
 62
7
370
30
 10
146.910764727721
 20
193.608806173971
 11
146.910664727721
 21
215.608806173971
  0
LINE
  5
311
100
AcDbEntity
  8
0-0
100
AcDbLine
  6
CONTINUOUS
 62
7
370
30
 10
135.010664727721
 20
219.608806173971
 11
135.010664727721
 21
225.608806173971
  0
LINE
  5
312
100
AcDbEntity
  8
0-0
100
AcDbLine
  6
CONTINUOUS
 62
7
370
30
 10
119.010664727721
 20
219.608806173971
 11
119.010664727721
 21
225.608806173971
  0
LINE
  5
313
100
AcDbEntity
  8
0-0
100
AcDbLine
  6
CONTINUOUS
 62
7
370
30
 10
135.010664727721
 20
189.608906173971
 11
135.010764727721
 21
183.608806173971
  0
LINE
  5
314
100
AcDbEntity
  8
0-0
100
AcDbLine
  6
CONTINUOUS
 62
7
370
30
 10
106.010664727721
 20
224.608806173971
 11
106.010679727721
 21
184.608806173971
  0
LINE
  5
315
100
AcDbEntity
  8
0-0
100
AcDbLine
  6
CONTINUOUS
 62
7
370
30
 10
119.010664727721
 20
181.608806173971
 11
119.010664727721
 21
189.608806173971
  0
LINE
  5
316
100
AcDbEntity
  8
0-0
100
AcDbLine
  6
CONTINUOUS
 62
7
370
30
 10
119.010664727721
 20
181.608806173971
 11
107.010675727721
 21
181.608806173971
  0
LINE
  5
317
100
AcDbEntity
  8
0-0
100
AcDbLine
  6
CONTINUOUS
 62
7
370
30
 10
106.010675727721
 20
182.608808173971
 11
106.010679727721
 21
184.608806173971
  0
LINE
  5
318
100
AcDbEntity
  8
0-0
100
AcDbLine
  6
CONTINUOUS
 62
7
370
30
 10
119.010664727721
 20
181.608806173971
 11
119.010664727721
 21
180.058806173971
  0
LINE
  5
319
100
AcDbEntity
  8
0-0
100
AcDbLine
  6
CONTINUOUS
 62
7
370
30
 10
119.010664727721
 20
180.058806173971
 11
113.610664727721
 21
180.058806173971
  0
LINE
  5
31A
100
AcDbEntity
  8
0-0
100
AcDbLine
  6
CONTINUOUS
 62
7
370
30
 10
113.610664727721
 20
180.058806173971
 11
113.610664727721
 21
181.608806173971
  0
LINE
  5
31B
100
AcDbEntity
  8
0-0
100
AcDbLine
  6
CONTINUOUS
 62
7
370
30
 10
114.210664727721
 20
180.058806173971
 11
114.210664727721
 21
179.058806173971
  0
LINE
  5
31C
100
AcDbEntity
  8
0-0
100
AcDbLine
  6
CONTINUOUS
 62
7
370
30
 10
114.210664727721
 20
179.058806173971
 11
119.010664727721
 21
179.058806173971
  0
LINE
  5
31D
100
AcDbEntity
  8
0-0
100
AcDbLine
  6
CONTINUOUS
 62
7
370
30
 10
119.010664727721
 20
179.058806173971
 11
119.010664727721
 21
180.058806173971
  0
ARC
  5
31E
100
AcDbEntity
  8
0-0
100
AcDbCircle
  6
CONTINUOUS
 62
7
370
30
 10
107.010664727721
 20
224.608806173971
 40
1
100
AcDbArc
 50
90
 51
180
  0
ARC
  5
31F
100
AcDbEntity
  8
0-0
100
AcDbCircle
  6
CONTINUOUS
 62
7
370
30
 10
143.910664727721
 20
184.608807173971
 40
1
100
AcDbArc
 50
-90.0000229999997
 51
0
  0
ARC
  5
320
100
AcDbEntity
  8
0-0
100
AcDbCircle
  6
CONTINUOUS
 62
7
370
30
 10
143.910664727721
 20
224.608806173971
 40
1
100
AcDbArc
 50
0
 51
90
  0
ARC
  5
321
100
AcDbEntity
  8
0-0
100
AcDbCircle
  6
CONTINUOUS
 62
7
370
30
 10
107.010675727721
 20
182.608806173971
 40
1
100
AcDbArc
 50
179.9999
 51
-90
  0
LINE
  5
322
100
AcDbEntity
  8
0-0
100
AcDbLine
  6
CONTINUOUS
370
30
 10
144.910664727721
 20
223.108806173972
 11
144.910664727721
 21
217.108806173972
  0
LINE
  5
323
100
AcDbEntity
  8
0-0
100
AcDbLine
  6
CONTINUOUS
370
30
 10
144.910664727721
 20
192.108806173972
 11
144.910664727721
 21
186.108806173972
  0
LINE
  5
324
100
AcDbEntity
  8
0-0
100
AcDbLine
  6
CONTINUOUS
370
13
 10
106.010675727722
 20
181.076697697266
 11
106.010675727722
 21
148.317193498798
  0
LINE
  5
325
100
AcDbEntity
  8
0-0
100
AcDbLine
  6
CONTINUOUS
370
13
 10
106.010675727722
 20
148.817193498798
 11
166.910664727721
 21
148.817193498798
  0
LINE
  5
326
100
AcDbEntity
  8
0-0
100
AcDbLine
  6
CONTINUOUS
370
13
 10
106.010675727722
 20
148.817193498798
 11
108.908453206589
 21
149.593650634106
  0
LINE
  5
327
100
AcDbEntity
  8
0-0
100
AcDbLine
  6
CONTINUOUS
370
13
 10
106.010675727722
 20
148.817193498798
 11
108.908453206589
 21
148.040736363491
  0
LINE
  5
328
100
AcDbEntity
  8
0-0
100
AcDbLine
  6
CONTINUOUS
370
13
 10
166.910664727721
 20
148.817193498798
 11
164.012887248853
 21
148.040736363491
  0
LINE
  5
329
100
AcDbEntity
  8
0-0
100
AcDbLine
  6
CONTINUOUS
370
13
 10
166.910664727721
 20
148.817193498798
 11
164.012887248853
 21
149.593650634106
  0
TEXT
  5
32A
100
AcDbEntity
  8
0-0
100
AcDbText
  6
CONTINUOUS
 10
128.960670227721
 20
149.067193498798
 40
6
  1
60.9
  7
Font_0
 72
1
 11
136.460670227721
 21
149.067193498798
100
AcDbText
  0
LINE
  5
32B
100
AcDbEntity
  8
0-0
100
AcDbLine
  6
CONTINUOUS
370
13
 10
166.910664727721
 20
168.182703489584
 11
166.910664727721
 21
148.317193498798
  0
LINE
  5
32C
100
AcDbEntity
  8
0-0
100
AcDbLine
  6
CONTINUOUS
370
50
 10
265.966894808762
 20
203.606317558985
 11
262.716894808762
 21
196.636670067328
  0
ARC
  5
32D
100
AcDbEntity
  8
0-0
100
AcDbCircle
  6
CONTINUOUS
370
50
 10
279.966894808762
 20
204.606317558985
 40
13
100
AcDbArc
 50
184.41172578577
 51
355.58827421423
  0
LINE
  5
32E
100
AcDbEntity
  8
0-0
100
AcDbLine
  6
CONTINUOUS
370
50
 10
262.716894808762
 20
179.606317558985
 11
297.216894808762
 21
179.606317558985
  0
LINE
  5
32F
100
AcDbEntity
  8
0-0
100
AcDbLine
  6
CONTINUOUS
370
50
 10
265.966894808762
 20
203.606317558985
 11
267.005413411947
 21
203.606317558985
  0
LINE
  5
330
100
AcDbEntity
  8
0-0
100
AcDbLine
  6
CONTINUOUS
370
50
 10
293.966894808762
 20
203.606317558985
 11
292.928376205578
 21
203.606317558985
  0
LINE
  5
331
100
AcDbEntity
  8
0-0
100
AcDbLine
  6
CONTINUOUS
370
50
 10
267.916894808762
 20
190.606317558985
 11
267.916894808762
 21
190.606317558985
  0
LINE
  5
332
100
AcDbEntity
  8
0-0
100
AcDbLine
  6
CONTINUOUS
370
50
 10
267.916894808762
 20
192.106317558985
 11
267.916894808762
 21
183.106317558985
  0
LINE
  5
333
100
AcDbEntity
  8
0-0
100
AcDbLine
  6
CONTINUOUS
370
50
 10
266.716894808762
 20
192.106317558985
 11
266.716894808762
 21
183.106317558985
  0
LINE
  5
334
100
AcDbEntity
  8
0-0
100
AcDbLine
  6
CONTINUOUS
370
50
 10
267.916894808762
 20
183.106317558985
 11
267.916894808762
 21
192.106317558985
  0
LINE
  5
335
100
AcDbEntity
  8
0-0
100
AcDbLine
  6
CONTINUOUS
370
50
 10
292.016894808762
 20
192.106317558985
 11
292.016894808762
 21
183.106317558985
  0
LINE
  5
336
100
AcDbEntity
  8
0-0
100
AcDbLine
  6
CONTINUOUS
370
50
 10
293.216894808762
 20
192.106317558985
 11
293.216894808762
 21
183.106317558985
  0
LINE
  5
337
100
AcDbEntity
  8
0-0
100
AcDbLine
  6
CONTINUOUS
370
50
 10
292.016894808762
 20
183.106317558985
 11
292.016894808762
 21
192.106317558985
  0
LINE
  5
338
100
AcDbEntity
  8
0-0
100
AcDbLine
  6
CONTINUOUS
370
50
 10
293.966894808762
 20
203.606317558985
 11
297.216894808762
 21
196.636670067329
  0
LINE
  5
339
100
AcDbEntity
  8
0-0
100
AcDbLine
  6
CONTINUOUS
370
50
 10
309.216894808762
 20
180.856317558985
 11
297.216894808762
 21
180.856317558985
  0
LINE
  5
33A
100
AcDbEntity
  8
0-0
100
AcDbLine
  6
CONTINUOUS
370
50
 10
309.216894808762
 20
194.356317558985
 11
297.216894808762
 21
194.356317558985
  0
LINE
  5
33B
100
AcDbEntity
  8
0-0
100
AcDbLine
  6
CONTINUOUS
370
50
 10
309.216894808762
 20
180.856317558985
 11
309.216894808762
 21
194.356317558985
  0
LINE
  5
33C
100
AcDbEntity
  8
0-0
100
AcDbLine
  6
CONTINUOUS
370
50
 10
293.216894808762
 20
183.106317558985
 11
293.216894808762
 21
192.106317558985
  0
LINE
  5
33D
100
AcDbEntity
  8
0-0
100
AcDbLine
  6
CONTINUOUS
370
50
 10
297.216894808762
 20
192.106317558985
 11
297.216894808762
 21
194.356317558985
  0
LINE
  5
33E
100
AcDbEntity
  8
0-0
100
AcDbLine
  6
CONTINUOUS
370
50
 10
297.216894808762
 20
180.856317558985
 11
297.216894808762
 21
183.106317558985
  0
LINE
  5
33F
100
AcDbEntity
  8
0-0
100
AcDbLine
  6
CONTINUOUS
370
50
 10
297.216894808762
 20
196.636670067329
 11
297.216894808762
 21
192.106317558985
  0
LINE
  5
340
100
AcDbEntity
  8
0-0
100
AcDbLine
  6
CONTINUOUS
370
50
 10
297.216894808762
 20
183.106317558985
 11
297.216894808762
 21
179.606317558985
  0
LINE
  5
341
100
AcDbEntity
  8
0-0
100
AcDbLine
  6
CONTINUOUS
370
50
 10
262.716894808762
 20
183.106317558985
 11
262.716894808762
 21
179.606317558985
  0
LINE
  5
342
100
AcDbEntity
  8
0-0
100
AcDbLine
  6
CONTINUOUS
370
50
 10
262.716894808762
 20
192.106317558985
 11
262.716894808762
 21
196.636670067328
  0
LINE
  5
343
100
AcDbEntity
  8
0-0
100
AcDbLine
  6
CONTINUOUS
370
50
 10
262.716894808762
 20
183.106317558985
 11
267.916894808762
 21
183.106317558985
  0
LINE
  5
344
100
AcDbEntity
  8
0-0
100
AcDbLine
  6
CONTINUOUS
370
50
 10
262.716894808762
 20
192.106317558985
 11
267.916894808762
 21
192.106317558985
  0
LINE
  5
345
100
AcDbEntity
  8
0-0
100
AcDbLine
  6
CONTINUOUS
370
50
 10
292.016894808762
 20
183.106317558985
 11
297.216894808762
 21
183.106317558985
  0
LINE
  5
346
100
AcDbEntity
  8
0-0
100
AcDbLine
  6
CONTINUOUS
370
50
 10
297.216894808762
 20
183.106317558985
 11
293.216894808762
 21
183.106317558985
  0
LINE
  5
347
100
AcDbEntity
  8
0-0
100
AcDbLine
  6
CONTINUOUS
370
50
 10
297.216894808762
 20
192.106317558985
 11
293.216894808762
 21
192.106317558985
  0
LINE
  5
348
100
AcDbEntity
  8
0-0
100
AcDbLine
  6
CONTINUOUS
370
50
 10
292.016894808762
 20
192.106317558985
 11
297.216894808762
 21
192.106317558985
  0
LINE
  5
349
100
AcDbEntity
  8
0-0
100
AcDbLine
  6
CONTINUOUS
370
50
 10
266.716894808762
 20
183.106317558985
 11
267.916894808762
 21
183.106317558985
  0
LINE
  5
34A
100
AcDbEntity
  8
0-0
100
AcDbLine
  6
CONTINUOUS
370
50
 10
267.916894808762
 20
192.106317558985
 11
266.716894808762
 21
192.106317558985
  0
LINE
  5
34B
100
AcDbEntity
  8
0-0
100
AcDbLine
  6
CONTINUOUS
370
50
 10
293.216894808762
 20
183.106317558985
 11
292.016894808762
 21
183.106317558985
  0
LINE
  5
34C
100
AcDbEntity
  8
0-0
100
AcDbLine
  6
CONTINUOUS
370
50
 10
292.016894808762
 20
192.106317558985
 11
293.216894808762
 21
192.106317558985
  0
LINE
  5
34D
100
AcDbEntity
  8
0-0
100
AcDbLine
  6
CONTINUOUS
370
50
 10
250.716894808762
 20
180.856317558985
 11
262.716894808762
 21
180.856317558985
  0
LINE
  5
34E
100
AcDbEntity
  8
0-0
100
AcDbLine
  6
CONTINUOUS
370
50
 10
250.716894808762
 20
194.356317558985
 11
262.716894808762
 21
194.356317558985
  0
LINE
  5
34F
100
AcDbEntity
  8
0-0
100
AcDbLine
  6
CONTINUOUS
370
50
 10
250.716894808762
 20
180.856317558985
 11
250.716894808762
 21
194.356317558985
  0
LINE
  5
350
100
AcDbEntity
  8
0-0
100
AcDbLine
  6
CONTINUOUS
370
50
 10
266.716894808762
 20
183.106317558985
 11
266.716894808762
 21
192.106317558985
  0
LINE
  5
351
100
AcDbEntity
  8
0-0
100
AcDbLine
  6
CONTINUOUS
370
50
 10
262.716894808762
 20
192.106317558985
 11
262.716894808762
 21
194.356317558985
  0
LINE
  5
352
100
AcDbEntity
  8
0-0
100
AcDbLine
  6
CONTINUOUS
370
50
 10
262.716894808762
 20
180.856317558985
 11
262.716894808762
 21
183.106317558985
  0
LINE
  5
353
100
AcDbEntity
  8
0-0
100
AcDbLine
  6
CONTINUOUS
370
50
 10
262.716894808762
 20
183.106317558985
 11
266.716894808762
 21
183.106317558985
  0
LINE
  5
354
100
AcDbEntity
  8
0-0
100
AcDbLine
  6
CONTINUOUS
370
50
 10
262.716894808762
 20
192.106317558985
 11
266.716894808762
 21
192.106317558985
  0
LINE
  5
355
100
AcDbEntity
  8
0-0
100
AcDbLine
  6
CONTINUOUS
370
50
 10
304.966894808762
 20
180.106317558986
 11
304.966894808762
 21
180.856317558985
  0
LINE
  5
356
100
AcDbEntity
  8
0-0
100
AcDbLine
  6
CONTINUOUS
370
50
 10
304.966894808762
 20
194.356317558985
 11
304.966894808762
 21
229.106317558984
  0
LINE
  5
357
100
AcDbEntity
  8
0-0
100
AcDbLine
  6
CONTINUOUS
370
13
 10
304.466894808762
 20
180.106317558986
 11
304.466894808762
 21
180.856317558985
  0
LINE
  5
358
100
AcDbEntity
  8
0-0
100
AcDbLine
  6
CONTINUOUS
370
13
 10
304.466894808762
 20
194.356317558985
 11
304.466894808762
 21
229.106317558984
  0
LINE
  5
359
100
AcDbEntity
  8
0-0
100
AcDbLine
  6
CONTINUOUS
370
50
 10
254.966894808762
 20
180.106317558986
 11
254.966894808762
 21
180.856317558985
  0
LINE
  5
35A
100
AcDbEntity
  8
0-0
100
AcDbLine
  6
CONTINUOUS
370
50
 10
254.966894808762
 20
194.356317558985
 11
254.966894808762
 21
229.106317558984
  0
LINE
  5
35B
100
AcDbEntity
  8
0-0
100
AcDbLine
  6
CONTINUOUS
370
13
 10
254.966894808762
 20
180.106317558986
 11
262.716894808762
 21
180.106317558986
  0
LINE
  5
35C
100
AcDbEntity
  8
0-0
100
AcDbLine
  6
CONTINUOUS
370
13
 10
297.216894808762
 20
180.106317558986
 11
304.466894808762
 21
180.106317558986
  0
CIRCLE
  5
35D
100
AcDbEntity
  8
0-0
100
AcDbCircle
  6
CONTINUOUS
370
50
 10
272.966894808762
 20
182.606317558985
 40
2.5
  0
CIRCLE
  5
35E
100
AcDbEntity
  8
0-0
100
AcDbCircle
  6
CONTINUOUS
370
50
 10
286.966894808762
 20
182.606317558985
 40
2.5
  0
ARC
  5
35F
100
AcDbEntity
  8
0-0
100
AcDbCircle
  6
CONTINUOUS
370
30
 10
272.966894808762
 20
182.606317558985
 40
2
100
AcDbArc
 50
-48.6609893974343
 51
-48.6609893974337
  0
LINE
  5
360
100
AcDbEntity
  8
0-0
100
AcDbLine
  6
CONTINUOUS
370
13
 10
273.462147079951
 20
183.456317558985
 11
272.471642537574
 21
183.456317558985
  0
LINE
  5
361
100
AcDbEntity
  8
0-0
100
AcDbLine
  6
CONTINUOUS
370
13
 10
273.462147079951
 20
181.756317558985
 11
272.471642537574
 21
181.756317558985
  0
LINE
  5
362
100
AcDbEntity
  8
0-0
100
AcDbLine
  6
CONTINUOUS
370
13
 10
271.980894808762
 20
182.606317558985
 11
272.471642537574
 21
181.756317558985
  0
LINE
  5
363
100
AcDbEntity
  8
0-0
100
AcDbLine
  6
CONTINUOUS
370
13
 10
273.952894808762
 20
182.606317558985
 11
273.462147079951
 21
183.456317558985
  0
LINE
  5
364
100
AcDbEntity
  8
0-0
100
AcDbLine
  6
CONTINUOUS
370
13
 10
273.952894808762
 20
182.606317558985
 11
273.462147079951
 21
181.756317558985
  0
LINE
  5
365
100
AcDbEntity
  8
0-0
100
AcDbLine
  6
CONTINUOUS
370
13
 10
271.980894808762
 20
182.606317558985
 11
272.471642537574
 21
183.456317558985
  0
ARC
  5
366
100
AcDbEntity
  8
0-0
100
AcDbCircle
  6
CONTINUOUS
370
13
 10
272.966894808762
 20
182.606317558985
 40
1.8
100
AcDbArc
 50
-56.5366215638199
 51
-56.5366215638199
  0
ARC
  5
367
100
AcDbEntity
  8
0-0
100
AcDbCircle
  6
CONTINUOUS
370
30
 10
286.966894808762
 20
182.606317558985
 40
2
100
AcDbArc
 50
-51.452207747534
 51
-51.9170618194881
  0
LINE
  5
368
100
AcDbEntity
  8
0-0
100
AcDbLine
  6
CONTINUOUS
370
13
 10
287.462147079951
 20
183.456317558985
 11
286.471642537574
 21
183.456317558985
  0
LINE
  5
369
100
AcDbEntity
  8
0-0
100
AcDbLine
  6
CONTINUOUS
370
13
 10
287.462147079951
 20
181.756317558985
 11
286.471642537574
 21
181.756317558985
  0
LINE
  5
36A
100
AcDbEntity
  8
0-0
100
AcDbLine
  6
CONTINUOUS
370
13
 10
285.980894808762
 20
182.606317558985
 11
286.471642537574
 21
181.756317558985
  0
LINE
  5
36B
100
AcDbEntity
  8
0-0
100
AcDbLine
  6
CONTINUOUS
370
13
 10
287.952894808762
 20
182.606317558985
 11
287.462147079951
 21
183.456317558985
  0
LINE
  5
36C
100
AcDbEntity
  8
0-0
100
AcDbLine
  6
CONTINUOUS
370
13
 10
287.952894808762
 20
182.606317558985
 11
287.462147079951
 21
181.756317558985
  0
LINE
  5
36D
100
AcDbEntity
  8
0-0
100
AcDbLine
  6
CONTINUOUS
370
13
 10
285.980894808762
 20
182.606317558985
 11
286.471642537574
 21
183.456317558985
  0
ARC
  5
36E
100
AcDbEntity
  8
0-0
100
AcDbCircle
  6
CONTINUOUS
370
13
 10
286.966894808762
 20
182.606317558985
 40
1.8
100
AcDbArc
 50
-56.5366215638199
 51
-56.5366215638199
  0
LINE
  5
36F
100
AcDbEntity
  8
0-0
100
AcDbLine
  6
CONTINUOUS
370
50
 10
192.610343759385
 20
179.606317558987
 11
176.110343759385
 21
179.606317558987
  0
LINE
  5
370
100
AcDbEntity
  8
0-0
100
AcDbLine
  6
CONTINUOUS
370
50
 10
192.610343759385
 20
203.606317558987
 11
176.110343759385
 21
203.606317558987
  0
LINE
  5
371
100
AcDbEntity
  8
0-0
100
AcDbLine
  6
CONTINUOUS
370
50
 10
176.110343759385
 20
203.606317558987
 11
176.110343759385
 21
179.606317558987
  0
LINE
  5
372
100
AcDbEntity
  8
0-0
100
AcDbLine
  6
CONTINUOUS
370
50
 10
192.610343759385
 20
197.172796797458
 11
183.360343759385
 21
197.172796797458
  0
LINE
  5
373
100
AcDbEntity
  8
0-0
100
AcDbLine
  6
CONTINUOUS
370
50
 10
177.860343759385
 20
197.172796797461
 11
176.110343759385
 21
197.172796797461
  0
LINE
  5
374
100
AcDbEntity
  8
0-0
100
AcDbLine
  6
CONTINUOUS
370
50
 10
177.860343759385
 20
197.172796797461
 11
180.610343759385
 21
203.07019082886
  0
LINE
  5
375
100
AcDbEntity
  8
0-0
100
AcDbLine
  6
CONTINUOUS
370
50
 10
183.360343759385
 20
197.172796797458
 11
180.610343759385
 21
203.07019082886
  0
LINE
  5
376
100
AcDbEntity
  8
0-0
100
AcDbLine
  6
CONTINUOUS
370
50
 10
177.860343759385
 20
179.606317558987
 11
177.860343759385
 21
182.513430362121
  0
LINE
  5
377
100
AcDbEntity
  8
0-0
100
AcDbLine
  6
CONTINUOUS
370
50
 10
177.860343759385
 20
192.699204755853
 11
177.860343759385
 21
197.172796797461
  0
LINE
  5
378
100
AcDbEntity
  8
0-0
100
AcDbLine
  6
CONTINUOUS
370
50
 10
183.360343759385
 20
179.606317558987
 11
183.360343759385
 21
180.856317558987
  0
LINE
  5
379
100
AcDbEntity
  8
0-0
100
AcDbLine
  6
CONTINUOUS
370
50
 10
183.360343759385
 20
194.356317558987
 11
183.360343759385
 21
197.172796797458
  0
LINE
  5
37A
100
AcDbEntity
  8
0-0
100
AcDbLine
  6
CONTINUOUS
370
50
 10
180.610343759385
 20
179.606317558987
 11
180.610343759385
 21
180.87673710843
  0
LINE
  5
37B
100
AcDbEntity
  8
0-0
100
AcDbLine
  6
CONTINUOUS
370
50
 10
180.610343759385
 20
194.367469688405
 11
180.610343759385
 21
203.07019082886
  0
LINE
  5
37C
100
AcDbEntity
  8
0-0
100
AcDbLine
  6
CONTINUOUS
370
50
 10
176.110343759385
 20
191.606317558987
 11
176.110343759385
 21
183.606317558987
  0
LINE
  5
37D
100
AcDbEntity
  8
0-0
100
AcDbLine
  6
CONTINUOUS
370
50
 10
176.110343759385
 20
203.606317558987
 11
176.110343759385
 21
179.606317558987
  0
LINE
  5
37E
100
AcDbEntity
  8
0-0
100
AcDbLine
  6
CONTINUOUS
370
50
 10
176.110343759385
 20
203.606317558987
 11
176.110343759385
 21
179.606317558987
  0
CIRCLE
  5
37F
100
AcDbEntity
  8
0-0
100
AcDbCircle
  6
CONTINUOUS
370
13
 10
188.610343759385
 20
187.606317558987
 40
2.5
  0
CIRCLE
  5
380
100
AcDbEntity
  8
0-0
100
AcDbCircle
  6
CONTINUOUS
370
50
 10
188.610343759385
 20
187.606317558987
 40
2.5
  0
LINE
  5
381
100
AcDbEntity
  8
0-0
100
AcDbLine
  6
CONTINUOUS
370
50
 10
178.924867376365
 20
194.356317558987
 11
196.295820142405
 21
194.356317558987
  0
LINE
  5
382
100
AcDbEntity
  8
0-0
100
AcDbLine
  6
CONTINUOUS
370
50
 10
178.924867376365
 20
180.856317558987
 11
196.295820142405
 21
180.856317558987
  0
ARC
  5
383
100
AcDbEntity
  8
0-0
100
AcDbCircle
  6
CONTINUOUS
370
50
 10
187.610343759385
 20
187.606317558987
 40
11
100
AcDbArc
 50
322.147097267656
 51
397.852902732344
  0
ARC
  5
384
100
AcDbEntity
  8
0-0
100
AcDbCircle
  6
CONTINUOUS
370
50
 10
187.610343759385
 20
187.606317558987
 40
11
100
AcDbArc
 50
142.147097267656
 51
217.852902732344
  0
LINE
  5
385
100
AcDbEntity
  8
0-0
100
AcDbLine
  6
CONTINUOUS
370
50
 10
177.591873939651
 20
183.106317558987
 11
176.110343759385
 21
183.106317558987
  0
LINE
  5
386
100
AcDbEntity
  8
0-0
100
AcDbLine
  6
CONTINUOUS
370
50
 10
177.583859059697
 20
192.106317558987
 11
176.110343759385
 21
192.106317558987
  0
LINE
  5
387
100
AcDbEntity
  8
0-0
100
AcDbLine
  6
CONTINUOUS
370
50
 10
176.110343759385
 20
183.106317558987
 11
177.591873939651
 21
183.106317558987
  0
LINE
  5
388
100
AcDbEntity
  8
0-0
100
AcDbLine
  6
CONTINUOUS
370
50
 10
177.583859059697
 20
192.106317558987
 11
176.110343759385
 21
192.106317558987
  0
LINE
  5
389
100
AcDbEntity
  8
0-0
100
AcDbLine
  6
CONTINUOUS
370
50
 10
192.610343759385
 20
203.606317558987
 11
192.610343759385
 21
194.356317558987
  0
LINE
  5
38A
100
AcDbEntity
  8
0-0
100
AcDbLine
  6
CONTINUOUS
370
50
 10
192.610343759385
 20
180.856317558987
 11
192.610343759385
 21
179.606317558987
  0
CIRCLE
  5
38B
100
AcDbEntity
  8
0-0
100
AcDbCircle
  6
DIVIDE
370
13
 10
188.610343759385
 20
187.606317558987
 40
2.5
  0
LINE
  5
38C
100
AcDbEntity
  8
0-0
100
AcDbLine
  6
DIVIDE
370
13
 10
181.860343759385
 20
177.920841175967
 11
181.860343759385
 21
195.291793942007
  0
LINE
  5
38D
100
AcDbEntity
  8
0-0
100
AcDbLine
  6
DIVIDE
370
13
 10
195.360343759385
 20
177.920841175967
 11
195.360343759385
 21
195.291793942007
  0
ARC
  5
38E
100
AcDbEntity
  8
0-0
100
AcDbCircle
  6
DIVIDE
370
13
 10
188.610343759385
 20
186.606317558987
 40
11
100
AcDbArc
 50
412.147097267656
 51
487.852902732344
  0
ARC
  5
38F
100
AcDbEntity
  8
0-0
100
AcDbCircle
  6
DIVIDE
370
13
 10
188.610343759385
 20
186.606317558987
 40
11
100
AcDbArc
 50
232.147097267656
 51
307.852902732344
  0
LINE
  5
390
100
AcDbEntity
  8
0-0
100
AcDbLine
  6
DIVIDE
370
13
 10
315.216894808762
 20
177.606317558985
 11
315.216894808762
 21
199.606317558985
  0
LINE
  5
391
100
AcDbEntity
  8
0-0
100
AcDbLine
  6
DIVIDE
370
13
 10
315.216894808762
 20
199.606317558985
 11
299.216894808762
 21
199.606317558985
  0
LINE
  5
392
100
AcDbEntity
  8
0-0
100
AcDbLine
  6
DIVIDE
370
13
 10
315.216894808762
 20
177.606317558985
 11
299.216894808762
 21
177.606317558985
  0
LINE
  5
393
100
AcDbEntity
  8
0-0
100
AcDbLine
  6
DIVIDE
370
13
 10
315.216894808762
 20
179.916317558985
 11
303.216894808762
 21
179.916317558985
  0
LINE
  5
394
100
AcDbEntity
  8
0-0
100
AcDbLine
  6
DIVIDE
370
13
 10
315.216894808762
 20
197.296317558985
 11
303.216894808762
 21
197.296317558985
  0
LINE
  5
395
100
AcDbEntity
  8
0-0
100
AcDbLine
  6
DIVIDE
370
13
 10
303.216894808762
 20
178.806317558985
 11
299.216894808762
 21
178.806317558985
  0
LINE
  5
396
100
AcDbEntity
  8
0-0
100
AcDbLine
  6
DIVIDE
370
13
 10
303.216894808762
 20
198.406317558985
 11
299.216894808762
 21
198.406317558985
  0
LINE
  5
397
100
AcDbEntity
  8
0-0
100
AcDbLine
  6
DIVIDE
370
13
 10
300.716894808762
 20
195.606317558985
 11
299.216894808762
 21
194.106317558985
  0
LINE
  5
398
100
AcDbEntity
  8
0-0
100
AcDbLine
  6
DIVIDE
370
13
 10
300.716894808762
 20
195.606317558985
 11
299.216894808762
 21
197.106317558985
  0
LINE
  5
399
100
AcDbEntity
  8
0-0
100
AcDbLine
  6
DIVIDE
370
13
 10
299.216894808762
 20
177.606317558985
 11
299.216894808762
 21
194.106317558985
  0
LINE
  5
39A
100
AcDbEntity
  8
0-0
100
AcDbLine
  6
DIVIDE
370
13
 10
299.216894808762
 20
197.106317558985
 11
299.216894808762
 21
199.606317558985
  0
LINE
  5
39B
100
AcDbEntity
  8
0-0
100
AcDbLine
  6
DIVIDE
370
13
 10
303.216894808762
 20
178.806317558985
 11
303.216894808762
 21
198.406317558985
  0
CIRCLE
  5
39C
100
AcDbEntity
  8
0-0
100
AcDbCircle
  6
DIVIDE
370
13
 10
308.716894808762
 20
187.606317558985
 40
1.15
  0
LINE
  5
39D
100
AcDbEntity
  8
0-0
100
AcDbLine
  6
DIVIDE
370
13
 10
244.716894808762
 20
177.606317558985
 11
244.716894808762
 21
199.606317558985
  0
LINE
  5
39E
100
AcDbEntity
  8
0-0
100
AcDbLine
  6
DIVIDE
370
13
 10
244.716894808762
 20
199.606317558985
 11
260.716894808762
 21
199.606317558985
  0
LINE
  5
39F
100
AcDbEntity
  8
0-0
100
AcDbLine
  6
DIVIDE
370
13
 10
244.716894808762
 20
177.606317558985
 11
260.716894808762
 21
177.606317558985
  0
LINE
  5
3A0
100
AcDbEntity
  8
0-0
100
AcDbLine
  6
DIVIDE
370
13
 10
244.716894808762
 20
179.916317558985
 11
256.716894808762
 21
179.916317558985
  0
LINE
  5
3A1
100
AcDbEntity
  8
0-0
100
AcDbLine
  6
DIVIDE
370
13
 10
244.716894808762
 20
197.296317558985
 11
256.716894808762
 21
197.296317558985
  0
LINE
  5
3A2
100
AcDbEntity
  8
0-0
100
AcDbLine
  6
DIVIDE
370
13
 10
256.716894808762
 20
178.806317558985
 11
260.716894808762
 21
178.806317558985
  0
LINE
  5
3A3
100
AcDbEntity
  8
0-0
100
AcDbLine
  6
DIVIDE
370
13
 10
256.716894808762
 20
198.406317558985
 11
260.716894808762
 21
198.406317558985
  0
LINE
  5
3A4
100
AcDbEntity
  8
0-0
100
AcDbLine
  6
DIVIDE
370
13
 10
259.216894808762
 20
195.606317558985
 11
260.716894808762
 21
194.106317558985
  0
LINE
  5
3A5
100
AcDbEntity
  8
0-0
100
AcDbLine
  6
DIVIDE
370
13
 10
259.216894808762
 20
195.606317558985
 11
260.716894808762
 21
197.106317558985
  0
LINE
  5
3A6
100
AcDbEntity
  8
0-0
100
AcDbLine
  6
DIVIDE
370
13
 10
260.716894808762
 20
177.606317558985
 11
260.716894808762
 21
194.106317558985
  0
LINE
  5
3A7
100
AcDbEntity
  8
0-0
100
AcDbLine
  6
DIVIDE
370
13
 10
260.716894808762
 20
197.106317558985
 11
260.716894808762
 21
199.606317558985
  0
LINE
  5
3A8
100
AcDbEntity
  8
0-0
100
AcDbLine
  6
DIVIDE
370
13
 10
256.716894808762
 20
178.806317558985
 11
256.716894808762
 21
198.406317558985
  0
CIRCLE
  5
3A9
100
AcDbEntity
  8
0-0
100
AcDbCircle
  6
DIVIDE
370
13
 10
251.216894808762
 20
187.606317558985
 40
1.15
  0
ARC
  5
3AA
100
AcDbEntity
  8
0-0
100
AcDbCircle
  6
CONTINUOUS
370
30
 10
272.966894808762
 20
182.606317558985
 40
2
100
AcDbArc
 50
-51.452207747534
 51
-51.9170618194881
  0
MTEXT
  5
3AB
100
AcDbEntity
  8
0-0
100
AcDbMText
 10
25.4676056137873
 20
134.592508721515
 40
6
 41
  0.0
  1
\Lパネルカット寸法
  7
Font_0
  0
LINE
  5
3AC
100
AcDbEntity
  8
0-0
100
AcDbLine
  6
DASHDOT
370
13
 10
83.8293897778628
 20
70.4294488018752
 11
129.258839662268
 21
70.4294488018752
  0
LINE
  5
3AD
100
AcDbEntity
  8
0-0
100
AcDbLine
  6
DASHDOT
370
13
 10
104.98117619603
 20
34.5805554468256
 11
104.98117619603
 21
104.80123731207
  0
LINE
  5
3AE
100
AcDbEntity
  8
0-0
100
AcDbLine
  6
CONTINUOUS
370
13
 10
117.143272485277
 20
67.5200804062701
 11
92.8241754663618
 21
73.3375982579453
  0
LINE
  5
3AF
100
AcDbEntity
  8
0-0
100
AcDbLine
  6
CONTINUOUS
370
13
 10
117.143272485277
 20
67.5200804062701
 11
114.14436557962
 21
67.4391028093492
  0
LINE
  5
3B0
100
AcDbEntity
  8
0-0
100
AcDbLine
  6
CONTINUOUS
370
13
 10
117.143272485277
 20
67.5200804062701
 11
114.505654122933
 21
68.9494052030277
  0
LINE
  5
3B1
100
AcDbEntity
  8
0-0
100
AcDbLine
  6
CONTINUOUS
370
13
 10
92.8241754663618
 20
73.3375982579453
 11
95.8230823720187
 21
73.4185758548662
  0
LINE
  5
3B2
100
AcDbEntity
  8
0-0
100
AcDbLine
  6
CONTINUOUS
370
13
 10
92.8241754663618
 20
73.3375982579453
 11
95.4617938287057
 21
71.9082734611877
  0
TEXT
  5
3B3
100
AcDbEntity
  8
0-0
100
AcDbText
  6
CONTINUOUS
 10
128.717280132551
 20
65.1813679796416
 40
7
  1
φ25
  7
Font_0
 50
-13.45325395595
 72
2
 11
145.906804761926
 21
68.2668570844862
100
AcDbText
 73
3
  0
POINT
  5
3B4
100
AcDbEntity
  8
0-0
100
AcDbPoint
 10
104.98117619603
 20
70.4294488018752
  0
LINE
  5
3B5
100
AcDbEntity
  8
0-0
100
AcDbLine
  6
CONTINUOUS
370
13
 10
143.670982404924
 20
61.174226943801
 11
92.8241754663618
 21
73.3375982579453
  0
LINE
  5
3B6
100
AcDbEntity
  8
0-0
100
AcDbLine
  6
CONTINUOUS
370
13
 10
86.2911602337906
 20
58.8241352201046
 11
123.67119215827
 21
82.0347623836459
  0
LINE
  5
3B7
100
AcDbEntity
  8
0-0
100
AcDbLine
  6
CONTINUOUS
370
13
 10
86.2911602337906
 20
58.8241352201046
 11
88.3433638154724
 21
61.01239033762
  0
LINE
  5
3B8
100
AcDbEntity
  8
0-0
100
AcDbLine
  6
CONTINUOUS
370
13
 10
86.2911602337906
 20
58.8241352201046
 11
89.1625482280221
 21
59.6931179509934
  0
LINE
  5
3B9
100
AcDbEntity
  8
0-0
100
AcDbLine
  6
CONTINUOUS
370
13
 10
123.67119215827
 20
82.0347623836459
 11
121.618988576588
 21
79.8465072661304
  0
LINE
  5
3BA
100
AcDbEntity
  8
0-0
100
AcDbLine
  6
CONTINUOUS
370
13
 10
123.67119215827
 20
82.0347623836459
 11
120.799804164038
 21
81.1657796527571
  0
TEXT
  5
3BB
100
AcDbEntity
  8
0-0
100
AcDbText
  6
CONTINUOUS
 10
131.805099669372
 20
87.4817219937799
 40
7
  1
P.C.D44
  7
Font_0
 50
31.8376563092736
 72
1
 11
141.068079139907
 21
101.473137623674
100
AcDbText
 73
3
  0
POINT
  5
3BC
100
AcDbEntity
  8
0-0
100
AcDbPoint
 10
104.98117619603
 20
70.4294488018752
  0
LINE
  5
3BD
100
AcDbEntity
  8
0-0
100
AcDbLine
  6
CONTINUOUS
370
13
 10
123.67119215827
 20
82.0347623836459
 11
159.053231687714
 21
104.004763090515
  0
MTEXT
  5
3BE
100
AcDbEntity
  8
0-0
100
AcDbMText
 10
48.9021420800349
 20
117.416837310817
 40
6
 41
  0.0
  1
4-φ3.5\PM3皿ｻﾞｸﾞﾘ
 71
5
  7
Font_0
  0
LINE
  5
3BF
100
AcDbEntity
  8
0-0
100
AcDbLine
  6
CONTINUOUS
370
13
 10
87.7134092430638
 20
87.6972157548416
 11
64.3315896337796
 21
111.079035364126
  0
LINE
  5
3C0
100
AcDbEntity
  8
0-0
100
AcDbLine
  6
CONTINUOUS
370
13
 10
87.7134092430638
 20
87.6972157548416
 11
85.1153330317105
 21
89.1972157548416
  0
LINE
  5
3C1
100
AcDbEntity
  8
0-0
100
AcDbLine
  6
CONTINUOUS
370
13
 10
87.7134092430638
 20
87.6972157548416
 11
86.2134092430638
 21
90.2952919661949
  0
LINE
  5
3C2
100
AcDbEntity
  8
0-0
100
AcDbLine
  6
CONTINUOUS
370
13
 10
64.3315896337796
 20
111.079035364126
 11
32.4356952578796
 21
111.079035364126
  0
LINE
  5
3C3
100
AcDbEntity
  8
0-0
100
AcDbLine
  6
CONTINUOUS
370
13
 10
105.85617619603
 20
93.944993258498
 11
120.353962069002
 21
119.05589498774
  0
LINE
  5
3C4
100
AcDbEntity
  8
0-0
100
AcDbLine
  6
CONTINUOUS
370
13
 10
105.85617619603
 20
93.944993258498
 11
106.632633331338
 21
96.8427707373652
  0
LINE
  5
3C5
100
AcDbEntity
  8
0-0
100
AcDbLine
  6
CONTINUOUS
370
13
 10
105.85617619603
 20
93.944993258498
 11
107.97749653959
 21
96.0663136020577
  0
TEXT
  5
3C6
100
AcDbEntity
  8
0-0
100
AcDbText
  6
CONTINUOUS
 10
90.1785355884592
 20
119.05589498774
 40
6
  1
3-φ3.5
  7
Font_0
 72
2
 11
116.178535588459
 21
119.05589498774
100
AcDbText
  0
LINE
  5
3C7
100
AcDbEntity
  8
0-0
100
AcDbLine
  6
CONTINUOUS
370
13
 10
120.353962069002
 20
119.05589498774
 11
89.6830815653617
 21
119.05589498774
  0
CIRCLE
  5
3C8
100
AcDbEntity
  8
0-0
100
AcDbCircle
  6
CONTINUOUS
370
40
 10
89.4811761960302
 20
85.9294488018752
 40
1.75
  0
CIRCLE
  5
3C9
100
AcDbEntity
  8
0-0
100
AcDbCircle
  6
CONTINUOUS
370
30
 10
89.4811761960302
 20
85.9294488018752
 40
2.5
  0
CIRCLE
  5
3CA
100
AcDbEntity
  8
0-0
100
AcDbCircle
  6
CONTINUOUS
370
40
 10
120.48117619603
 20
85.9294488018752
 40
1.75
  0
CIRCLE
  5
3CB
100
AcDbEntity
  8
0-0
100
AcDbCircle
  6
CONTINUOUS
370
30
 10
120.48117619603
 20
85.9294488018752
 40
2.5
  0
CIRCLE
  5
3CC
100
AcDbEntity
  8
0-0
100
AcDbCircle
  6
CONTINUOUS
370
40
 10
120.48117619603
 20
54.9294488018752
 40
1.75
  0
CIRCLE
  5
3CD
100
AcDbEntity
  8
0-0
100
AcDbCircle
  6
CONTINUOUS
370
30
 10
120.48117619603
 20
54.9294488018752
 40
2.5
  0
CIRCLE
  5
3CE
100
AcDbEntity
  8
0-0
100
AcDbCircle
  6
CONTINUOUS
370
40
 10
89.4811761960302
 20
54.9294488018752
 40
1.75
  0
CIRCLE
  5
3CF
100
AcDbEntity
  8
0-0
100
AcDbCircle
  6
CONTINUOUS
370
30
 10
89.4811761960302
 20
54.9294488018752
 40
2.5
  0
LINE
  5
3D0
100
AcDbEntity
  8
0-0
100
AcDbLine
  6
DASHDOT
370
13
 10
120.48117619603
 20
51.2079194317979
 11
120.48117619603
 21
59.7962553072227
  0
LINE
  5
3D1
100
AcDbEntity
  8
0-0
100
AcDbLine
  6
DASHDOT
370
13
 10
120.48117619603
 20
81.6345971662572
 11
120.48117619603
 21
90.743422535825
  0
LINE
  5
3D2
100
AcDbEntity
  8
0-0
100
AcDbLine
  6
DASHDOT
370
13
 10
124.908923703448
 20
85.9294488018752
 11
116.094190415791
 21
85.9294488018752
  0
LINE
  5
3D3
100
AcDbEntity
  8
0-0
100
AcDbLine
  6
DASHDOT
370
13
 10
94.0656486081471
 20
85.9294488018752
 11
84.482638706444
 21
85.9294488018752
  0
LINE
  5
3D4
100
AcDbEntity
  8
0-0
100
AcDbLine
  6
DASHDOT
370
13
 10
89.4811761960302
 20
90.4984147479766
 11
89.4811761960302
 21
81.317438929993
  0
LINE
  5
3D5
100
AcDbEntity
  8
0-0
100
AcDbLine
  6
DASHDOT
370
13
 10
89.4811761960302
 20
59.8799271151118
 11
89.4811761960302
 21
51.2599963741414
  0
LINE
  5
3D6
100
AcDbEntity
  8
0-0
100
AcDbLine
  6
DASHDOT
370
13
 10
86.024484294674
 20
54.9294488018752
 11
94.0932433382647
 21
54.9294488018752
  0
LINE
  5
3D7
100
AcDbEntity
  8
0-0
100
AcDbLine
  6
DASHDOT
370
13
 10
116.07133408296
 20
54.9294488018752
 11
123.915990403656
 21
54.9294488018752
  0
ARC
  5
3D8
100
AcDbEntity
  8
0-0
100
AcDbCircle
  6
DASHDOT
370
13
 10
104.98117619603
 20
70.4294488018752
 40
22
100
AcDbArc
 50
24.9755201936754
 51
127.420677301999
  0
ARC
  5
3D9
100
AcDbEntity
  8
0-0
100
AcDbCircle
  6
DASHDOT
370
13
 10
104.98117619603
 20
70.4294488018752
 40
22
100
AcDbArc
 50
-68.1031376639487
 51
-19.9944902227798
  0
ARC
  5
3DA
100
AcDbEntity
  8
0-0
100
AcDbCircle
  6
DASHDOT
370
13
 10
104.98117619603
 20
70.4294488018752
 40
22
100
AcDbArc
 50
-156.252113169511
 51
-111.864806997735
  0
CIRCLE
  5
3DB
100
AcDbEntity
  8
0-0
100
AcDbCircle
  6
CONTINUOUS
370
40
 10
104.98117619603
 20
92.4294488018753
 40
1.75
  0
LINE
  5
3DC
100
AcDbEntity
  8
0-0
100
AcDbLine
  6
DASHDOT
370
13
 10
101.159870649784
 20
63.8107534445319
 11
91.3016815351942
 21
46.73586902744
  0
LINE
  5
3DD
100
AcDbEntity
  8
0-0
100
AcDbLine
  6
DASHDOT
370
13
 10
108.580058981445
 20
64.196000967052
 11
118.827238077619
 21
46.4473661382202
  0
CIRCLE
  5
3DE
100
AcDbEntity
  8
0-0
100
AcDbCircle
  6
CONTINUOUS
370
40
 10
93.9811761960302
 20
51.3768899186176
 40
1.75
  0
CIRCLE
  5
3DF
100
AcDbEntity
  8
0-0
100
AcDbCircle
  6
CONTINUOUS
370
40
 10
115.98117619603
 20
51.3768899186175
 40
1.75
  0
ARC
  5
3E0
100
AcDbEntity
  8
0-0
100
AcDbCircle
  6
CONTINUOUS
370
13
 10
104.98117619603
 20
70.4294488018752
 40
38.7183046526602
100
AcDbArc
 50
-120
 51
-90
  0
LINE
  5
3E1
100
AcDbEntity
  8
0-0
100
AcDbLine
  6
CONTINUOUS
370
13
 10
85.6220238697001
 20
36.8984133812062
 11
88.5196793472161
 21
36.1215010736571
  0
LINE
  5
3E2
100
AcDbEntity
  8
0-0
100
AcDbLine
  6
CONTINUOUS
370
13
 10
85.6220238697001
 20
36.8984133812062
 11
87.7430109708696
 21
34.7767598475979
  0
LINE
  5
3E3
100
AcDbEntity
  8
0-0
100
AcDbLine
  6
CONTINUOUS
370
13
 10
104.98117619603
 20
31.711144149215
 11
102.083520718514
 21
30.9342318416664
  0
LINE
  5
3E4
100
AcDbEntity
  8
0-0
100
AcDbLine
  6
CONTINUOUS
370
13
 10
104.98117619603
 20
31.711144149215
 11
102.083276787312
 21
32.4871460931232
  0
TEXT
  5
3E5
100
AcDbEntity
  8
0-0
100
AcDbText
  6
CONTINUOUS
 10
87.2974397088033
 20
35.3424722051349
 40
7
  1
30°
  7
Font_0
 50
345
 72
1
 11
96.8365796348335
 21
40.0334006283382
100
AcDbText
 73
3
  0
LINE
  5
3E6
100
AcDbEntity
  8
0-0
100
AcDbLine
  6
CONTINUOUS
370
13
 10
91.1766815351942
 20
46.5193626764938
 11
85.3720238697001
 21
36.465400679314
  0
LINE
  5
3E7
100
AcDbEntity
  8
0-0
100
AcDbLine
  6
CONTINUOUS
370
13
 10
104.98117619603
 20
34.3305554468256
 11
104.98117619603
 21
31.211144149215
  0
ARC
  5
3E8
100
AcDbEntity
  8
0-0
100
AcDbCircle
  6
CONTINUOUS
370
13
 10
104.98117619603
 20
70.4294488018753
 40
38.7183046526603
100
AcDbArc
 50
-90
 51
-60.0000000000001
  0
LINE
  5
3E9
100
AcDbEntity
  8
0-0
100
AcDbLine
  6
CONTINUOUS
370
13
 10
104.98117619603
 20
31.711144149215
 11
107.879075604749
 21
32.4871460931232
  0
LINE
  5
3EA
100
AcDbEntity
  8
0-0
100
AcDbLine
  6
CONTINUOUS
370
13
 10
104.98117619603
 20
31.711144149215
 11
107.878831673546
 21
30.9342318416664
  0
LINE
  5
3EB
100
AcDbEntity
  8
0-0
100
AcDbLine
  6
CONTINUOUS
370
13
 10
124.34032852236
 20
36.8984133812062
 11
122.219341421194
 21
34.7767598475946
  0
LINE
  5
3EC
100
AcDbEntity
  8
0-0
100
AcDbLine
  6
CONTINUOUS
370
13
 10
124.34032852236
 20
36.8984133812062
 11
121.442673044845
 21
36.1215010736527
  0
TEXT
  5
3ED
100
AcDbEntity
  8
0-0
100
AcDbText
  6
CONTINUOUS
 10
107.210099462632
 20
31.2013674834946
 40
7
  1
30°
  7
Font_0
 50
15
 72
1
 11
113.125772757227
 21
40.0334006283383
100
AcDbText
 73
3
  0
LINE
  5
3EE
100
AcDbEntity
  8
0-0
100
AcDbLine
  6
CONTINUOUS
370
13
 10
104.98117619603
 20
34.3305554468256
 11
104.98117619603
 21
31.211144149215
  0
LINE
  5
3EF
100
AcDbEntity
  8
0-0
100
AcDbLine
  6
CONTINUOUS
370
13
 10
118.952238077619
 20
46.2308597872741
 11
124.59032852236
 21
36.465400679314
  0
LINE
  5
3F0
100
AcDbEntity
  8
0-0
100
AcDbLine
  6
CONTINUOUS
370
13
 10
84.232638706444
 20
85.9294488018752
 11
61.6053696402124
 21
85.9294488018752
  0
LINE
  5
3F1
100
AcDbEntity
  8
0-0
100
AcDbLine
  6
CONTINUOUS
370
13
 10
62.1053696402124
 20
85.9294488018752
 11
62.1053696402124
 21
54.9294488018752
  0
LINE
  5
3F2
100
AcDbEntity
  8
0-0
100
AcDbLine
  6
CONTINUOUS
370
13
 10
62.1053696402124
 20
85.9294488018752
 11
62.88182677552
 21
83.031671323008
  0
LINE
  5
3F3
100
AcDbEntity
  8
0-0
100
AcDbLine
  6
CONTINUOUS
370
13
 10
62.1053696402124
 20
85.9294488018752
 11
61.3289125049049
 21
83.031671323008
  0
LINE
  5
3F4
100
AcDbEntity
  8
0-0
100
AcDbLine
  6
CONTINUOUS
370
13
 10
62.1053696402124
 20
54.9294488018752
 11
61.3289125049049
 21
57.8272262807424
  0
LINE
  5
3F5
100
AcDbEntity
  8
0-0
100
AcDbLine
  6
CONTINUOUS
370
13
 10
62.1053696402124
 20
54.9294488018752
 11
62.88182677552
 21
57.8272262807424
  0
TEXT
  5
3F6
100
AcDbEntity
  8
0-0
100
AcDbText
  6
CONTINUOUS
 10
61.8553696402124
 20
62.4294488018752
 40
7
  1
□31
  7
Font_0
 50
90
 72
1
 11
54.8553696402124
 21
70.4294488018752
100
AcDbText
 73
3
  0
LINE
  5
3F7
100
AcDbEntity
  8
0-0
100
AcDbLine
  6
CONTINUOUS
370
13
 10
85.774484294674
 20
54.9294488018752
 11
61.6053696402124
 21
54.9294488018752
  0
CIRCLE
  5
3F8
100
AcDbEntity
  8
0-0
100
AcDbCircle
  6
CONTINUOUS
370
40
 10
104.98117619603
 20
70.4294488018752
 40
12.5
  0
ENDSEC
  0
SECTION
  2
OBJECTS
  0
DICTIONARY
  5
3F9
100
AcDbDictionary
  3
ACAD_GROUP
350
3FA
  3
ACAD_MLINESTYLE
350
3FB
  0
DICTIONARY
  5
3FA
102
{ACAD_REACTORS
330
3F9
102
}
100
AcDbDictionary
  0
DICTIONARY
  5
3FB
102
{ACAD_REACTORS
330
3F9
102
}
100
AcDbDictionary
  3
STANDARD
350
3FC
  0
MLINESTYLE
  5
3FC
102
{ACAD_REACTORS
330
3FB
102
}
100
AcDbMlineStyle
  2
Standard
 70
     0
  3

 62
     0
 51
90.0
 52
90.0
 71
     2
 49
0.5
 62
   256
  6
ByLayer
 49
-0.5
 62
   256
  6
ByLayer
  0
ENDSEC
  0
EOF
