999
Outputted By AR_CAD Ver.1.7.0
  0
SECTION
  2
HEADER
  9
$ACADVER
  1
AC1014
  9
$DWGCODEPAGE
  3
ANSI_932
  9
$EXTMIN
 10
0
 20
0
  9
$EXTMAX
 10
297
 20
210
  9
$INSBASE
 10
0.0
 20
0.0
 30
0.0
  9
$HANDLING
 70
     1
  9
$HANDSEED
  5
638
  9
$LTSCALE
 40
1
  0
ENDSEC
  0
SECTION
  2
TABLES
  0
TABLE
  2
VPORT
  5
1
100
AcDbSymbolTable
 70
     1
  0
VPORT
  5
30
100
AcDbSymbolTableRecord
100
AcDbViewportTableRecord
  2
*ACTIVE
 70
     0
 10
0.0
 20
0.0
 11
1.0
 21
1.0
 12
210.0
 22
148.5
 13
0.0
 23
0.0
 14
10.0
 24
10.0
 15
10.0
 25
10.0
 16
0.0
 26
0.0
 36
1.0
 17
0.0
 27
0.0
 37
0.0
 40
302.94
 41
1.333333
 42
50.0
 43
0.0
 44
0.0
 50
0.0
 51
0.0
 71
     0
 72
   100
 73
     1
 74
     1
 75
     0
 76
     0
 77
     0
 78
     0
  0
ENDTAB
  0
TABLE
  2
LTYPE
  5
2
100
AcDbSymbolTable
 70
     74
  0
LTYPE
  5
31
100
AcDbSymbolTableRecord
100
AcDbLinetypeTableRecord
  2
BYBLOCK
 70
    64
 3

 72
    65
 73
    0
 40
    0
  0
LTYPE
  5
32
100
AcDbSymbolTableRecord
100
AcDbLinetypeTableRecord
  2
BYLAYER
 70
    64
 3

 72
    65
 73
    0
 40
    0
  0
LTYPE
  5
33
100
AcDbSymbolTableRecord
100
AcDbLinetypeTableRecord
  2
CONTINUOUS
 70
    64
 3
CONTINUOUS
 72
    65
 73
    0
 40
    0
  0
LTYPE
  5
34
100
AcDbSymbolTableRecord
100
AcDbLinetypeTableRecord
  2
DASHED
 70
    64
 3

 72
    65
 73
    2
 40
    0.75
 49
    0.5
 74
    0
 49
    -0.25
 74
    0
  0
LTYPE
  5
35
100
AcDbSymbolTableRecord
100
AcDbLinetypeTableRecord
  2
DOT
 70
    64
 3

 72
    65
 73
    2
 40
    0.5
 49
    0.25
 74
    0
 49
    -0.25
 74
    0
  0
LTYPE
  5
36
100
AcDbSymbolTableRecord
100
AcDbLinetypeTableRecord
  2
DASHDOT
 70
    64
 3

 72
    65
 73
    4
 40
    3.5
 49
    1.84147386461011
 74
    0
 49
    -0.552842045129963
 74
    0
 49
    0.552842045129963
 74
    0
 49
    -0.552842045129963
 74
    0
  0
LTYPE
  5
37
100
AcDbSymbolTableRecord
100
AcDbLinetypeTableRecord
  2
DIVIDE
 70
    64
 3

 72
    65
 73
    6
 40
    3.5
 49
    1.4
 74
    0
 49
    -0.42
 74
    0
 49
    0.42
 74
    0
 49
    -0.42
 74
    0
 49
    0.42
 74
    0
 49
    -0.42
 74
    0
  0
LTYPE
  5
38
100
AcDbSymbolTableRecord
100
AcDbLinetypeTableRecord
  2
HIDDEN
 70
    64
 3

 72
    65
 73
    2
 40
    4
 49
    2
 74
    0
 49
    -2
 74
    0
  0
LTYPE
  5
39
100
AcDbSymbolTableRecord
100
AcDbLinetypeTableRecord
  2
CENTER
 70
    64
 3

 72
    65
 73
    4
 40
    2
 49
    1.25
 74
    0
 49
    -0.25
 74
    0
 49
    0.25
 74
    0
 49
    -0.25
 74
    0
  0
LTYPE
  5
3A
100
AcDbSymbolTableRecord
100
AcDbLinetypeTableRecord
  2
PHANTOM
 70
    64
 3

 72
    65
 73
    6
 40
    2.5
 49
    1.25
 74
    0
 49
    -0.25
 74
    0
 49
    0.25
 74
    0
 49
    -0.25
 74
    0
 49
    0.25
 74
    0
 49
    -0.25
 74
    0
  0
LTYPE
  5
3B
100
AcDbSymbolTableRecord
100
AcDbLinetypeTableRecord
  2
DASHEDTHIN0
 70
    64
 3

 72
    65
 73
    2
 40
    0.157
 49
    0.098
 74
    0
 49
    -0.059
 74
    0
  0
LTYPE
  5
3C
100
AcDbSymbolTableRecord
100
AcDbLinetypeTableRecord
  2
DASHEDTHIN1
 70
    64
 3

 72
    65
 73
    2
 40
    0.393
 49
    0.236
 74
    0
 49
    -0.157
 74
    0
  0
LTYPE
  5
3D
100
AcDbSymbolTableRecord
100
AcDbLinetypeTableRecord
  2
DASHEDTHIN2
 70
    64
 3

 72
    65
 73
    2
 40
    0.787
 49
    0.472
 74
    0
 49
    -0.315
 74
    0
  0
LTYPE
  5
3E
100
AcDbSymbolTableRecord
100
AcDbLinetypeTableRecord
  2
CHAINTHIN0
 70
    64
 3

 72
    65
 73
    4
 40
    0.216
 49
    0.118
 74
    0
 49
    -0.039
 74
    0
 49
    0.02
 74
    0
 49
    -0.039
 74
    0
  0
LTYPE
  5
3F
100
AcDbSymbolTableRecord
100
AcDbLinetypeTableRecord
  2
CHAINTHIN1
 70
    64
 3

 72
    65
 73
    4
 40
    0.433
 49
    0.236
 74
    0
 49
    -0.079
 74
    0
 49
    0.039
 74
    0
 49
    -0.079
 74
    0
  0
LTYPE
  5
40
100
AcDbSymbolTableRecord
100
AcDbLinetypeTableRecord
  2
CHAINTHIN2
 70
    64
 3

 72
    65
 73
    4
 40
    0.906
 49
    0.591
 74
    0
 49
    -0.118
 74
    0
 49
    0.079
 74
    0
 49
    -0.118
 74
    0
  0
LTYPE
  5
41
100
AcDbSymbolTableRecord
100
AcDbLinetypeTableRecord
  2
DBLDASHCHAIN
 70
    64
 3

 72
    65
 73
    6
 40
    0.551
 49
    0.236
 74
    0
 49
    -0.079
 74
    0
 49
    0.039
 74
    0
 49
    -0.079
 74
    0
 49
    0.039
 74
    0
 49
    -0.079
 74
    0
  0
LTYPE
  5
42
100
AcDbSymbolTableRecord
100
AcDbLinetypeTableRecord
  2
BORDER
 70
    64
 3

 72
    65
 73
    6
 40
    1.75
 49
    0.5
 74
    0
 49
    -0.25
 74
    0
 49
    0.5
 74
    0
 49
    -0.25
 74
    0
 49
    0
 74
    0
 49
    -0.25
 74
    0
  0
LTYPE
  5
43
100
AcDbSymbolTableRecord
100
AcDbLinetypeTableRecord
  2
BORDER2
 70
    64
 3

 72
    65
 73
    6
 40
    0.875
 49
    0.25
 74
    0
 49
    -0.125
 74
    0
 49
    0.25
 74
    0
 49
    -0.125
 74
    0
 49
    0
 74
    0
 49
    -0.125
 74
    0
  0
LTYPE
  5
44
100
AcDbSymbolTableRecord
100
AcDbLinetypeTableRecord
  2
BORDERX2
 70
    64
 3

 72
    65
 73
    6
 40
    3.5
 49
    1
 74
    0
 49
    -0.5
 74
    0
 49
    1
 74
    0
 49
    -0.5
 74
    0
 49
    0
 74
    0
 49
    -0.5
 74
    0
  0
LTYPE
  5
45
100
AcDbSymbolTableRecord
100
AcDbLinetypeTableRecord
  2
CENTER2
 70
    64
 3

 72
    65
 73
    4
 40
    1.125
 49
    0.75
 74
    0
 49
    -0.125
 74
    0
 49
    0.125
 74
    0
 49
    -0.125
 74
    0
  0
LTYPE
  5
46
100
AcDbSymbolTableRecord
100
AcDbLinetypeTableRecord
  2
CENTERX2
 70
    64
 3

 72
    65
 73
    4
 40
    4
 49
    2.5
 74
    0
 49
    -0.5
 74
    0
 49
    0.5
 74
    0
 49
    -0.5
 74
    0
  0
LTYPE
  5
47
100
AcDbSymbolTableRecord
100
AcDbLinetypeTableRecord
  2
DASHDOT2
 70
    64
 3

 72
    65
 73
    4
 40
    0.5
 49
    0.25
 74
    0
 49
    -0.125
 74
    0
 49
    0
 74
    0
 49
    -0.125
 74
    0
  0
LTYPE
  5
48
100
AcDbSymbolTableRecord
100
AcDbLinetypeTableRecord
  2
DASHDOTX2
 70
    64
 3

 72
    65
 73
    4
 40
    2
 49
    1
 74
    0
 49
    -0.5
 74
    0
 49
    0
 74
    0
 49
    -0.5
 74
    0
  0
LTYPE
  5
49
100
AcDbSymbolTableRecord
100
AcDbLinetypeTableRecord
  2
DASHED2
 70
    64
 3

 72
    65
 73
    2
 40
    0.375
 49
    0.25
 74
    0
 49
    -0.125
 74
    0
  0
LTYPE
  5
4A
100
AcDbSymbolTableRecord
100
AcDbLinetypeTableRecord
  2
DASHEDX2
 70
    64
 3

 72
    65
 73
    2
 40
    1.5
 49
    1
 74
    0
 49
    -0.5
 74
    0
  0
LTYPE
  5
4B
100
AcDbSymbolTableRecord
100
AcDbLinetypeTableRecord
  2
DIVIDE2
 70
    64
 3

 72
    65
 73
    6
 40
    0.625
 49
    0.25
 74
    0
 49
    -0.125
 74
    0
 49
    0
 74
    0
 49
    -0.125
 74
    0
 49
    0
 74
    0
 49
    -0.125
 74
    0
  0
LTYPE
  5
4C
100
AcDbSymbolTableRecord
100
AcDbLinetypeTableRecord
  2
DIVIDEX2
 70
    64
 3

 72
    65
 73
    6
 40
    2.5
 49
    1
 74
    0
 49
    -0.5
 74
    0
 49
    0
 74
    0
 49
    -0.5
 74
    0
 49
    0
 74
    0
 49
    -0.5
 74
    0
  0
LTYPE
  5
4D
100
AcDbSymbolTableRecord
100
AcDbLinetypeTableRecord
  2
DOT2
 70
    64
 3

 72
    65
 73
    2
 40
    0.125
 49
    0
 74
    0
 49
    -0.125
 74
    0
  0
LTYPE
  5
4E
100
AcDbSymbolTableRecord
100
AcDbLinetypeTableRecord
  2
DOTX2
 70
    64
 3

 72
    65
 73
    2
 40
    0.5
 49
    0
 74
    0
 49
    -0.5
 74
    0
  0
LTYPE
  5
4F
100
AcDbSymbolTableRecord
100
AcDbLinetypeTableRecord
  2
HIDDEN2
 70
    64
 3

 72
    65
 73
    2
 40
    0.188
 49
    0.126
 74
    0
 49
    -0.062
 74
    0
  0
LTYPE
  5
50
100
AcDbSymbolTableRecord
100
AcDbLinetypeTableRecord
  2
HIDDENX2
 70
    64
 3

 72
    65
 73
    2
 40
    0.75
 49
    0.5
 74
    0
 49
    -0.25
 74
    0
  0
LTYPE
  5
51
100
AcDbSymbolTableRecord
100
AcDbLinetypeTableRecord
  2
PHANTOM2
 70
    64
 3

 72
    65
 73
    6
 40
    1.25
 49
    0.625
 74
    0
 49
    -0.125
 74
    0
 49
    0.125
 74
    0
 49
    -0.125
 74
    0
 49
    0.125
 74
    0
 49
    -0.125
 74
    0
  0
LTYPE
  5
52
100
AcDbSymbolTableRecord
100
AcDbLinetypeTableRecord
  2
PHANTOMX2
 70
    64
 3

 72
    65
 73
    6
 40
    5
 49
    2.5
 74
    0
 49
    -0.5
 74
    0
 49
    0.5
 74
    0
 49
    -0.5
 74
    0
 49
    0.5
 74
    0
 49
    -0.5
 74
    0
  0
LTYPE
  5
53
100
AcDbSymbolTableRecord
100
AcDbLinetypeTableRecord
  2
BIGFONT
 70
    64
 3

 72
    65
 73
    5
 40
    2.5
 49
    0.5
 74
    0
 49
    -0.5
 74
    0
 49
    0.5
 74
    0
 49
    -0.5
 74
    0
 49
    0.5
 74
    0
  0
LTYPE
  5
54
100
AcDbSymbolTableRecord
100
AcDbLinetypeTableRecord
  2
AI9-LType1
 70
    64
 3

 72
    65
 73
    2
 40
    4
 49
    3
 74
    0
 49
    -1
 74
    0
  0
LTYPE
  5
55
100
AcDbSymbolTableRecord
100
AcDbLinetypeTableRecord
  2
C_SOLID_L
 70
    64
 3

 72
    65
 73
    0
 40
    0
  0
LTYPE
  5
56
100
AcDbSymbolTableRecord
100
AcDbLinetypeTableRecord
  2
C_SOLID_M
 70
    64
 3

 72
    65
 73
    0
 40
    0
  0
LTYPE
  5
57
100
AcDbSymbolTableRecord
100
AcDbLinetypeTableRecord
  2
C_SOLID_H
 70
    64
 3

 72
    65
 73
    0
 40
    0
  0
LTYPE
  5
58
100
AcDbSymbolTableRecord
100
AcDbLinetypeTableRecord
  2
C_DASHED_L
 70
    64
 3

 72
    65
 73
    2
 40
    0.375
 49
    0.25
 74
    0
 49
    -0.125
 74
    0
  0
LTYPE
  5
59
100
AcDbSymbolTableRecord
100
AcDbLinetypeTableRecord
  2
C_DASHED_M
 70
    64
 3

 72
    65
 73
    2
 40
    0.5
 49
    0.375
 74
    0
 49
    -0.125
 74
    0
  0
LTYPE
  5
5A
100
AcDbSymbolTableRecord
100
AcDbLinetypeTableRecord
  2
C_CENTER_L
 70
    64
 3

 72
    65
 73
    4
 40
    2
 49
    1.25
 74
    0
 49
    -0.25
 74
    0
 49
    0.25
 74
    0
 49
    -0.25
 74
    0
  0
LTYPE
  5
5B
100
AcDbSymbolTableRecord
100
AcDbLinetypeTableRecord
  2
C_PHANTOM_L
 70
    64
 3

 72
    65
 73
    6
 40
    2.5
 49
    1.25
 74
    0
 49
    -0.25
 74
    0
 49
    0.25
 74
    0
 49
    -0.25
 74
    0
 49
    0.25
 74
    0
 49
    -0.25
 74
    0
  0
LTYPE
  5
5C
100
AcDbSymbolTableRecord
100
AcDbLinetypeTableRecord
  2
C_BREAK_M
 70
    64
 3

 72
    65
 73
    4
 40
    1
 49
    0.5
 74
    0
 49
    -0.25
 74
    0
 49
    0
 74
    0
 49
    -0.25
 74
    0
  0
LTYPE
  5
5D
100
AcDbSymbolTableRecord
100
AcDbLinetypeTableRecord
  2
C_NC
 70
    64
 3

 72
    65
 73
    0
 40
    0
  0
LTYPE
  5
5E
100
AcDbSymbolTableRecord
100
AcDbLinetypeTableRecord
  2
DSH1
 70
    64
 3

 72
    65
 73
    2
 40
    0.075
 49
    0.04
 74
    0
 49
    -0.035
 74
    0
  0
LTYPE
  5
5F
100
AcDbSymbolTableRecord
100
AcDbLinetypeTableRecord
  2
DSH2
 70
    64
 3

 72
    65
 73
    2
 40
    0.15
 49
    0.11
 74
    0
 49
    -0.04
 74
    0
  0
LTYPE
  5
60
100
AcDbSymbolTableRecord
100
AcDbLinetypeTableRecord
  2
DSH3
 70
    64
 3

 72
    65
 73
    2
 40
    0.2
 49
    0.15
 74
    0
 49
    -0.05
 74
    0
  0
LTYPE
  5
61
100
AcDbSymbolTableRecord
100
AcDbLinetypeTableRecord
  2
DSH4
 70
    64
 3

 72
    65
 73
    2
 40
    0.36
 49
    0.28
 74
    0
 49
    -0.08
 74
    0
  0
LTYPE
  5
62
100
AcDbSymbolTableRecord
100
AcDbLinetypeTableRecord
  2
DSH5
 70
    64
 3

 72
    65
 73
    2
 40
    0.47
 49
    0.39
 74
    0
 49
    -0.08
 74
    0
  0
LTYPE
  5
63
100
AcDbSymbolTableRecord
100
AcDbLinetypeTableRecord
  2
DSH6
 70
    64
 3

 72
    65
 73
    2
 40
    0.9
 49
    0.81
 74
    0
 49
    -0.09
 74
    0
  0
LTYPE
  5
64
100
AcDbSymbolTableRecord
100
AcDbLinetypeTableRecord
  2
PL1
 70
    64
 3

 72
    65
 73
    6
 40
    1
 49
    0.6
 74
    0
 49
    -0.08
 74
    0
 49
    0.08
 74
    0
 49
    -0.08
 74
    0
 49
    0.08
 74
    0
 49
    -0.08
 74
    0
  0
LTYPE
  5
65
100
AcDbSymbolTableRecord
100
AcDbLinetypeTableRecord
  2
PL2
 70
    64
 3

 72
    65
 73
    6
 40
    1.08
 49
    0.6
 74
    0
 49
    -0.08
 74
    0
 49
    0.12
 74
    0
 49
    -0.08
 74
    0
 49
    0.12
 74
    0
 49
    -0.08
 74
    0
  0
LTYPE
  5
66
100
AcDbSymbolTableRecord
100
AcDbLinetypeTableRecord
  2
PL3
 70
    64
 3

 72
    65
 73
    6
 40
    2
 49
    1.44
 74
    0
 49
    -0.08
 74
    0
 49
    0.16
 74
    0
 49
    -0.08
 74
    0
 49
    0.16
 74
    0
 49
    -0.08
 74
    0
  0
LTYPE
  5
67
100
AcDbSymbolTableRecord
100
AcDbLinetypeTableRecord
  2
CL1
 70
    64
 3

 72
    65
 73
    4
 40
    0.7
 49
    0.45
 74
    0
 49
    -0.06
 74
    0
 49
    0.13
 74
    0
 49
    -0.06
 74
    0
  0
LTYPE
  5
68
100
AcDbSymbolTableRecord
100
AcDbLinetypeTableRecord
  2
CL2
 70
    64
 3

 72
    65
 73
    4
 40
    1.2
 49
    0.97741935483871
 74
    0
 49
    -0.0580645161290322
 74
    0
 49
    0.106451612903226
 74
    0
 49
    -0.0580645161290322
 74
    0
  0
LTYPE
  5
69
100
AcDbSymbolTableRecord
100
AcDbLinetypeTableRecord
  2
CL3
 70
    64
 3

 72
    65
 73
    4
 40
    1.2
 49
    0.98
 74
    0
 49
    -0.06
 74
    0
 49
    0.1
 74
    0
 49
    -0.06
 74
    0
  0
LTYPE
  5
6A
100
AcDbSymbolTableRecord
100
AcDbLinetypeTableRecord
  2
CL4
 70
    64
 3

 72
    65
 73
    4
 40
    2.2
 49
    1.93
 74
    0
 49
    -0.07
 74
    0
 49
    0.13
 74
    0
 49
    -0.07
 74
    0
  0
LTYPE
  5
6B
100
AcDbSymbolTableRecord
100
AcDbLinetypeTableRecord
  2
CL5
 70
    64
 3

 72
    65
 73
    4
 40
    2.2
 49
    1.88
 74
    0
 49
    -0.07
 74
    0
 49
    0.18
 74
    0
 49
    -0.07
 74
    0
  0
LTYPE
  5
6C
100
AcDbSymbolTableRecord
100
AcDbLinetypeTableRecord
  2
SBK1
 70
    64
 3

 72
    65
 73
    4
 40
    2.7
 49
    0.25
 74
    0
 49
    -0.2
 74
    0
 49
    0.25
 74
    0
 49
    -2
 74
    0
  0
LTYPE
  5
6D
100
AcDbSymbolTableRecord
100
AcDbLinetypeTableRecord
  2
SBK2
 70
    64
 3

 72
    65
 73
    4
 40
    3.71
 49
    0.423070175438596
 74
    0
 49
    -0.260350877192982
 74
    0
 49
    0.423070175438596
 74
    0
 49
    -2.60350877192982
 74
    0
  0
LTYPE
  5
6E
100
AcDbSymbolTableRecord
100
AcDbLinetypeTableRecord
  2
STCH
 70
    64
 3

 72
    65
 73
    2
 40
    0.25
 49
    0
 74
    0
 49
    -0.25
 74
    0
  0
LTYPE
  5
6F
100
AcDbSymbolTableRecord
100
AcDbLinetypeTableRecord
  2
MTCH
 70
    64
 3

 72
    65
 73
    6
 40
    2
 49
    1.05882352941176
 74
    0
 49
    -0.588235294117647
 74
    0
 49
    0.117647058823529
 74
    0
 49
    -0.0588235294117647
 74
    0
 49
    0.117647058823529
 74
    0
 49
    -0.0588235294117647
 74
    0
  0
LTYPE
  5
70
100
AcDbSymbolTableRecord
100
AcDbLinetypeTableRecord
  2
SLD
 70
    64
 3

 72
    65
 73
    0
 40
    0
  0
LTYPE
  5
71
100
AcDbSymbolTableRecord
100
AcDbLinetypeTableRecord
  2

 70
    64
 3

 72
    65
 73
    3
 40
    4.5
 49
    1.5
 74
    0
 49
    -1.5
 74
    0
 49
    1.5
 74
    0
  0
LTYPE
  5
72
100
AcDbSymbolTableRecord
100
AcDbLinetypeTableRecord
  2

 70
    64
 3

 72
    65
 73
    5
 40
    30
 49
    12
 74
    0
 49
    -1.5
 74
    0
 49
    3
 74
    0
 49
    -1.5
 74
    0
 49
    12
 74
    0
  0
LTYPE
  5
73
100
AcDbSymbolTableRecord
100
AcDbLinetypeTableRecord
  2
C6CONTINUOUS
 70
    64
 3

 72
    65
 73
    0
 40
    0
  0
LTYPE
  5
74
100
AcDbSymbolTableRecord
100
AcDbLinetypeTableRecord
  2
C6DOT
 70
    64
 3

 72
    65
 73
    2
 40
    16
 49
    8
 74
    0
 49
    -8
 74
    0
  0
LTYPE
  5
75
100
AcDbSymbolTableRecord
100
AcDbLinetypeTableRecord
  2
C6DASHED
 70
    64
 3

 72
    65
 73
    2
 40
    32
 49
    16
 74
    0
 49
    -16
 74
    0
  0
LTYPE
  5
76
100
AcDbSymbolTableRecord
100
AcDbLinetypeTableRecord
  2
C6DASHDOT
 70
    64
 3

 72
    65
 73
    4
 40
    64
 49
    32
 74
    0
 49
    -8
 74
    0
 49
    16
 74
    0
 49
    -8
 74
    0
  0
LTYPE
  5
77
100
AcDbSymbolTableRecord
100
AcDbLinetypeTableRecord
  2
C6DIVIDE
 70
    64
 3

 72
    65
 73
    6
 40
    64
 49
    24
 74
    0
 49
    -8
 74
    0
 49
    8
 74
    0
 49
    -8
 74
    0
 49
    8
 74
    0
 49
    -8
 74
    0
  0
LTYPE
  5
78
100
AcDbSymbolTableRecord
100
AcDbLinetypeTableRecord
  2
DOTTED
 70
    64
 3

 72
    65
 73
    2
 40
    3.5
 49
    0.5
 74
    0
 49
    -3
 74
    0
  0
LTYPE
  5
79
100
AcDbSymbolTableRecord
100
AcDbLinetypeTableRecord
  2
CENTERX4
 70
    64
 3

 72
    65
 73
    4
 40
    10.5
 49
    6
 74
    0
 49
    -1.5
 74
    0
 49
    1.5
 74
    0
 49
    -1.5
 74
    0
  0
LTYPE
  5
7A
100
AcDbSymbolTableRecord
100
AcDbLinetypeTableRecord
  2

 70
    64
 3

 72
    65
 73
    4
 40
    2
 49
    1.25
 74
    0
 49
    -0.25
 74
    0
 49
    0.25
 74
    0
 49
    -0.25
 74
    0
  0
LTYPE
  5
7B
100
AcDbSymbolTableRecord
100
AcDbLinetypeTableRecord
  2
DASH_CENTER
 70
    64
 3

 72
    65
 73
    4
 40
    36
 49
    24
 74
    0
 49
    -3
 74
    0
 49
    6
 74
    0
 49
    -3
 74
    0
  0
ENDTAB
  0
TABLE
  2
LAYER
  5
3
100
AcDbSymbolTable
 70
   257
  0
LAYER
  5
7C
100
AcDbSymbolTableRecord
100
AcDbLayerTableRecord
  2
0-0
 70
    0
 62
250
  6
CONTINUOUS
  0
LAYER
  5
7D
100
AcDbSymbolTableRecord
100
AcDbLayerTableRecord
  2
0-1
 70
    0
 62
3
  6
CONTINUOUS
  0
LAYER
  5
7E
100
AcDbSymbolTableRecord
100
AcDbLayerTableRecord
  2
0-2
 70
    0
 62
9
  6
CONTINUOUS
  0
LAYER
  5
7F
100
AcDbSymbolTableRecord
100
AcDbLayerTableRecord
  2
0-3
 70
    0
 62
250
  6
CONTINUOUS
  0
LAYER
  5
80
100
AcDbSymbolTableRecord
100
AcDbLayerTableRecord
  2
0-4
 70
    0
 62
6
  6
CONTINUOUS
  0
LAYER
  5
81
100
AcDbSymbolTableRecord
100
AcDbLayerTableRecord
  2
0-5
 70
    0
 62
1
  6
CONTINUOUS
  0
LAYER
  5
82
100
AcDbSymbolTableRecord
100
AcDbLayerTableRecord
  2
0-6
 70
    0
 62
7
  6
CONTINUOUS
  0
LAYER
  5
83
100
AcDbSymbolTableRecord
100
AcDbLayerTableRecord
  2
0-7
 70
    0
 62
51
  6
CONTINUOUS
  0
LAYER
  5
84
100
AcDbSymbolTableRecord
100
AcDbLayerTableRecord
  2
0-8
 70
    0
 62
61
  6
CONTINUOUS
  0
LAYER
  5
85
100
AcDbSymbolTableRecord
100
AcDbLayerTableRecord
  2
0-9
 70
    0
 62
111
  6
CONTINUOUS
  0
LAYER
  5
86
100
AcDbSymbolTableRecord
100
AcDbLayerTableRecord
  2
0-a
 70
    0
 62
91
  6
CONTINUOUS
  0
LAYER
  5
87
100
AcDbSymbolTableRecord
100
AcDbLayerTableRecord
  2
0-b
 70
    0
 62
131
  6
CONTINUOUS
  0
LAYER
  5
88
100
AcDbSymbolTableRecord
100
AcDbLayerTableRecord
  2
0-c
 70
    0
 62
161
  6
CONTINUOUS
  0
LAYER
  5
89
100
AcDbSymbolTableRecord
100
AcDbLayerTableRecord
  2
0-d
 70
    0
 62
5
  6
CONTINUOUS
  0
LAYER
  5
8A
100
AcDbSymbolTableRecord
100
AcDbLayerTableRecord
  2
0-e
 70
    0
 62
7
  6
CONTINUOUS
  0
LAYER
  5
8B
100
AcDbSymbolTableRecord
100
AcDbLayerTableRecord
  2
0-f
 70
    0
 62
11
  6
CONTINUOUS
  0
LAYER
  5
8C
100
AcDbSymbolTableRecord
100
AcDbLayerTableRecord
  2
1-0
 70
    0
 62
250
  6
CONTINUOUS
  0
LAYER
  5
8D
100
AcDbSymbolTableRecord
100
AcDbLayerTableRecord
  2
1-1
 70
    0
 62
70
  6
CONTINUOUS
  0
LAYER
  5
8E
100
AcDbSymbolTableRecord
100
AcDbLayerTableRecord
  2
1-2
 70
    0
 62
211
  6
CONTINUOUS
  0
LAYER
  5
8F
100
AcDbSymbolTableRecord
100
AcDbLayerTableRecord
  2
1-3
 70
    0
 62
137
  6
CONTINUOUS
  0
LAYER
  5
90
100
AcDbSymbolTableRecord
100
AcDbLayerTableRecord
  2
1-4
 70
    0
 62
4
  6
CONTINUOUS
  0
LAYER
  5
91
100
AcDbSymbolTableRecord
100
AcDbLayerTableRecord
  2
1-5
 70
    0
 62
131
  6
CONTINUOUS
  0
LAYER
  5
92
100
AcDbSymbolTableRecord
100
AcDbLayerTableRecord
  2
1-6
 70
    0
 62
4
  6
CONTINUOUS
  0
LAYER
  5
93
100
AcDbSymbolTableRecord
100
AcDbLayerTableRecord
  2
1-7
 70
    0
 62
4
  6
CONTINUOUS
  0
LAYER
  5
94
100
AcDbSymbolTableRecord
100
AcDbLayerTableRecord
  2
1-8
 70
    0
 62
250
  6
CONTINUOUS
  0
LAYER
  5
95
100
AcDbSymbolTableRecord
100
AcDbLayerTableRecord
  2
1-9
 70
    0
 62
250
  6
CONTINUOUS
  0
LAYER
  5
96
100
AcDbSymbolTableRecord
100
AcDbLayerTableRecord
  2
1-a
 70
    0
 62
250
  6
CONTINUOUS
  0
LAYER
  5
97
100
AcDbSymbolTableRecord
100
AcDbLayerTableRecord
  2
1-b
 70
    0
 62
250
  6
CONTINUOUS
  0
LAYER
  5
98
100
AcDbSymbolTableRecord
100
AcDbLayerTableRecord
  2
1-c
 70
    0
 62
250
  6
CONTINUOUS
  0
LAYER
  5
99
100
AcDbSymbolTableRecord
100
AcDbLayerTableRecord
  2
1-d
 70
    0
 62
250
  6
CONTINUOUS
  0
LAYER
  5
9A
100
AcDbSymbolTableRecord
100
AcDbLayerTableRecord
  2
1-e
 70
    0
 62
250
  6
CONTINUOUS
  0
LAYER
  5
9B
100
AcDbSymbolTableRecord
100
AcDbLayerTableRecord
  2
1-f
 70
    0
 62
250
  6
CONTINUOUS
  0
LAYER
  5
9C
100
AcDbSymbolTableRecord
100
AcDbLayerTableRecord
  2
2-0
 70
    0
 62
250
  6
CONTINUOUS
  0
LAYER
  5
9D
100
AcDbSymbolTableRecord
100
AcDbLayerTableRecord
  2
2-1
 70
    0
 62
250
  6
CONTINUOUS
  0
LAYER
  5
9E
100
AcDbSymbolTableRecord
100
AcDbLayerTableRecord
  2
2-2
 70
    0
 62
250
  6
CONTINUOUS
  0
LAYER
  5
9F
100
AcDbSymbolTableRecord
100
AcDbLayerTableRecord
  2
2-3
 70
    0
 62
250
  6
CONTINUOUS
  0
LAYER
  5
A0
100
AcDbSymbolTableRecord
100
AcDbLayerTableRecord
  2
2-4
 70
    0
 62
250
  6
CONTINUOUS
  0
LAYER
  5
A1
100
AcDbSymbolTableRecord
100
AcDbLayerTableRecord
  2
2-5
 70
    0
 62
250
  6
CONTINUOUS
  0
LAYER
  5
A2
100
AcDbSymbolTableRecord
100
AcDbLayerTableRecord
  2
2-6
 70
    0
 62
250
  6
CONTINUOUS
  0
LAYER
  5
A3
100
AcDbSymbolTableRecord
100
AcDbLayerTableRecord
  2
2-7
 70
    0
 62
250
  6
CONTINUOUS
  0
LAYER
  5
A4
100
AcDbSymbolTableRecord
100
AcDbLayerTableRecord
  2
2-8
 70
    0
 62
250
  6
CONTINUOUS
  0
LAYER
  5
A5
100
AcDbSymbolTableRecord
100
AcDbLayerTableRecord
  2
2-9
 70
    0
 62
250
  6
CONTINUOUS
  0
LAYER
  5
A6
100
AcDbSymbolTableRecord
100
AcDbLayerTableRecord
  2
2-a
 70
    0
 62
250
  6
CONTINUOUS
  0
LAYER
  5
A7
100
AcDbSymbolTableRecord
100
AcDbLayerTableRecord
  2
2-b
 70
    0
 62
250
  6
CONTINUOUS
  0
LAYER
  5
A8
100
AcDbSymbolTableRecord
100
AcDbLayerTableRecord
  2
2-c
 70
    0
 62
250
  6
CONTINUOUS
  0
LAYER
  5
A9
100
AcDbSymbolTableRecord
100
AcDbLayerTableRecord
  2
2-d
 70
    0
 62
250
  6
CONTINUOUS
  0
LAYER
  5
AA
100
AcDbSymbolTableRecord
100
AcDbLayerTableRecord
  2
2-e
 70
    0
 62
250
  6
CONTINUOUS
  0
LAYER
  5
AB
100
AcDbSymbolTableRecord
100
AcDbLayerTableRecord
  2
2-f
 70
    0
 62
250
  6
CONTINUOUS
  0
LAYER
  5
AC
100
AcDbSymbolTableRecord
100
AcDbLayerTableRecord
  2
3-0
 70
    0
 62
250
  6
CONTINUOUS
  0
LAYER
  5
AD
100
AcDbSymbolTableRecord
100
AcDbLayerTableRecord
  2
3-1
 70
    0
 62
250
  6
CONTINUOUS
  0
LAYER
  5
AE
100
AcDbSymbolTableRecord
100
AcDbLayerTableRecord
  2
3-2
 70
    0
 62
250
  6
CONTINUOUS
  0
LAYER
  5
AF
100
AcDbSymbolTableRecord
100
AcDbLayerTableRecord
  2
3-3
 70
    0
 62
250
  6
CONTINUOUS
  0
LAYER
  5
B0
100
AcDbSymbolTableRecord
100
AcDbLayerTableRecord
  2
3-4
 70
    0
 62
250
  6
CONTINUOUS
  0
LAYER
  5
B1
100
AcDbSymbolTableRecord
100
AcDbLayerTableRecord
  2
3-5
 70
    0
 62
250
  6
CONTINUOUS
  0
LAYER
  5
B2
100
AcDbSymbolTableRecord
100
AcDbLayerTableRecord
  2
3-6
 70
    0
 62
250
  6
CONTINUOUS
  0
LAYER
  5
B3
100
AcDbSymbolTableRecord
100
AcDbLayerTableRecord
  2
3-7
 70
    0
 62
250
  6
CONTINUOUS
  0
LAYER
  5
B4
100
AcDbSymbolTableRecord
100
AcDbLayerTableRecord
  2
3-8
 70
    0
 62
250
  6
CONTINUOUS
  0
LAYER
  5
B5
100
AcDbSymbolTableRecord
100
AcDbLayerTableRecord
  2
3-9
 70
    0
 62
250
  6
CONTINUOUS
  0
LAYER
  5
B6
100
AcDbSymbolTableRecord
100
AcDbLayerTableRecord
  2
3-a
 70
    0
 62
250
  6
CONTINUOUS
  0
LAYER
  5
B7
100
AcDbSymbolTableRecord
100
AcDbLayerTableRecord
  2
3-b
 70
    0
 62
250
  6
CONTINUOUS
  0
LAYER
  5
B8
100
AcDbSymbolTableRecord
100
AcDbLayerTableRecord
  2
3-c
 70
    0
 62
250
  6
CONTINUOUS
  0
LAYER
  5
B9
100
AcDbSymbolTableRecord
100
AcDbLayerTableRecord
  2
3-d
 70
    0
 62
250
  6
CONTINUOUS
  0
LAYER
  5
BA
100
AcDbSymbolTableRecord
100
AcDbLayerTableRecord
  2
3-e
 70
    0
 62
250
  6
CONTINUOUS
  0
LAYER
  5
BB
100
AcDbSymbolTableRecord
100
AcDbLayerTableRecord
  2
3-f
 70
    0
 62
250
  6
CONTINUOUS
  0
LAYER
  5
BC
100
AcDbSymbolTableRecord
100
AcDbLayerTableRecord
  2
4-0
 70
    0
 62
250
  6
CONTINUOUS
  0
LAYER
  5
BD
100
AcDbSymbolTableRecord
100
AcDbLayerTableRecord
  2
4-1
 70
    0
 62
250
  6
CONTINUOUS
  0
LAYER
  5
BE
100
AcDbSymbolTableRecord
100
AcDbLayerTableRecord
  2
4-2
 70
    0
 62
250
  6
CONTINUOUS
  0
LAYER
  5
BF
100
AcDbSymbolTableRecord
100
AcDbLayerTableRecord
  2
4-3
 70
    0
 62
250
  6
CONTINUOUS
  0
LAYER
  5
C0
100
AcDbSymbolTableRecord
100
AcDbLayerTableRecord
  2
4-4
 70
    0
 62
250
  6
CONTINUOUS
  0
LAYER
  5
C1
100
AcDbSymbolTableRecord
100
AcDbLayerTableRecord
  2
4-5
 70
    0
 62
250
  6
CONTINUOUS
  0
LAYER
  5
C2
100
AcDbSymbolTableRecord
100
AcDbLayerTableRecord
  2
4-6
 70
    0
 62
250
  6
CONTINUOUS
  0
LAYER
  5
C3
100
AcDbSymbolTableRecord
100
AcDbLayerTableRecord
  2
4-7
 70
    0
 62
250
  6
CONTINUOUS
  0
LAYER
  5
C4
100
AcDbSymbolTableRecord
100
AcDbLayerTableRecord
  2
4-8
 70
    0
 62
250
  6
CONTINUOUS
  0
LAYER
  5
C5
100
AcDbSymbolTableRecord
100
AcDbLayerTableRecord
  2
4-9
 70
    0
 62
250
  6
CONTINUOUS
  0
LAYER
  5
C6
100
AcDbSymbolTableRecord
100
AcDbLayerTableRecord
  2
4-a
 70
    0
 62
250
  6
CONTINUOUS
  0
LAYER
  5
C7
100
AcDbSymbolTableRecord
100
AcDbLayerTableRecord
  2
4-b
 70
    0
 62
250
  6
CONTINUOUS
  0
LAYER
  5
C8
100
AcDbSymbolTableRecord
100
AcDbLayerTableRecord
  2
4-c
 70
    0
 62
250
  6
CONTINUOUS
  0
LAYER
  5
C9
100
AcDbSymbolTableRecord
100
AcDbLayerTableRecord
  2
4-d
 70
    0
 62
250
  6
CONTINUOUS
  0
LAYER
  5
CA
100
AcDbSymbolTableRecord
100
AcDbLayerTableRecord
  2
4-e
 70
    0
 62
250
  6
CONTINUOUS
  0
LAYER
  5
CB
100
AcDbSymbolTableRecord
100
AcDbLayerTableRecord
  2
4-f
 70
    0
 62
250
  6
CONTINUOUS
  0
LAYER
  5
CC
100
AcDbSymbolTableRecord
100
AcDbLayerTableRecord
  2
5-0
 70
    0
 62
250
  6
CONTINUOUS
  0
LAYER
  5
CD
100
AcDbSymbolTableRecord
100
AcDbLayerTableRecord
  2
5-1
 70
    0
 62
250
  6
CONTINUOUS
  0
LAYER
  5
CE
100
AcDbSymbolTableRecord
100
AcDbLayerTableRecord
  2
5-2
 70
    0
 62
250
  6
CONTINUOUS
  0
LAYER
  5
CF
100
AcDbSymbolTableRecord
100
AcDbLayerTableRecord
  2
5-3
 70
    0
 62
250
  6
CONTINUOUS
  0
LAYER
  5
D0
100
AcDbSymbolTableRecord
100
AcDbLayerTableRecord
  2
5-4
 70
    0
 62
250
  6
CONTINUOUS
  0
LAYER
  5
D1
100
AcDbSymbolTableRecord
100
AcDbLayerTableRecord
  2
5-5
 70
    0
 62
250
  6
CONTINUOUS
  0
LAYER
  5
D2
100
AcDbSymbolTableRecord
100
AcDbLayerTableRecord
  2
5-6
 70
    0
 62
250
  6
CONTINUOUS
  0
LAYER
  5
D3
100
AcDbSymbolTableRecord
100
AcDbLayerTableRecord
  2
5-7
 70
    0
 62
250
  6
CONTINUOUS
  0
LAYER
  5
D4
100
AcDbSymbolTableRecord
100
AcDbLayerTableRecord
  2
5-8
 70
    0
 62
250
  6
CONTINUOUS
  0
LAYER
  5
D5
100
AcDbSymbolTableRecord
100
AcDbLayerTableRecord
  2
5-9
 70
    0
 62
250
  6
CONTINUOUS
  0
LAYER
  5
D6
100
AcDbSymbolTableRecord
100
AcDbLayerTableRecord
  2
5-a
 70
    0
 62
250
  6
CONTINUOUS
  0
LAYER
  5
D7
100
AcDbSymbolTableRecord
100
AcDbLayerTableRecord
  2
5-b
 70
    0
 62
250
  6
CONTINUOUS
  0
LAYER
  5
D8
100
AcDbSymbolTableRecord
100
AcDbLayerTableRecord
  2
5-c
 70
    0
 62
250
  6
CONTINUOUS
  0
LAYER
  5
D9
100
AcDbSymbolTableRecord
100
AcDbLayerTableRecord
  2
5-d
 70
    0
 62
250
  6
CONTINUOUS
  0
LAYER
  5
DA
100
AcDbSymbolTableRecord
100
AcDbLayerTableRecord
  2
5-e
 70
    0
 62
250
  6
CONTINUOUS
  0
LAYER
  5
DB
100
AcDbSymbolTableRecord
100
AcDbLayerTableRecord
  2
5-f
 70
    0
 62
250
  6
CONTINUOUS
  0
LAYER
  5
DC
100
AcDbSymbolTableRecord
100
AcDbLayerTableRecord
  2
6-0
 70
    0
 62
250
  6
CONTINUOUS
  0
LAYER
  5
DD
100
AcDbSymbolTableRecord
100
AcDbLayerTableRecord
  2
6-1
 70
    0
 62
250
  6
CONTINUOUS
  0
LAYER
  5
DE
100
AcDbSymbolTableRecord
100
AcDbLayerTableRecord
  2
6-2
 70
    0
 62
250
  6
CONTINUOUS
  0
LAYER
  5
DF
100
AcDbSymbolTableRecord
100
AcDbLayerTableRecord
  2
6-3
 70
    0
 62
250
  6
CONTINUOUS
  0
LAYER
  5
E0
100
AcDbSymbolTableRecord
100
AcDbLayerTableRecord
  2
6-4
 70
    0
 62
250
  6
CONTINUOUS
  0
LAYER
  5
E1
100
AcDbSymbolTableRecord
100
AcDbLayerTableRecord
  2
6-5
 70
    0
 62
250
  6
CONTINUOUS
  0
LAYER
  5
E2
100
AcDbSymbolTableRecord
100
AcDbLayerTableRecord
  2
6-6
 70
    0
 62
250
  6
CONTINUOUS
  0
LAYER
  5
E3
100
AcDbSymbolTableRecord
100
AcDbLayerTableRecord
  2
6-7
 70
    0
 62
250
  6
CONTINUOUS
  0
LAYER
  5
E4
100
AcDbSymbolTableRecord
100
AcDbLayerTableRecord
  2
6-8
 70
    0
 62
250
  6
CONTINUOUS
  0
LAYER
  5
E5
100
AcDbSymbolTableRecord
100
AcDbLayerTableRecord
  2
6-9
 70
    0
 62
250
  6
CONTINUOUS
  0
LAYER
  5
E6
100
AcDbSymbolTableRecord
100
AcDbLayerTableRecord
  2
6-a
 70
    0
 62
250
  6
CONTINUOUS
  0
LAYER
  5
E7
100
AcDbSymbolTableRecord
100
AcDbLayerTableRecord
  2
6-b
 70
    0
 62
250
  6
CONTINUOUS
  0
LAYER
  5
E8
100
AcDbSymbolTableRecord
100
AcDbLayerTableRecord
  2
6-c
 70
    0
 62
250
  6
CONTINUOUS
  0
LAYER
  5
E9
100
AcDbSymbolTableRecord
100
AcDbLayerTableRecord
  2
6-d
 70
    0
 62
250
  6
CONTINUOUS
  0
LAYER
  5
EA
100
AcDbSymbolTableRecord
100
AcDbLayerTableRecord
  2
6-e
 70
    0
 62
250
  6
CONTINUOUS
  0
LAYER
  5
EB
100
AcDbSymbolTableRecord
100
AcDbLayerTableRecord
  2
6-f
 70
    0
 62
250
  6
CONTINUOUS
  0
LAYER
  5
EC
100
AcDbSymbolTableRecord
100
AcDbLayerTableRecord
  2
7-0
 70
    0
 62
250
  6
CONTINUOUS
  0
LAYER
  5
ED
100
AcDbSymbolTableRecord
100
AcDbLayerTableRecord
  2
7-1
 70
    0
 62
250
  6
CONTINUOUS
  0
LAYER
  5
EE
100
AcDbSymbolTableRecord
100
AcDbLayerTableRecord
  2
7-2
 70
    0
 62
250
  6
CONTINUOUS
  0
LAYER
  5
EF
100
AcDbSymbolTableRecord
100
AcDbLayerTableRecord
  2
7-3
 70
    0
 62
250
  6
CONTINUOUS
  0
LAYER
  5
F0
100
AcDbSymbolTableRecord
100
AcDbLayerTableRecord
  2
7-4
 70
    0
 62
250
  6
CONTINUOUS
  0
LAYER
  5
F1
100
AcDbSymbolTableRecord
100
AcDbLayerTableRecord
  2
7-5
 70
    0
 62
250
  6
CONTINUOUS
  0
LAYER
  5
F2
100
AcDbSymbolTableRecord
100
AcDbLayerTableRecord
  2
7-6
 70
    0
 62
250
  6
CONTINUOUS
  0
LAYER
  5
F3
100
AcDbSymbolTableRecord
100
AcDbLayerTableRecord
  2
7-7
 70
    0
 62
250
  6
CONTINUOUS
  0
LAYER
  5
F4
100
AcDbSymbolTableRecord
100
AcDbLayerTableRecord
  2
7-8
 70
    0
 62
250
  6
CONTINUOUS
  0
LAYER
  5
F5
100
AcDbSymbolTableRecord
100
AcDbLayerTableRecord
  2
7-9
 70
    0
 62
250
  6
CONTINUOUS
  0
LAYER
  5
F6
100
AcDbSymbolTableRecord
100
AcDbLayerTableRecord
  2
7-a
 70
    0
 62
250
  6
CONTINUOUS
  0
LAYER
  5
F7
100
AcDbSymbolTableRecord
100
AcDbLayerTableRecord
  2
7-b
 70
    0
 62
250
  6
CONTINUOUS
  0
LAYER
  5
F8
100
AcDbSymbolTableRecord
100
AcDbLayerTableRecord
  2
7-c
 70
    0
 62
250
  6
CONTINUOUS
  0
LAYER
  5
F9
100
AcDbSymbolTableRecord
100
AcDbLayerTableRecord
  2
7-d
 70
    0
 62
250
  6
CONTINUOUS
  0
LAYER
  5
FA
100
AcDbSymbolTableRecord
100
AcDbLayerTableRecord
  2
7-e
 70
    0
 62
250
  6
CONTINUOUS
  0
LAYER
  5
FB
100
AcDbSymbolTableRecord
100
AcDbLayerTableRecord
  2
7-f
 70
    0
 62
250
  6
CONTINUOUS
  0
LAYER
  5
FC
100
AcDbSymbolTableRecord
100
AcDbLayerTableRecord
  2
8-0
 70
    0
 62
250
  6
CONTINUOUS
  0
LAYER
  5
FD
100
AcDbSymbolTableRecord
100
AcDbLayerTableRecord
  2
8-1
 70
    0
 62
250
  6
CONTINUOUS
  0
LAYER
  5
FE
100
AcDbSymbolTableRecord
100
AcDbLayerTableRecord
  2
8-2
 70
    0
 62
250
  6
CONTINUOUS
  0
LAYER
  5
FF
100
AcDbSymbolTableRecord
100
AcDbLayerTableRecord
  2
8-3
 70
    0
 62
250
  6
CONTINUOUS
  0
LAYER
  5
100
100
AcDbSymbolTableRecord
100
AcDbLayerTableRecord
  2
8-4
 70
    0
 62
250
  6
CONTINUOUS
  0
LAYER
  5
101
100
AcDbSymbolTableRecord
100
AcDbLayerTableRecord
  2
8-5
 70
    0
 62
250
  6
CONTINUOUS
  0
LAYER
  5
102
100
AcDbSymbolTableRecord
100
AcDbLayerTableRecord
  2
8-6
 70
    0
 62
250
  6
CONTINUOUS
  0
LAYER
  5
103
100
AcDbSymbolTableRecord
100
AcDbLayerTableRecord
  2
8-7
 70
    0
 62
250
  6
CONTINUOUS
  0
LAYER
  5
104
100
AcDbSymbolTableRecord
100
AcDbLayerTableRecord
  2
8-8
 70
    0
 62
250
  6
CONTINUOUS
  0
LAYER
  5
105
100
AcDbSymbolTableRecord
100
AcDbLayerTableRecord
  2
8-9
 70
    0
 62
250
  6
CONTINUOUS
  0
LAYER
  5
106
100
AcDbSymbolTableRecord
100
AcDbLayerTableRecord
  2
8-a
 70
    0
 62
250
  6
CONTINUOUS
  0
LAYER
  5
107
100
AcDbSymbolTableRecord
100
AcDbLayerTableRecord
  2
8-b
 70
    0
 62
250
  6
CONTINUOUS
  0
LAYER
  5
108
100
AcDbSymbolTableRecord
100
AcDbLayerTableRecord
  2
8-c
 70
    0
 62
250
  6
CONTINUOUS
  0
LAYER
  5
109
100
AcDbSymbolTableRecord
100
AcDbLayerTableRecord
  2
8-d
 70
    0
 62
250
  6
CONTINUOUS
  0
LAYER
  5
10A
100
AcDbSymbolTableRecord
100
AcDbLayerTableRecord
  2
8-e
 70
    0
 62
250
  6
CONTINUOUS
  0
LAYER
  5
10B
100
AcDbSymbolTableRecord
100
AcDbLayerTableRecord
  2
8-f
 70
    0
 62
250
  6
CONTINUOUS
  0
LAYER
  5
10C
100
AcDbSymbolTableRecord
100
AcDbLayerTableRecord
  2
9-0
 70
    0
 62
250
  6
CONTINUOUS
  0
LAYER
  5
10D
100
AcDbSymbolTableRecord
100
AcDbLayerTableRecord
  2
9-1
 70
    0
 62
250
  6
CONTINUOUS
  0
LAYER
  5
10E
100
AcDbSymbolTableRecord
100
AcDbLayerTableRecord
  2
9-2
 70
    0
 62
250
  6
CONTINUOUS
  0
LAYER
  5
10F
100
AcDbSymbolTableRecord
100
AcDbLayerTableRecord
  2
9-3
 70
    0
 62
250
  6
CONTINUOUS
  0
LAYER
  5
110
100
AcDbSymbolTableRecord
100
AcDbLayerTableRecord
  2
9-4
 70
    0
 62
250
  6
CONTINUOUS
  0
LAYER
  5
111
100
AcDbSymbolTableRecord
100
AcDbLayerTableRecord
  2
9-5
 70
    0
 62
250
  6
CONTINUOUS
  0
LAYER
  5
112
100
AcDbSymbolTableRecord
100
AcDbLayerTableRecord
  2
9-6
 70
    0
 62
250
  6
CONTINUOUS
  0
LAYER
  5
113
100
AcDbSymbolTableRecord
100
AcDbLayerTableRecord
  2
9-7
 70
    0
 62
250
  6
CONTINUOUS
  0
LAYER
  5
114
100
AcDbSymbolTableRecord
100
AcDbLayerTableRecord
  2
9-8
 70
    0
 62
250
  6
CONTINUOUS
  0
LAYER
  5
115
100
AcDbSymbolTableRecord
100
AcDbLayerTableRecord
  2
9-9
 70
    0
 62
250
  6
CONTINUOUS
  0
LAYER
  5
116
100
AcDbSymbolTableRecord
100
AcDbLayerTableRecord
  2
9-a
 70
    0
 62
250
  6
CONTINUOUS
  0
LAYER
  5
117
100
AcDbSymbolTableRecord
100
AcDbLayerTableRecord
  2
9-b
 70
    0
 62
250
  6
CONTINUOUS
  0
LAYER
  5
118
100
AcDbSymbolTableRecord
100
AcDbLayerTableRecord
  2
9-c
 70
    0
 62
250
  6
CONTINUOUS
  0
LAYER
  5
119
100
AcDbSymbolTableRecord
100
AcDbLayerTableRecord
  2
9-d
 70
    0
 62
250
  6
CONTINUOUS
  0
LAYER
  5
11A
100
AcDbSymbolTableRecord
100
AcDbLayerTableRecord
  2
9-e
 70
    0
 62
250
  6
CONTINUOUS
  0
LAYER
  5
11B
100
AcDbSymbolTableRecord
100
AcDbLayerTableRecord
  2
9-f
 70
    0
 62
250
  6
CONTINUOUS
  0
LAYER
  5
11C
100
AcDbSymbolTableRecord
100
AcDbLayerTableRecord
  2
a-0
 70
    0
 62
250
  6
CONTINUOUS
  0
LAYER
  5
11D
100
AcDbSymbolTableRecord
100
AcDbLayerTableRecord
  2
a-1
 70
    0
 62
250
  6
CONTINUOUS
  0
LAYER
  5
11E
100
AcDbSymbolTableRecord
100
AcDbLayerTableRecord
  2
a-2
 70
    0
 62
250
  6
CONTINUOUS
  0
LAYER
  5
11F
100
AcDbSymbolTableRecord
100
AcDbLayerTableRecord
  2
a-3
 70
    0
 62
250
  6
CONTINUOUS
  0
LAYER
  5
120
100
AcDbSymbolTableRecord
100
AcDbLayerTableRecord
  2
a-4
 70
    0
 62
250
  6
CONTINUOUS
  0
LAYER
  5
121
100
AcDbSymbolTableRecord
100
AcDbLayerTableRecord
  2
a-5
 70
    0
 62
250
  6
CONTINUOUS
  0
LAYER
  5
122
100
AcDbSymbolTableRecord
100
AcDbLayerTableRecord
  2
a-6
 70
    0
 62
250
  6
CONTINUOUS
  0
LAYER
  5
123
100
AcDbSymbolTableRecord
100
AcDbLayerTableRecord
  2
a-7
 70
    0
 62
250
  6
CONTINUOUS
  0
LAYER
  5
124
100
AcDbSymbolTableRecord
100
AcDbLayerTableRecord
  2
a-8
 70
    0
 62
250
  6
CONTINUOUS
  0
LAYER
  5
125
100
AcDbSymbolTableRecord
100
AcDbLayerTableRecord
  2
a-9
 70
    0
 62
250
  6
CONTINUOUS
  0
LAYER
  5
126
100
AcDbSymbolTableRecord
100
AcDbLayerTableRecord
  2
a-a
 70
    0
 62
250
  6
CONTINUOUS
  0
LAYER
  5
127
100
AcDbSymbolTableRecord
100
AcDbLayerTableRecord
  2
a-b
 70
    0
 62
250
  6
CONTINUOUS
  0
LAYER
  5
128
100
AcDbSymbolTableRecord
100
AcDbLayerTableRecord
  2
a-c
 70
    0
 62
250
  6
CONTINUOUS
  0
LAYER
  5
129
100
AcDbSymbolTableRecord
100
AcDbLayerTableRecord
  2
a-d
 70
    0
 62
250
  6
CONTINUOUS
  0
LAYER
  5
12A
100
AcDbSymbolTableRecord
100
AcDbLayerTableRecord
  2
a-e
 70
    0
 62
250
  6
CONTINUOUS
  0
LAYER
  5
12B
100
AcDbSymbolTableRecord
100
AcDbLayerTableRecord
  2
a-f
 70
    0
 62
250
  6
CONTINUOUS
  0
LAYER
  5
12C
100
AcDbSymbolTableRecord
100
AcDbLayerTableRecord
  2
b-0
 70
    0
 62
250
  6
CONTINUOUS
  0
LAYER
  5
12D
100
AcDbSymbolTableRecord
100
AcDbLayerTableRecord
  2
b-1
 70
    0
 62
250
  6
CONTINUOUS
  0
LAYER
  5
12E
100
AcDbSymbolTableRecord
100
AcDbLayerTableRecord
  2
b-2
 70
    0
 62
250
  6
CONTINUOUS
  0
LAYER
  5
12F
100
AcDbSymbolTableRecord
100
AcDbLayerTableRecord
  2
b-3
 70
    0
 62
250
  6
CONTINUOUS
  0
LAYER
  5
130
100
AcDbSymbolTableRecord
100
AcDbLayerTableRecord
  2
b-4
 70
    0
 62
250
  6
CONTINUOUS
  0
LAYER
  5
131
100
AcDbSymbolTableRecord
100
AcDbLayerTableRecord
  2
b-5
 70
    0
 62
250
  6
CONTINUOUS
  0
LAYER
  5
132
100
AcDbSymbolTableRecord
100
AcDbLayerTableRecord
  2
b-6
 70
    0
 62
250
  6
CONTINUOUS
  0
LAYER
  5
133
100
AcDbSymbolTableRecord
100
AcDbLayerTableRecord
  2
b-7
 70
    0
 62
250
  6
CONTINUOUS
  0
LAYER
  5
134
100
AcDbSymbolTableRecord
100
AcDbLayerTableRecord
  2
b-8
 70
    0
 62
250
  6
CONTINUOUS
  0
LAYER
  5
135
100
AcDbSymbolTableRecord
100
AcDbLayerTableRecord
  2
b-9
 70
    0
 62
250
  6
CONTINUOUS
  0
LAYER
  5
136
100
AcDbSymbolTableRecord
100
AcDbLayerTableRecord
  2
b-a
 70
    0
 62
250
  6
CONTINUOUS
  0
LAYER
  5
137
100
AcDbSymbolTableRecord
100
AcDbLayerTableRecord
  2
b-b
 70
    0
 62
250
  6
CONTINUOUS
  0
LAYER
  5
138
100
AcDbSymbolTableRecord
100
AcDbLayerTableRecord
  2
b-c
 70
    0
 62
250
  6
CONTINUOUS
  0
LAYER
  5
139
100
AcDbSymbolTableRecord
100
AcDbLayerTableRecord
  2
b-d
 70
    0
 62
250
  6
CONTINUOUS
  0
LAYER
  5
13A
100
AcDbSymbolTableRecord
100
AcDbLayerTableRecord
  2
b-e
 70
    0
 62
250
  6
CONTINUOUS
  0
LAYER
  5
13B
100
AcDbSymbolTableRecord
100
AcDbLayerTableRecord
  2
b-f
 70
    0
 62
250
  6
CONTINUOUS
  0
LAYER
  5
13C
100
AcDbSymbolTableRecord
100
AcDbLayerTableRecord
  2
c-0
 70
    0
 62
250
  6
CONTINUOUS
  0
LAYER
  5
13D
100
AcDbSymbolTableRecord
100
AcDbLayerTableRecord
  2
c-1
 70
    0
 62
250
  6
CONTINUOUS
  0
LAYER
  5
13E
100
AcDbSymbolTableRecord
100
AcDbLayerTableRecord
  2
c-2
 70
    0
 62
250
  6
CONTINUOUS
  0
LAYER
  5
13F
100
AcDbSymbolTableRecord
100
AcDbLayerTableRecord
  2
c-3
 70
    0
 62
250
  6
CONTINUOUS
  0
LAYER
  5
140
100
AcDbSymbolTableRecord
100
AcDbLayerTableRecord
  2
c-4
 70
    0
 62
250
  6
CONTINUOUS
  0
LAYER
  5
141
100
AcDbSymbolTableRecord
100
AcDbLayerTableRecord
  2
c-5
 70
    0
 62
250
  6
CONTINUOUS
  0
LAYER
  5
142
100
AcDbSymbolTableRecord
100
AcDbLayerTableRecord
  2
c-6
 70
    0
 62
250
  6
CONTINUOUS
  0
LAYER
  5
143
100
AcDbSymbolTableRecord
100
AcDbLayerTableRecord
  2
c-7
 70
    0
 62
250
  6
CONTINUOUS
  0
LAYER
  5
144
100
AcDbSymbolTableRecord
100
AcDbLayerTableRecord
  2
c-8
 70
    0
 62
250
  6
CONTINUOUS
  0
LAYER
  5
145
100
AcDbSymbolTableRecord
100
AcDbLayerTableRecord
  2
c-9
 70
    0
 62
250
  6
CONTINUOUS
  0
LAYER
  5
146
100
AcDbSymbolTableRecord
100
AcDbLayerTableRecord
  2
c-a
 70
    0
 62
250
  6
CONTINUOUS
  0
LAYER
  5
147
100
AcDbSymbolTableRecord
100
AcDbLayerTableRecord
  2
c-b
 70
    0
 62
250
  6
CONTINUOUS
  0
LAYER
  5
148
100
AcDbSymbolTableRecord
100
AcDbLayerTableRecord
  2
c-c
 70
    0
 62
250
  6
CONTINUOUS
  0
LAYER
  5
149
100
AcDbSymbolTableRecord
100
AcDbLayerTableRecord
  2
c-d
 70
    0
 62
250
  6
CONTINUOUS
  0
LAYER
  5
14A
100
AcDbSymbolTableRecord
100
AcDbLayerTableRecord
  2
c-e
 70
    0
 62
250
  6
CONTINUOUS
  0
LAYER
  5
14B
100
AcDbSymbolTableRecord
100
AcDbLayerTableRecord
  2
c-f
 70
    0
 62
250
  6
CONTINUOUS
  0
LAYER
  5
14C
100
AcDbSymbolTableRecord
100
AcDbLayerTableRecord
  2
d-0
 70
    0
 62
250
  6
CONTINUOUS
  0
LAYER
  5
14D
100
AcDbSymbolTableRecord
100
AcDbLayerTableRecord
  2
d-1
 70
    0
 62
250
  6
CONTINUOUS
  0
LAYER
  5
14E
100
AcDbSymbolTableRecord
100
AcDbLayerTableRecord
  2
d-2
 70
    0
 62
250
  6
CONTINUOUS
  0
LAYER
  5
14F
100
AcDbSymbolTableRecord
100
AcDbLayerTableRecord
  2
d-3
 70
    0
 62
250
  6
CONTINUOUS
  0
LAYER
  5
150
100
AcDbSymbolTableRecord
100
AcDbLayerTableRecord
  2
d-4
 70
    0
 62
250
  6
CONTINUOUS
  0
LAYER
  5
151
100
AcDbSymbolTableRecord
100
AcDbLayerTableRecord
  2
d-5
 70
    0
 62
250
  6
CONTINUOUS
  0
LAYER
  5
152
100
AcDbSymbolTableRecord
100
AcDbLayerTableRecord
  2
d-6
 70
    0
 62
250
  6
CONTINUOUS
  0
LAYER
  5
153
100
AcDbSymbolTableRecord
100
AcDbLayerTableRecord
  2
d-7
 70
    0
 62
250
  6
CONTINUOUS
  0
LAYER
  5
154
100
AcDbSymbolTableRecord
100
AcDbLayerTableRecord
  2
d-8
 70
    0
 62
250
  6
CONTINUOUS
  0
LAYER
  5
155
100
AcDbSymbolTableRecord
100
AcDbLayerTableRecord
  2
d-9
 70
    0
 62
250
  6
CONTINUOUS
  0
LAYER
  5
156
100
AcDbSymbolTableRecord
100
AcDbLayerTableRecord
  2
d-a
 70
    0
 62
250
  6
CONTINUOUS
  0
LAYER
  5
157
100
AcDbSymbolTableRecord
100
AcDbLayerTableRecord
  2
d-b
 70
    0
 62
250
  6
CONTINUOUS
  0
LAYER
  5
158
100
AcDbSymbolTableRecord
100
AcDbLayerTableRecord
  2
d-c
 70
    0
 62
250
  6
CONTINUOUS
  0
LAYER
  5
159
100
AcDbSymbolTableRecord
100
AcDbLayerTableRecord
  2
d-d
 70
    0
 62
250
  6
CONTINUOUS
  0
LAYER
  5
15A
100
AcDbSymbolTableRecord
100
AcDbLayerTableRecord
  2
d-e
 70
    0
 62
250
  6
CONTINUOUS
  0
LAYER
  5
15B
100
AcDbSymbolTableRecord
100
AcDbLayerTableRecord
  2
d-f
 70
    0
 62
250
  6
CONTINUOUS
  0
LAYER
  5
15C
100
AcDbSymbolTableRecord
100
AcDbLayerTableRecord
  2
e-0
 70
    0
 62
250
  6
CONTINUOUS
  0
LAYER
  5
15D
100
AcDbSymbolTableRecord
100
AcDbLayerTableRecord
  2
e-1
 70
    0
 62
250
  6
CONTINUOUS
  0
LAYER
  5
15E
100
AcDbSymbolTableRecord
100
AcDbLayerTableRecord
  2
e-2
 70
    0
 62
250
  6
CONTINUOUS
  0
LAYER
  5
15F
100
AcDbSymbolTableRecord
100
AcDbLayerTableRecord
  2
e-3
 70
    0
 62
250
  6
CONTINUOUS
  0
LAYER
  5
160
100
AcDbSymbolTableRecord
100
AcDbLayerTableRecord
  2
e-4
 70
    0
 62
250
  6
CONTINUOUS
  0
LAYER
  5
161
100
AcDbSymbolTableRecord
100
AcDbLayerTableRecord
  2
e-5
 70
    0
 62
250
  6
CONTINUOUS
  0
LAYER
  5
162
100
AcDbSymbolTableRecord
100
AcDbLayerTableRecord
  2
e-6
 70
    0
 62
250
  6
CONTINUOUS
  0
LAYER
  5
163
100
AcDbSymbolTableRecord
100
AcDbLayerTableRecord
  2
e-7
 70
    0
 62
250
  6
CONTINUOUS
  0
LAYER
  5
164
100
AcDbSymbolTableRecord
100
AcDbLayerTableRecord
  2
e-8
 70
    0
 62
250
  6
CONTINUOUS
  0
LAYER
  5
165
100
AcDbSymbolTableRecord
100
AcDbLayerTableRecord
  2
e-9
 70
    0
 62
250
  6
CONTINUOUS
  0
LAYER
  5
166
100
AcDbSymbolTableRecord
100
AcDbLayerTableRecord
  2
e-a
 70
    0
 62
250
  6
CONTINUOUS
  0
LAYER
  5
167
100
AcDbSymbolTableRecord
100
AcDbLayerTableRecord
  2
e-b
 70
    0
 62
250
  6
CONTINUOUS
  0
LAYER
  5
168
100
AcDbSymbolTableRecord
100
AcDbLayerTableRecord
  2
e-c
 70
    0
 62
250
  6
CONTINUOUS
  0
LAYER
  5
169
100
AcDbSymbolTableRecord
100
AcDbLayerTableRecord
  2
e-d
 70
    0
 62
250
  6
CONTINUOUS
  0
LAYER
  5
16A
100
AcDbSymbolTableRecord
100
AcDbLayerTableRecord
  2
e-e
 70
    0
 62
250
  6
CONTINUOUS
  0
LAYER
  5
16B
100
AcDbSymbolTableRecord
100
AcDbLayerTableRecord
  2
e-f
 70
    0
 62
250
  6
CONTINUOUS
  0
LAYER
  5
16C
100
AcDbSymbolTableRecord
100
AcDbLayerTableRecord
  2
f-0
 70
    0
 62
250
  6
CONTINUOUS
  0
LAYER
  5
16D
100
AcDbSymbolTableRecord
100
AcDbLayerTableRecord
  2
f-1
 70
    0
 62
250
  6
CONTINUOUS
  0
LAYER
  5
16E
100
AcDbSymbolTableRecord
100
AcDbLayerTableRecord
  2
f-2
 70
    0
 62
250
  6
CONTINUOUS
  0
LAYER
  5
16F
100
AcDbSymbolTableRecord
100
AcDbLayerTableRecord
  2
f-3
 70
    0
 62
250
  6
CONTINUOUS
  0
LAYER
  5
170
100
AcDbSymbolTableRecord
100
AcDbLayerTableRecord
  2
f-4
 70
    0
 62
250
  6
CONTINUOUS
  0
LAYER
  5
171
100
AcDbSymbolTableRecord
100
AcDbLayerTableRecord
  2
f-5
 70
    0
 62
250
  6
CONTINUOUS
  0
LAYER
  5
172
100
AcDbSymbolTableRecord
100
AcDbLayerTableRecord
  2
f-6
 70
    0
 62
250
  6
CONTINUOUS
  0
LAYER
  5
173
100
AcDbSymbolTableRecord
100
AcDbLayerTableRecord
  2
f-7
 70
    0
 62
250
  6
CONTINUOUS
  0
LAYER
  5
174
100
AcDbSymbolTableRecord
100
AcDbLayerTableRecord
  2
f-8
 70
    0
 62
250
  6
CONTINUOUS
  0
LAYER
  5
175
100
AcDbSymbolTableRecord
100
AcDbLayerTableRecord
  2
f-9
 70
    0
 62
250
  6
CONTINUOUS
  0
LAYER
  5
176
100
AcDbSymbolTableRecord
100
AcDbLayerTableRecord
  2
f-a
 70
    0
 62
250
  6
CONTINUOUS
  0
LAYER
  5
177
100
AcDbSymbolTableRecord
100
AcDbLayerTableRecord
  2
f-b
 70
    0
 62
250
  6
CONTINUOUS
  0
LAYER
  5
178
100
AcDbSymbolTableRecord
100
AcDbLayerTableRecord
  2
f-c
 70
    0
 62
250
  6
CONTINUOUS
  0
LAYER
  5
179
100
AcDbSymbolTableRecord
100
AcDbLayerTableRecord
  2
f-d
 70
    0
 62
250
  6
CONTINUOUS
  0
LAYER
  5
17A
100
AcDbSymbolTableRecord
100
AcDbLayerTableRecord
  2
f-e
 70
    0
 62
250
  6
CONTINUOUS
  0
LAYER
  5
17B
100
AcDbSymbolTableRecord
100
AcDbLayerTableRecord
  2
f-f
 70
    0
 62
250
  6
CONTINUOUS
  0
LAYER
  5
17C
100
AcDbSymbolTableRecord
100
AcDbLayerTableRecord
  2
0
 70
   64
 62
    7
  6
CONTINUOUS
  0
ENDTAB
  0
TABLE
  2
STYLE
  5
4
100
AcDbSymbolTable
 70
     1
  0
STYLE
  5
17D
100
AcDbSymbolTableRecord
100
AcDbTextStyleTableRecord
  2
Standard
 70
     0
 40
0.0
 41
1.0
 50
0.0
 71
     0
 42
3.2
  3
TXT
  4
BIGFONT
  0
STYLE
  5
17E
100
AcDbSymbolTableRecord
100
AcDbTextStyleTableRecord
  2
Font_0
 70
     0
 40
0.0
 41
1.0
 50
0.0
 71
     0
 42
3.2
  3
MS Gothic.ttf
  4

1001
ACAD
1000
MS Gothic
1071
  32817
  0
STYLE
  5
17F
100
AcDbSymbolTableRecord
100
AcDbTextStyleTableRecord
  2
Font_1
 70
     0
 40
0.0
 41
1.0
 50
0.0
 71
     0
 42
3.2
  3
txt
  4
BIGFONT
  0
STYLE
  5
180
100
AcDbSymbolTableRecord
100
AcDbTextStyleTableRecord
  2
Font_2
 70
     0
 40
0.0
 41
1.0
 50
0.0
 71
     0
 42
3.2
  3
MS PGothic.ttf
  4

1001
ACAD
1000
MS PGothic
1071
  32818
  0
ENDTAB
  0
TABLE
  2
VIEW
  5
5
100
AcDbSymbolTable
 70
     0
  0
ENDTAB
  0
TABLE
  2
UCS
  5
6
100
AcDbSymbolTable
 70
     0
  0
ENDTAB
  0
TABLE
  2
APPID
  5
7
100
AcDbSymbolTable
 70
     1
  0
APPID
  5
181
100
AcDbSymbolTableRecord
100
AcDbRegAppTableRecord
  2
ACAD
 70
     0
  0
ENDTAB
  0
TABLE
  2
DIMSTYLE
  5
8
100
AcDbSymbolTable
 70
     1
  0
DIMSTYLE
105
2A
100
AcDbSymbolTableRecord
100
AcDbDimStyleTableRecord
  2
STANDARD
 70
     0
  3

  4

  5

  6

  7

 40
1.0
 41
2.5
 42
2.0
 43
7.0
 44
1.25
 45
0.0
 46
0.0
 47
0.0
 48
0.0
 71
     0
 72
     0
 73
     0
 74
     0
 75
     0
 76
     0
 77
     1
 78
     0
140
2.5
141
2.5
142
0.0
143
0.0394
144
1.0
145
0.0
146
1.0
147
1.0
170
     0
171
     2
172
     0
173
     0
174
     1
175
     0
176
     0
177
     0
178
     0
270
     2
271
     2
272
     4
273
     2
274
     2
275
     0
280
     0
281
     0
282
     0
283
     1
284
     0
285
     0
286
     0
287
     3
288
     0
  0
ENDTAB
  0
TABLE
  2
BLOCK_RECORD
  5
9
100
AcDbSymbolTable
 70
     0
  0
BLOCK_RECORD
  5
182
100
AcDbSymbolTableRecord
100
AcDbBlockTableRecord
  2
*MODEL_SPACE
  0
BLOCK_RECORD
  5
183
100
AcDbSymbolTableRecord
100
AcDbBlockTableRecord
  2
*PAPER_SPACE
  0
BLOCK_RECORD
  5
184
100
AcDbSymbolTableRecord
100
AcDbBlockTableRecord
  2
DXF53
  0
ENDTAB
  0
ENDSEC
  0
SECTION
  2
BLOCKS
  0
BLOCK
  5
186
100
AcDbEntity
  8
0
100
AcDbBlockBegin
2
*MODEL_SPACE
 70
     0
 10
0.0
 20
0.0
 30
0.0
  3
*MODEL_SPACE
  1

  0
ENDBLK
  5
187
100
AcDbEntity
  8
0-0
100
AcDbBlockEnd
  0
BLOCK
  5
188
100
AcDbEntity
 67
     1
  8
0-0
100
AcDbBlockBegin
  2
*PAPER_SPACE
 70
     0
 10
0.0
 20
0.0
 30
0.0
  3
*PAPER_SPACE
  1

  0
ENDBLK
  5
189
100
AcDbEntity
 67
     1
  8
0-0
100
AcDbBlockEnd
  0
BLOCK
  5
18A
100
AcDbEntity
  8
0-0
100
AcDbBlockBegin
  2
DXF53
 70
    0
 10
68.6802727775465
 20
19.2552633683767
 30
0.0
  3
DXF53
  1

  0
LINE
  5
18B
100
AcDbEntity
  8
0-1
100
AcDbLine
  6
CONTINUOUS
 62
4
370
13
 10
70.1256422524429
 20
16.1552725236502
 11
68.7269008791297
 21
19.155256629252
  0
LINE
  5
18C
100
AcDbEntity
  8
0-1
100
AcDbLine
  6
CONTINUOUS
 62
4
370
13
 10
68.680268508905
 20
19.2552725236481
 11
67.5612694816481
 21
21.6552725236502
  0
ENDBLK
  5
18D
100
AcDbEntity
  8
0-0
 67
     1
100
AcDbBlockEnd
  0
ENDSEC
  0
SECTION
  2
ENTITIES
  0
LINE
  5
18E
100
AcDbEntity
  8
0-0
100
AcDbLine
  6
CONTINUOUS
 62
7
370
30
 10
5.38199364769443
 20
12.391351
 11
577.260204973627
 21
12.391351
  0
MTEXT
  5
18F
100
AcDbEntity
  8
0-0
100
AcDbMText
 10
272.960119438059
 20
11.0251490331239
 40
6
 41
  0.0
  1
{\fMS Gothic|b1;MinatoConcept,Inc.}
  7
Font_0
  0
LINE
  5
190
100
AcDbEntity
  8
0-0
100
AcDbLine
  6
CONTINUOUS
 62
7
370
30
 10
577.260204973627
 20
404.805953846495
 11
577.260204973627
 21
12.391351
  0
LINE
  5
191
100
AcDbEntity
  8
0-0
100
AcDbLine
  6
CONTINUOUS
 62
7
370
30
 10
379.066556374039
 20
12.3932556053979
 11
577.264095246313
 21
12.3932556053979
  0
LINE
  5
192
100
AcDbEntity
  8
0-0
100
AcDbLine
  6
CONTINUOUS
 62
7
370
30
 10
379.066556374039
 20
55.3932756053979
 11
379.066556374039
 21
12.3932556053979
  0
LINE
  5
193
100
AcDbEntity
  8
0-0
100
AcDbLine
  6
CONTINUOUS
 62
7
370
30
 10
379.066556374039
 20
30.3932556053979
 11
577.264095246313
 21
30.3932556053979
  0
LINE
  5
194
100
AcDbEntity
  8
0-0
100
AcDbLine
  6
CONTINUOUS
 62
7
370
30
 10
379.066556374039
 20
35.3932556053979
 11
577.264095246313
 21
35.3932556053979
  0
LINE
  5
195
100
AcDbEntity
  8
0-0
100
AcDbLine
  6
CONTINUOUS
 62
7
370
30
 10
379.066556374039
 20
55.3932756053979
 11
577.264095246313
 21
55.3932756053979
  0
LINE
  5
196
100
AcDbEntity
  8
0-0
100
AcDbLine
  6
CONTINUOUS
 62
7
370
30
 10
388.066556374039
 20
55.3932756053979
 11
388.066556374039
 21
30.3932556053979
  0
LINE
  5
197
100
AcDbEntity
  8
0-0
100
AcDbLine
  6
CONTINUOUS
 62
7
370
30
 10
393.066556374039
 20
30.3932556053979
 11
393.066556374039
 21
12.3932556053979
  0
LINE
  5
198
100
AcDbEntity
  8
0-0
100
AcDbLine
  6
CONTINUOUS
 62
7
370
30
 10
407.066556374039
 20
30.3932556053979
 11
407.066556374039
 21
12.3932556053979
  0
LINE
  5
199
100
AcDbEntity
  8
0-0
100
AcDbLine
  6
CONTINUOUS
 62
7
370
30
 10
421.066556374039
 20
30.3932556053979
 11
421.066556374039
 21
12.3932556053979
  0
LINE
  5
19A
100
AcDbEntity
  8
0-0
100
AcDbLine
  6
CONTINUOUS
 62
7
370
30
 10
435.066556374039
 20
30.3932556053979
 11
435.066556374039
 21
12.3932556053979
  0
LINE
  5
19B
100
AcDbEntity
  8
0-0
100
AcDbLine
  6
CONTINUOUS
 62
7
370
30
 10
449.066556374039
 20
55.3932756053979
 11
449.066556374039
 21
12.3932556053979
  0
LINE
  5
19C
100
AcDbEntity
  8
0-0
100
AcDbLine
  6
CONTINUOUS
 62
7
370
30
 10
523.066556374038
 20
30.3932556053979
 11
523.066556374038
 21
12.3932556053979
  0
LINE
  5
19D
100
AcDbEntity
  8
0-0
100
AcDbLine
  6
CONTINUOUS
 62
7
370
30
 10
517.801955374038
 20
14.3932556053979
 11
453.905455374038
 21
14.3932556053979
  0
TEXT
  5
19E
100
AcDbEntity
  8
0-0
 62
7
100
AcDbText
  6
BYLAYER
 62
7
 10
393.226236025887
 20
30.8932546053979
 40
4
  1
年月日
  7
Font_0
100
AcDbText
  0
TEXT
  5
19F
100
AcDbEntity
  8
0-0
 62
7
100
AcDbText
  6
BYLAYER
 62
7
 10
423.990227835421
 20
30.8932546053979
 40
4
  1
記  事
  7
Font_0
100
AcDbText
  0
LINE
  5
1A0
100
AcDbEntity
  8
0-0
100
AcDbLine
  6
CONTINUOUS
 62
7
370
30
 10
381.257156374038
 20
51.0462756053979
 11
385.875955374038
 21
51.0462756053979
  0
LINE
  5
1A1
100
AcDbEntity
  8
0-0
100
AcDbLine
  6
CONTINUOUS
 62
7
370
30
 10
383.566556374039
 20
55.0462756053979
 11
385.875956374038
 21
51.0462756053979
  0
LINE
  5
1A2
100
AcDbEntity
  8
0-0
100
AcDbLine
  6
CONTINUOUS
 62
7
370
30
 10
383.566556374039
 20
55.0462746053979
 11
381.257156374038
 21
51.0462746053979
  0
LINE
  5
1A3
100
AcDbEntity
  8
0-0
100
AcDbLine
  6
CONTINUOUS
 62
7
370
30
 10
383.566556374039
 20
50.0462756053979
 11
381.257156374038
 21
46.0462756053979
  0
LINE
  5
1A4
100
AcDbEntity
  8
0-0
100
AcDbLine
  6
CONTINUOUS
 62
7
370
30
 10
381.257156374038
 20
46.0462756053979
 11
385.875955374038
 21
46.0462756053979
  0
LINE
  5
1A5
100
AcDbEntity
  8
0-0
100
AcDbLine
  6
CONTINUOUS
 62
7
370
30
 10
383.566556374039
 20
50.0462756053979
 11
385.875956374038
 21
46.0462756053979
  0
LINE
  5
1A6
100
AcDbEntity
  8
0-0
100
AcDbLine
  6
CONTINUOUS
 62
7
370
30
 10
383.566555374039
 20
45.0462756053979
 11
381.257155374038
 21
41.0463156053979
  0
LINE
  5
1A7
100
AcDbEntity
  8
0-0
100
AcDbLine
  6
CONTINUOUS
 62
7
370
30
 10
381.257156374038
 20
41.0463146053979
 11
385.875955374038
 21
41.0463146053979
  0
LINE
  5
1A8
100
AcDbEntity
  8
0-0
100
AcDbLine
  6
CONTINUOUS
 62
7
370
30
 10
383.566556374039
 20
45.0462756053979
 11
385.875955374038
 21
41.0463156053979
  0
LINE
  5
1A9
100
AcDbEntity
  8
0-0
100
AcDbLine
  6
CONTINUOUS
 62
7
370
30
 10
383.566556374039
 20
40.0463156053979
 11
381.257156374038
 21
36.0463156053979
  0
LINE
  5
1AA
100
AcDbEntity
  8
0-0
100
AcDbLine
  6
CONTINUOUS
 62
7
370
30
 10
381.257156374038
 20
36.0463146053979
 11
385.875955374038
 21
36.0463146053979
  0
LINE
  5
1AB
100
AcDbEntity
  8
0-0
100
AcDbLine
  6
CONTINUOUS
 62
7
370
30
 10
383.566556374039
 20
40.0463156053979
 11
385.875956374038
 21
36.0463156053979
  0
TEXT
  5
1AC
100
AcDbEntity
  8
0-0
 62
7
100
AcDbText
  6
BYLAYER
 62
7
 10
380.273452374038
 20
31.3415306053979
 40
3.103449
  1
来歴
  7
Font_0
100
AcDbText
  0
TEXT
  5
1AD
100
AcDbEntity
  8
0-0
 62
7
100
AcDbText
  6
BYLAYER
 62
7
 10
439.04913002955
 20
26.3932556053979
 40
3
  1
製図
  7
Font_0
100
AcDbText
  0
TEXT
  5
1AE
100
AcDbEntity
  8
0-0
 62
7
100
AcDbText
  6
BYLAYER
 62
7
 10
411.165505166273
 20
26.3932556053979
 40
3
  1
検図
  7
Font_0
100
AcDbText
  0
TEXT
  5
1AF
100
AcDbEntity
  8
0-0
 62
7
100
AcDbText
  6
BYLAYER
 62
7
 10
397.308733445496
 20
26.3932556053979
 40
3
  1
承認
  7
Font_0
100
AcDbText
  0
TEXT
  5
1B0
100
AcDbEntity
  8
0-0
 62
7
100
AcDbText
  6
BYLAYER
 62
7
 10
454.066556374039
 20
25.3932556053979
 40
3
  1
品名
  7
Font_0
100
AcDbText
  0
POINT
  5
1B1
100
AcDbEntity
  8
0-0
100
AcDbPoint
 62
7
 10
464.066556374038
 20
25.1068156053979
  0
POINT
  5
1B2
100
AcDbEntity
  8
0-0
100
AcDbPoint
 62
7
 10
464.066556374038
 20
16.658145605398
  0
TEXT
  5
1B3
100
AcDbEntity
  8
0-0
 62
7
100
AcDbText
  6
BYLAYER
 62
7
 10
382.458656374038
 20
26.1610856053979
 40
3
  1
尺度
  7
Font_0
100
AcDbText
  0
LINE
  5
1B4
100
AcDbEntity
  8
0-0
100
AcDbLine
  6
CONTINUOUS
 62
7
370
30
 10
382.954460374038
 20
15.1087655323899
 11
389.602055374038
 21
21.7564175323899
  0
POINT
  5
1B5
100
AcDbEntity
  8
0-0
100
AcDbPoint
 62
7
 10
400.066556374039
 20
19.3932556053979
  0
POINT
  5
1B6
100
AcDbEntity
  8
0-0
100
AcDbPoint
 62
7
 10
428.066556374039
 20
19.3932556053979
  0
POINT
  5
1B7
100
AcDbEntity
  8
0-0
100
AcDbPoint
 62
7
 10
442.066556374039
 20
19.3932556053979
  0
LINE
  5
1B8
100
AcDbEntity
  8
0-0
100
AcDbLine
  6
CONTINUOUS
 62
7
370
30
 10
379.066556374039
 20
40.3932556053979
 11
577.264095246313
 21
40.3932556053979
  0
LINE
  5
1B9
100
AcDbEntity
  8
0-0
100
AcDbLine
  6
CONTINUOUS
 62
7
370
30
 10
379.066556374039
 20
45.3932556053979
 11
577.264095246313
 21
45.3932556053979
  0
LINE
  5
1BA
100
AcDbEntity
  8
0-0
100
AcDbLine
  6
CONTINUOUS
 62
7
370
30
 10
379.066556374039
 20
50.3932556053979
 11
577.264095246313
 21
50.3932556053979
  0
POINT
  5
1BB
100
AcDbEntity
  8
0-0
100
AcDbPoint
 62
7
 10
414.066556374039
 20
19.3932556053979
  0
TEXT
  5
1BC
100
AcDbEntity
  8
0-0
 62
7
100
AcDbText
  6
BYLAYER
 62
7
 10
451.254623243805
 20
31.3432546053979
 40
3.1
  1
品番
  7
Font_0
 11
451.254623243805
 21
34.4432546053979
100
AcDbText
 73
3
  0
TEXT
  5
1BD
100
AcDbEntity
  8
0-0
 62
7
100
AcDbText
  6
BYLAYER
 62
7
 10
474.644942938318
 20
31.3432546053979
 40
3.1
  1
部品名
  7
Font_0
 11
474.644942938318
 21
34.4432546053979
100
AcDbText
 73
3
  0
TEXT
  5
1BE
100
AcDbEntity
  8
0-0
 62
7
100
AcDbText
  6
BYLAYER
 62
7
 10
508.415676130003
 20
31.3432546053979
 40
3.1
  1
材　質
  7
Font_0
 11
508.415676130003
 21
34.4432546053979
100
AcDbText
 73
3
  0
TEXT
  5
1BF
100
AcDbEntity
  8
0-0
 62
7
100
AcDbText
  6
BYLAYER
 62
7
 10
530.171333058133
 20
31.3432546053979
 40
3.1
  1
数量
  7
Font_0
 11
530.171333058133
 21
34.4432546053979
100
AcDbText
 73
3
  0
TEXT
  5
1C0
100
AcDbEntity
  8
0-0
 62
7
100
AcDbText
  6
BYLAYER
 62
7
 10
553.393474601964
 20
31.3432546053979
 40
3.1
  1
備　考
  7
Font_0
 11
553.393474601964
 21
34.4432546053979
100
AcDbText
 73
3
  0
TEXT
  5
1C1
100
AcDbEntity
  8
0-0
 62
7
100
AcDbText
  6
BYLAYER
 62
7
 10
424.999559311448
 20
26.3932556053979
 40
3
  1
検図
  7
Font_0
100
AcDbText
  0
TEXT
  5
1C2
100
AcDbEntity
  8
0-0
 62
5
100
AcDbText
  6
CONTINUOUS
 62
5
 10
453.259442878709
 20
35.8932556053979
 40
4
  1
1
  7
Font_0
 11
453.259442878709
 21
39.8932556053979
100
AcDbText
 73
3
  0
TEXT
  5
1C3
100
AcDbEntity
  8
0-0
100
AcDbText
  6
CONTINUOUS
 10
380.272292759884
 20
17.0897948719836
 40
5
  1
１
  7
Font_0
 11
380.272292759884
 21
22.0897948719836
100
AcDbText
 73
3
  0
TEXT
  5
1C4
100
AcDbEntity
  8
0-0
100
AcDbText
  6
CONTINUOUS
 10
386.924939535258
 20
15.0859856022927
 40
5
  1
１
  7
Font_0
 11
386.924939535258
 21
20.0859856022927
100
AcDbText
 73
3
  0
LINE
  5
1C5
100
AcDbEntity
  8
0-0
100
AcDbLine
  6
CONTINUOUS
 62
7
370
30
 10
410.065666778874
 20
55.3932756053979
 11
410.065666778874
 21
30.3932556053979
  0
LINE
  5
1C6
100
AcDbEntity
  8
0-0
100
AcDbLine
  6
DOT
 62
7
370
30
 10
379.066556374039
 20
25.3932556053979
 11
449.066556374039
 21
25.393255605398
  0
LINE
  5
1C7
100
AcDbEntity
  8
0-0
100
AcDbLine
  6
CONTINUOUS
 62
7
370
30
 10
459.066102037654
 20
55.3932756053979
 11
459.066102037654
 21
30.3932556053979
  0
LINE
  5
1C8
100
AcDbEntity
  8
0-0
100
AcDbLine
  6
CONTINUOUS
 62
7
370
30
 10
498.069263416347
 20
55.3932756053979
 11
498.069263416347
 21
30.3932556053979
  0
LINE
  5
1C9
100
AcDbEntity
  8
0-0
100
AcDbLine
  6
CONTINUOUS
 62
7
370
30
 10
528.069895287728
 20
55.3932756053979
 11
528.069895287728
 21
30.3932556053979
  0
LINE
  5
1CA
100
AcDbEntity
  8
0-0
100
AcDbLine
  6
CONTINUOUS
 62
7
370
30
 10
538.06831249657
 20
55.3932756053979
 11
538.06831249657
 21
30.3932556053979
  0
TEXT
  5
1CB
100
AcDbEntity
  8
0-0
100
AcDbText
  6
CONTINUOUS
 10
463.864341745524
 20
25.2630590354862
 40
4
  1
ローラーチューブポンプ
  7
Font_0
 11
463.864341745524
 21
29.2630590354862
100
AcDbText
 73
3
  0
TEXT
  5
1CC
100
AcDbEntity
  8
0-0
100
AcDbText
  6
CONTINUOUS
 10
459.840306624205
 20
14.9333999326006
 40
4.5
  1
型　　式：ＭＣＲＰ２０４
  7
Font_0
 11
459.840306624205
 21
19.4333999326006
100
AcDbText
 73
3
  0
ARC
  5
1CD
100
AcDbEntity
  8
0-0
100
AcDbCircle
  6
CONTINUOUS
370
50
 10
113.536700442946
 20
144.384384839736
 40
1.5
100
AcDbArc
 50
-2.17125866254574E-12
 51
180
  0
ARC
  5
1CE
100
AcDbEntity
  8
0-0
100
AcDbCircle
  6
CONTINUOUS
370
50
 10
113.536700442946
 20
117.384384839736
 40
1.5
100
AcDbArc
 50
-179.999999999999
 51
5.42814665636435E-13
  0
LINE
  5
1CF
100
AcDbEntity
  8
0-0
100
AcDbLine
  6
CONTINUOUS
370
50
 10
115.036700442946
 20
144.384384839736
 11
115.036700442946
 21
117.384384839736
  0
LINE
  5
1D0
100
AcDbEntity
  8
0-0
100
AcDbLine
  6
CONTINUOUS
370
50
 10
112.036700442946
 20
144.384384839736
 11
112.036700442946
 21
117.384384839736
  0
ARC
  5
1D1
100
AcDbEntity
  8
0-0
100
AcDbCircle
  6
CONTINUOUS
370
50
 10
107.536700442946
 20
143.884384839736
 40
1.5
100
AcDbArc
 50
-2.17125866254572E-12
 51
180
  0
ARC
  5
1D2
100
AcDbEntity
  8
0-0
100
AcDbCircle
  6
CONTINUOUS
370
50
 10
107.536700442946
 20
116.884384839736
 40
1.5
100
AcDbArc
 50
179.999999999997
 51
1.0856293312729E-12
  0
LINE
  5
1D3
100
AcDbEntity
  8
0-0
100
AcDbLine
  6
CONTINUOUS
370
50
 10
109.036700442946
 20
143.884384839736
 11
109.036700442946
 21
116.884384839736
  0
LINE
  5
1D4
100
AcDbEntity
  8
0-0
100
AcDbLine
  6
CONTINUOUS
370
50
 10
106.036700442946
 20
143.884384839736
 11
106.036700442946
 21
116.884384839736
  0
ARC
  5
1D5
100
AcDbEntity
  8
0-0
100
AcDbCircle
  6
CONTINUOUS
370
50
 10
101.536700442946
 20
143.884384839736
 40
1.5
100
AcDbArc
 50
-2.1712586625457E-12
 51
180
  0
ARC
  5
1D6
100
AcDbEntity
  8
0-0
100
AcDbCircle
  6
CONTINUOUS
370
50
 10
101.536700442946
 20
116.884384839736
 40
1.5
100
AcDbArc
 50
179.999999999999
 51
5.42814665636445E-13
  0
LINE
  5
1D7
100
AcDbEntity
  8
0-0
100
AcDbLine
  6
CONTINUOUS
370
50
 10
103.036700442946
 20
143.884384839736
 11
103.036700442946
 21
116.884384839736
  0
LINE
  5
1D8
100
AcDbEntity
  8
0-0
100
AcDbLine
  6
CONTINUOUS
370
50
 10
100.036700442946
 20
143.884384839736
 11
100.036700442946
 21
116.884384839736
  0
ARC
  5
1D9
100
AcDbEntity
  8
0-0
100
AcDbCircle
  6
CONTINUOUS
370
50
 10
95.5367004429457
 20
143.884384839736
 40
1.5
100
AcDbArc
 50
-2.17125866254572E-12
 51
-179.999999999997
  0
ARC
  5
1DA
100
AcDbEntity
  8
0-0
100
AcDbCircle
  6
CONTINUOUS
370
50
 10
95.5367004429457
 20
116.884384839736
 40
1.5
100
AcDbArc
 50
-179.999999999998
 51
0
  0
LINE
  5
1DB
100
AcDbEntity
  8
0-0
100
AcDbLine
  6
CONTINUOUS
370
50
 10
97.0367004429457
 20
143.884384839736
 11
97.0367004429457
 21
116.884384839736
  0
LINE
  5
1DC
100
AcDbEntity
  8
0-0
100
AcDbLine
  6
CONTINUOUS
370
50
 10
94.0367004429457
 20
143.884384839736
 11
94.0367004429458
 21
116.884384839736
  0
ARC
  5
1DD
100
AcDbEntity
  8
0-0
100
AcDbCircle
  6
CONTINUOUS
370
50
 10
89.5367004429457
 20
143.884384839736
 40
1.5
100
AcDbArc
 50
0
 51
179.999999999998
  0
ARC
  5
1DE
100
AcDbEntity
  8
0-0
100
AcDbCircle
  6
CONTINUOUS
370
50
 10
89.5367004429458
 20
116.884384839736
 40
1.5
100
AcDbArc
 50
179.999999999999
 51
7.05659065327439E-12
  0
LINE
  5
1DF
100
AcDbEntity
  8
0-0
100
AcDbLine
  6
CONTINUOUS
370
50
 10
91.0367004429457
 20
143.884384839736
 11
91.0367004429456
 21
116.884384839736
  0
LINE
  5
1E0
100
AcDbEntity
  8
0-0
100
AcDbLine
  6
CONTINUOUS
370
50
 10
88.0367004429457
 20
143.884384839736
 11
88.0367004429457
 21
116.884384839736
  0
ARC
  5
1E1
100
AcDbEntity
  8
0-0
100
AcDbCircle
  6
CONTINUOUS
370
50
 10
83.5367004429457
 20
143.884384839736
 40
1.5
100
AcDbArc
 50
-2.1712586625457E-12
 51
-179.999999999999
  0
ARC
  5
1E2
100
AcDbEntity
  8
0-0
100
AcDbCircle
  6
CONTINUOUS
370
50
 10
83.5367004429457
 20
116.884384839736
 40
1.5
100
AcDbArc
 50
-179.999999999999
 51
4.88533199072829E-12
  0
LINE
  5
1E3
100
AcDbEntity
  8
0-0
100
AcDbLine
  6
CONTINUOUS
370
50
 10
85.0367004429457
 20
143.884384839736
 11
85.0367004429456
 21
116.884384839736
  0
LINE
  5
1E4
100
AcDbEntity
  8
0-0
100
AcDbLine
  6
CONTINUOUS
370
50
 10
82.0367004429457
 20
143.884384839736
 11
82.0367004429457
 21
116.884384839736
  0
CIRCLE
  5
1E5
100
AcDbEntity
  8
0-0
100
AcDbCircle
  6
CONTINUOUS
370
13
 10
128.465272608895
 20
242.158275665122
 40
7
  0
CIRCLE
  5
1E6
100
AcDbEntity
  8
0-0
100
AcDbCircle
  6
CONTINUOUS
370
13
 10
128.515272608894
 20
242.158275665122
 40
6.5
  0
CIRCLE
  5
1E7
100
AcDbEntity
  8
0-0
100
AcDbCircle
  6
CONTINUOUS
370
13
 10
128.465272608895
 20
240.158275665122
 40
3.1
  0
CIRCLE
  5
1E8
100
AcDbEntity
  8
0-0
100
AcDbCircle
  6
CONTINUOUS
370
13
 10
128.465272608895
 20
240.158275665122
 40
0.75
  0
MTEXT
  5
1E9
100
AcDbEntity
  8
0-0
100
AcDbMText
 10
96.9922755139528
 20
306.117806677634
 40
4.125
 41
  0.0
  1
{\fMS Gothic|b1;Manufactured by}
  7
Font_0
  0
MTEXT
  5
1EA
100
AcDbEntity
  8
0-0
100
AcDbMText
 10
88.9631395094208
 20
299.121216302409
 40
4.95
 41
  0.0
  1
{\fMS Gothic|b1;Minato Concept,Inc.}
  7
Font_0
  0
MTEXT
  5
1EB
100
AcDbEntity
  8
0-0
100
AcDbMText
 10
103.371546152418
 20
290.611849629837
 40
3.3
 41
  0.0
  1
{\fMS Gothic|b1;Tokyo Japan}
  7
Font_0
  0
MTEXT
  5
1EC
100
AcDbEntity
  8
0-0
100
AcDbMText
 10
99.2693895879992
 20
285.317132589126
 40
3.3
 41
  0.0
  1
{\fMS Gothic|b1;TEL:03-5637-2882}
  7
Font_0
  0
MTEXT
  5
1ED
100
AcDbEntity
  8
0-0
100
AcDbMText
 10
97.8600143395076
 20
280.400609622752
 40
3.3
 41
  0.0
  1
{\fMS Gothic|b1;www.minato-c.co.jp}
  7
Font_0
  0
LINE
  5
1EE
100
AcDbEntity
  8
0-0
100
AcDbLine
  6
CONTINUOUS
370
20
 10
127.145093566666
 20
275.03678189608
 11
97.9189406463633
 21
275.03678189608
  0
LINE
  5
1EF
100
AcDbEntity
  8
0-0
100
AcDbLine
  6
CONTINUOUS
370
20
 10
127.145093566666
 20
270.91178189608
 11
97.9189406463633
 21
270.91178189608
  0
LINE
  5
1F0
100
AcDbEntity
  8
0-0
100
AcDbLine
  6
CONTINUOUS
370
20
 10
107.103886451359
 20
275.05660986227
 11
107.103886451359
 21
270.93160986227
  0
LINE
  5
1F1
100
AcDbEntity
  8
0-0
100
AcDbLine
  6
CONTINUOUS
370
20
 10
97.9189406463633
 20
275.03678189608
 11
97.9189406463633
 21
270.91178189608
  0
LINE
  5
1F2
100
AcDbEntity
  8
0-0
100
AcDbLine
  6
CONTINUOUS
370
20
 10
127.145093566666
 20
275.03678189608
 11
127.145093566666
 21
270.91178189608
  0
MTEXT
  5
1F3
100
AcDbEntity
  8
0-0
100
AcDbMText
 10
98.1298073144886
 20
273.928732483342
 40
2.475
 41
  0.0
  1
{\fMS Gothic|b1;SER.NO.}
  7
Font_0
  0
TEXT
  5
1F4
100
AcDbEntity
  8
0-0
100
AcDbText
  6
CONTINUOUS
 10
290.51575509399
 20
92.853290063821
 40
6
  1
MCRP204
  7
Font_1
 11
290.51575509399
 21
98.853290063821
100
AcDbText
 73
3
  0
LINE
  5
1F5
100
AcDbEntity
  8
0-0
100
AcDbLine
  6
CONTINUOUS
370
50
 10
339.076239228668
 20
48.4843848397359
 11
263.476239228668
 21
48.4843848397359
  0
LINE
  5
1F6
100
AcDbEntity
  8
0-0
100
AcDbLine
  6
CONTINUOUS
370
30
 10
263.476239228668
 20
48.4843848397359
 11
263.476239228668
 21
170.784384839736
  0
LINE
  5
1F7
100
AcDbEntity
  8
0-0
100
AcDbLine
  6
CONTINUOUS
370
13
 10
41.8367004429457
 20
84.0689327974919
 11
42.5367004429457
 21
84.068932797492
  0
LINE
  5
1F8
100
AcDbEntity
  8
0-0
100
AcDbLine
  6
CONTINUOUS
370
13
 10
41.8367004429457
 20
70.068932797492
 11
42.5367004429458
 21
70.0689327974919
  0
LINE
  5
1F9
100
AcDbEntity
  8
0-0
100
AcDbLine
  6
CONTINUOUS
370
13
 10
41.5367004429456
 20
83.768932797492
 11
41.5367004429457
 21
70.368932797492
  0
ARC
  5
1FA
100
AcDbEntity
  8
0-0
100
AcDbCircle
  6
CONTINUOUS
370
13
 10
41.8367004429457
 20
70.368932797492
 40
0.3
100
AcDbArc
 50
179.999999999995
 51
269.999999999989
  0
ARC
  5
1FB
100
AcDbEntity
  8
0-0
100
AcDbCircle
  6
CONTINUOUS
370
13
 10
41.8367004429457
 20
83.7689327974919
 40
0.3
100
AcDbArc
 50
90
 51
179.999999999984
  0
TEXT
  5
1FC
100
AcDbEntity
  8
0-0
100
AcDbText
  6
CONTINUOUS
 10
92.5989883235545
 20
251.660747985864
 40
4
  1
R．C
  7
Font_0
 11
92.5989883235545
 21
255.660747985864
100
AcDbText
 73
3
  0
CIRCLE
  5
1FD
100
AcDbEntity
  8
0-0
100
AcDbCircle
  6
CONTINUOUS
370
13
 10
96.4652726088945
 20
242.158275665122
 40
7.6
  0
CIRCLE
  5
1FE
100
AcDbEntity
  8
0-0
100
AcDbCircle
  6
CONTINUOUS
370
13
 10
96.4652726088945
 20
242.158275665122
 40
9.5
  0
CIRCLE
  5
1FF
100
AcDbEntity
  8
0-0
100
AcDbCircle
  6
CONTINUOUS
370
13
 10
96.4652726088945
 20
242.158275665122
 40
6.55
  0
CIRCLE
  5
200
100
AcDbEntity
  8
0-0
100
AcDbCircle
  6
CONTINUOUS
370
13
 10
99.4652726088945
 20
245.158275665122
 40
1
  0
CIRCLE
  5
201
100
AcDbEntity
  8
0-0
100
AcDbCircle
  6
CONTINUOUS
370
13
 10
99.4652726088945
 20
239.158275665122
 40
1
  0
CIRCLE
  5
202
100
AcDbEntity
  8
0-0
100
AcDbCircle
  6
CONTINUOUS
370
13
 10
93.4652726088945
 20
245.158275665122
 40
1
  0
CIRCLE
  5
203
100
AcDbEntity
  8
0-0
100
AcDbCircle
  6
CONTINUOUS
370
13
 10
93.4652726088945
 20
239.158275665122
 40
1
  0
LINE
  5
204
100
AcDbEntity
  8
0-0
100
AcDbLine
  6
CONTINUOUS
370
30
 10
280.026239228668
 20
42.9843848397358
 11
280.376239228668
 21
48.484384839736
  0
LINE
  5
205
100
AcDbEntity
  8
0-0
100
AcDbLine
  6
CONTINUOUS
370
30
 10
280.376239228668
 20
48.484384839736
 11
266.176239228668
 21
48.484384839736
  0
LINE
  5
206
100
AcDbEntity
  8
0-0
100
AcDbLine
  6
CONTINUOUS
370
30
 10
266.176239228668
 20
48.484384839736
 11
266.526239228668
 21
42.9843848397358
  0
LINE
  5
207
100
AcDbEntity
  8
0-0
100
AcDbLine
  6
CONTINUOUS
370
30
 10
266.526239228668
 20
42.9843848397358
 11
280.026239228668
 21
42.9843848397358
  0
CIRCLE
  5
208
100
AcDbEntity
  8
0-0
100
AcDbCircle
  6
BYLAYER
370
13
 10
271.276239228668
 20
56.9843848397358
 40
3.1
  0
CIRCLE
  5
209
100
AcDbEntity
  8
0-0
100
AcDbCircle
  6
BYLAYER
370
13
 10
271.276239228668
 20
56.9843848397358
 40
4
  0
CIRCLE
  5
20A
100
AcDbEntity
  8
0-0
100
AcDbCircle
  6
BYLAYER
370
30
 10
271.276239228668
 20
56.9843848397358
 40
3
  0
CIRCLE
  5
20B
100
AcDbEntity
  8
0-0
100
AcDbCircle
  6
BYLAYER
370
13
 10
271.276239228668
 20
56.9843848397358
 40
2.80000000000001
  0
CIRCLE
  5
20C
100
AcDbEntity
  8
0-0
100
AcDbCircle
  6
BYLAYER
370
13
 10
271.276239228668
 20
56.9843848397358
 40
1.75
  0
LINE
  5
20D
100
AcDbEntity
  8
0-0
100
AcDbLine
  6
CONTINUOUS
370
13
 10
284.551239228668
 20
61.455664839736
 11
284.551239228668
 21
62.650817839736
  0
LINE
  5
20E
100
AcDbEntity
  8
0-0
100
AcDbLine
  6
CONTINUOUS
370
13
 10
282.001239228668
 20
62.6394888397358
 11
282.001239228668
 21
61.455664839736
  0
LINE
  5
20F
100
AcDbEntity
  8
0-0
100
AcDbLine
  6
CONTINUOUS
370
13
 10
283.276239228668
 20
67.1031868397359
 11
287.276239228668
 21
64.7937858397358
  0
LINE
  5
210
100
AcDbEntity
  8
0-0
100
AcDbLine
  6
CONTINUOUS
370
13
 10
287.276239228668
 20
64.7937858397358
 11
287.276239228668
 21
62.4843848397359
  0
LINE
  5
211
100
AcDbEntity
  8
0-0
100
AcDbLine
  6
CONTINUOUS
370
13
 10
287.276239228668
 20
60.1749838397358
 11
283.276239228668
 21
57.8655818397358
  0
LINE
  5
212
100
AcDbEntity
  8
0-0
100
AcDbLine
  6
CONTINUOUS
370
13
 10
287.276239228668
 20
62.4843848397359
 11
287.276239228668
 21
60.1749838397358
  0
LINE
  5
213
100
AcDbEntity
  8
0-0
100
AcDbLine
  6
CONTINUOUS
370
13
 10
279.276239228668
 20
64.7937858397359
 11
283.276239228668
 21
67.1031868397359
  0
LINE
  5
214
100
AcDbEntity
  8
0-0
100
AcDbLine
  6
CONTINUOUS
370
13
 10
279.276239228668
 20
62.4843848397359
 11
279.276239228668
 21
64.7937858397359
  0
LINE
  5
215
100
AcDbEntity
  8
0-0
100
AcDbLine
  6
CONTINUOUS
370
13
 10
283.276239228668
 20
57.8655818397358
 11
279.276239228668
 21
60.1749838397358
  0
LINE
  5
216
100
AcDbEntity
  8
0-0
100
AcDbLine
  6
CONTINUOUS
370
13
 10
279.276239228668
 20
60.1749838397358
 11
279.276239228668
 21
62.4843848397359
  0
LINE
  5
217
100
AcDbEntity
  8
0-0
100
AcDbLine
  6
CONTINUOUS
370
13
 10
283.676239228668
 20
59.5111708397358
 11
283.676239228668
 21
59.9843848397358
  0
LINE
  5
218
100
AcDbEntity
  8
0-0
100
AcDbLine
  6
CONTINUOUS
370
13
 10
282.876239228668
 20
59.9843848397359
 11
282.876239228668
 21
59.5111708397358
  0
LINE
  5
219
100
AcDbEntity
  8
0-0
100
AcDbLine
  6
CONTINUOUS
370
13
 10
282.876239228668
 20
59.9843848397359
 11
283.676239228668
 21
59.9843848397358
  0
LINE
  5
21A
100
AcDbEntity
  8
0-0
100
AcDbLine
  6
CONTINUOUS
370
13
 10
281.567234228668
 20
66.0169078397359
 11
284.985243228668
 21
66.0169078397359
  0
LINE
  5
21B
100
AcDbEntity
  8
0-0
100
AcDbLine
  6
CONTINUOUS
370
13
 10
281.567234228668
 20
63.5761678397359
 11
284.985243228668
 21
63.5761678397358
  0
LINE
  5
21C
100
AcDbEntity
  8
0-0
100
AcDbLine
  6
CONTINUOUS
370
13
 10
284.310984228668
 20
62.3857498397359
 11
284.253943228668
 21
62.3857498397358
  0
LINE
  5
21D
100
AcDbEntity
  8
0-0
100
AcDbLine
  6
CONTINUOUS
370
13
 10
282.298534228668
 20
62.3857498397359
 11
284.253943228668
 21
62.3857498397358
  0
LINE
  5
21E
100
AcDbEntity
  8
0-0
100
AcDbLine
  6
CONTINUOUS
370
13
 10
284.310984228668
 20
62.3857498397359
 11
284.985243228668
 21
63.5761678397358
  0
LINE
  5
21F
100
AcDbEntity
  8
0-0
100
AcDbLine
  6
CONTINUOUS
370
13
 10
281.567234228668
 20
63.5761678397359
 11
282.241494228668
 21
62.3857498397358
  0
LINE
  5
220
100
AcDbEntity
  8
0-0
100
AcDbLine
  6
CONTINUOUS
370
13
 10
285.182019228668
 20
63.9144948397358
 11
284.900031228668
 21
63.3052188397358
  0
LINE
  5
221
100
AcDbEntity
  8
0-0
100
AcDbLine
  6
CONTINUOUS
370
13
 10
281.370458228668
 20
63.9144948397358
 11
281.652473228668
 21
63.3051608397359
  0
LINE
  5
222
100
AcDbEntity
  8
0-0
100
AcDbLine
  6
CONTINUOUS
370
13
 10
282.298534228668
 20
62.3857498397359
 11
282.241494228668
 21
62.3857498397358
  0
LINE
  5
223
100
AcDbEntity
  8
0-0
100
AcDbLine
  6
CONTINUOUS
370
13
 10
284.253943228668
 20
62.3857498397358
 11
282.298534228668
 21
62.3857498397359
  0
LINE
  5
224
100
AcDbEntity
  8
0-0
100
AcDbLine
  6
CONTINUOUS
370
13
 10
284.820188228668
 20
63.1327058397359
 11
284.728262228668
 21
62.9340868397359
  0
LINE
  5
225
100
AcDbEntity
  8
0-0
100
AcDbLine
  6
CONTINUOUS
370
13
 10
281.732289228668
 20
63.1327058397358
 11
281.824215228668
 21
62.9340868397358
  0
LINE
  5
226
100
AcDbEntity
  8
0-0
100
AcDbLine
  6
CONTINUOUS
370
13
 10
284.900031228668
 20
63.3052188397358
 11
284.820188228668
 21
63.1327058397359
  0
LINE
  5
227
100
AcDbEntity
  8
0-0
100
AcDbLine
  6
CONTINUOUS
370
13
 10
281.652473228668
 20
63.3051608397359
 11
281.732289228668
 21
63.1327058397358
  0
ARC
  5
228
100
AcDbEntity
  8
0-0
100
AcDbCircle
  6
CONTINUOUS
370
13
 10
283.276239228668
 20
63.1104578397358
 40
1.217008
100
AcDbArc
 50
-143.452890000003
 51
-36.5471100000014
  0
ARC
  5
229
100
AcDbEntity
  8
0-0
100
AcDbCircle
  6
CONTINUOUS
370
13
 10
283.270027228668
 20
63.1014748397358
 40
1.354468
100
AcDbArc
 50
-152.860161
 51
-89.7384529999969
  0
ARC
  5
22A
100
AcDbEntity
  8
0-0
100
AcDbCircle
  6
CONTINUOUS
370
13
 10
283.276239228668
 20
62.8971388397359
 40
1.561817
100
AcDbArc
 50
-144.721767
 51
-39.7952979999997
  0
ARC
  5
22B
100
AcDbEntity
  8
0-0
100
AcDbCircle
  6
CONTINUOUS
370
13
 10
283.270027228668
 20
63.1014748397358
 40
1.354468
100
AcDbArc
 50
-152.860161
 51
-89.7384529999969
  0
ARC
  5
22C
100
AcDbEntity
  8
0-0
100
AcDbCircle
  6
CONTINUOUS
370
13
 10
283.282450228668
 20
63.1014748397359
 40
1.354468
100
AcDbArc
 50
-90.2615470000007
 51
-27.1398390000035
  0
ARC
  5
22D
100
AcDbEntity
  8
0-0
100
AcDbCircle
  6
CONTINUOUS
370
13
 10
283.276239228668
 20
62.8971388397359
 40
1.561817
100
AcDbArc
 50
-39.7952979999997
 51
-35.2782329999973
  0
ARC
  5
22E
100
AcDbEntity
  8
0-0
100
AcDbCircle
  6
CONTINUOUS
370
13
 10
283.268793228668
 20
62.5167138397358
 40
1.661673
100
AcDbArc
 50
-139.713248000002
 51
-89.743256000003
  0
ARC
  5
22F
100
AcDbEntity
  8
0-0
100
AcDbCircle
  6
CONTINUOUS
370
13
 10
283.272907228668
 20
62.5157498397359
 40
1.660696
100
AcDbArc
 50
-89.8850490000002
 51
-39.6679659999986
  0
ARC
  5
230
100
AcDbEntity
  8
0-0
100
AcDbCircle
  6
CONTINUOUS
370
13
 10
283.957338228668
 20
62.7805628397359
 40
0.607908
100
AcDbArc
 50
-29.2403289999918
 51
-12.323427000002
  0
ARC
  5
231
100
AcDbEntity
  8
0-0
100
AcDbCircle
  6
CONTINUOUS
370
13
 10
282.485653228668
 20
62.7458338397358
 40
0.49595
100
AcDbArc
 50
-167.618153000003
 51
-148.08107000001
  0
ARC
  5
232
100
AcDbEntity
  8
0-0
100
AcDbCircle
  6
CONTINUOUS
370
13
 10
283.276239228668
 20
64.7965378397357
 40
2.1
100
AcDbArc
 50
144.470039999999
 51
179.999999999998
  0
ARC
  5
233
100
AcDbEntity
  8
0-0
100
AcDbCircle
  6
CONTINUOUS
370
13
 10
283.276239228668
 20
62.4843848397359
 40
2.1
100
AcDbArc
 50
147.352670000001
 51
33.4021960000015
  0
ARC
  5
234
100
AcDbEntity
  8
0-0
100
AcDbCircle
  6
CONTINUOUS
370
13
 10
283.276239228668
 20
62.4843848397359
 40
2.6
100
AcDbArc
 50
-81.150117000004
 51
39.7993050000033
  0
ARC
  5
235
100
AcDbEntity
  8
0-0
100
AcDbCircle
  6
CONTINUOUS
370
13
 10
283.276239228668
 20
62.4843848397359
 40
3
100
AcDbArc
 50
0
 51
45.7432150000034
  0
ARC
  5
236
100
AcDbEntity
  8
0-0
100
AcDbCircle
  6
CONTINUOUS
370
13
 10
283.276239228668
 20
62.4843848397359
 40
3
100
AcDbArc
 50
-82.3377440000012
 51
0
  0
ARC
  5
237
100
AcDbEntity
  8
0-0
100
AcDbCircle
  6
CONTINUOUS
370
13
 10
283.276239228668
 20
62.4843848397359
 40
3
100
AcDbArc
 50
134.256785000002
 51
179.999999999999
  0
ARC
  5
238
100
AcDbEntity
  8
0-0
100
AcDbCircle
  6
CONTINUOUS
370
13
 10
283.276239228668
 20
62.4843848397359
 40
3
100
AcDbArc
 50
-97.6622559999998
 51
-82.3377440000012
  0
ARC
  5
239
100
AcDbEntity
  8
0-0
100
AcDbCircle
  6
CONTINUOUS
370
13
 10
283.276239228668
 20
62.4843848397359
 40
2.6
100
AcDbArc
 50
140.200695000002
 51
-98.8498830000086
  0
ARC
  5
23A
100
AcDbEntity
  8
0-0
100
AcDbCircle
  6
CONTINUOUS
370
13
 10
283.276239228668
 20
64.7965378397357
 40
2.1
100
AcDbArc
 50
3.10179808935097E-12
 51
35.529960000007
  0
ARC
  5
23B
100
AcDbEntity
  8
0-0
100
AcDbCircle
  6
CONTINUOUS
370
13
 10
283.276239228668
 20
64.7965378397357
 40
2.1
100
AcDbArc
 50
-35.5299599999965
 51
3.10179808935097E-12
  0
ARC
  5
23C
100
AcDbEntity
  8
0-0
100
AcDbCircle
  6
CONTINUOUS
370
13
 10
283.276239228668
 20
64.7965378397357
 40
2.1
100
AcDbArc
 50
179.999999999998
 51
-144.470039999999
  0
ARC
  5
23D
100
AcDbEntity
  8
0-0
100
AcDbCircle
  6
CONTINUOUS
370
13
 10
283.276239228668
 20
63.6061198397358
 40
1.6
100
AcDbArc
 50
-49.7055749999973
 51
-22.716529000001
  0
ARC
  5
23E
100
AcDbEntity
  8
0-0
100
AcDbCircle
  6
CONTINUOUS
370
13
 10
283.276239228668
 20
63.6061198397358
 40
1.6
100
AcDbArc
 50
-155.164113999997
 51
-130.294425
  0
ARC
  5
23F
100
AcDbEntity
  8
0-0
100
AcDbCircle
  6
CONTINUOUS
370
13
 10
283.276239228668
 20
62.4843848397359
 40
2.7
100
AcDbArc
 50
-98.5196240000003
 51
-81.4803760000043
  0
ARC
  5
240
100
AcDbEntity
  8
0-0
100
AcDbCircle
  6
CONTINUOUS
370
13
 10
283.276239228668
 20
62.4843848397359
 40
3
100
AcDbArc
 50
179.999999999999
 51
-97.6622559999998
  0
CIRCLE
  5
241
100
AcDbEntity
  8
0-0
100
AcDbCircle
  6
CONTINUOUS
370
13
 10
283.276239228668
 20
62.4843848397359
 40
4
  0
SOLID
  5
242
100
AcDbEntity
  8
0-0
 62
250
100
AcDbTrace
 10
174.281122442946
 20
66.2068898397359
 30
0.0
 11
174.070142442946
 21
66.364424839736
 31
0.0
 12
173.577333442946
 22
65.4843848397359
 32
0.0
 13
173.577333442946
 23
65.4843848397359
 33
0.0
  0
SOLID
  5
243
100
AcDbEntity
  8
0-0
 62
250
100
AcDbTrace
 10
173.963319442946
 20
58.552532839736
 30
0.0
 11
174.191348442946
 21
58.6841848397359
 31
0.0
 12
173.577333442946
 22
59.4843848397359
 32
0.0
 13
173.577333442946
 23
59.4843848397359
 33
0.0
  0
LINE
  5
244
100
AcDbEntity
  8
0-0
100
AcDbLine
  6
CONTINUOUS
370
13
 10
174.717967442946
 20
64.6446378397359
 11
175.263451442946
 21
64.7655678397359
  0
LINE
  5
245
100
AcDbEntity
  8
0-0
100
AcDbLine
  6
CONTINUOUS
370
13
 10
174.717967442946
 20
62.1863668397359
 11
175.782906442946
 21
62.4224578397359
  0
LINE
  5
246
100
AcDbEntity
  8
0-0
100
AcDbLine
  6
CONTINUOUS
370
13
 10
172.683373442946
 20
57.8655818397359
 11
172.536700442946
 21
57.8655818397359
  0
LINE
  5
247
100
AcDbEntity
  8
0-0
100
AcDbLine
  6
CONTINUOUS
370
13
 10
173.036700442946
 20
65.8901998397359
 11
173.036700442945
 21
62.484384839736
  0
LINE
  5
248
100
AcDbEntity
  8
0-0
100
AcDbLine
  6
CONTINUOUS
370
13
 10
173.036700442946
 20
66.0067728397359
 11
173.036700442946
 21
65.8901998397359
  0
LINE
  5
249
100
AcDbEntity
  8
0-0
100
AcDbLine
  6
CONTINUOUS
370
13
 10
173.036700442945
 20
62.484384839736
 11
173.036700442946
 21
59.0202828397359
  0
LINE
  5
24A
100
AcDbEntity
  8
0-0
100
AcDbLine
  6
CONTINUOUS
370
13
 10
172.683373442946
 20
60.1749838397359
 11
172.536700442946
 21
60.1749838397359
  0
LINE
  5
24B
100
AcDbEntity
  8
0-0
100
AcDbLine
  6
CONTINUOUS
370
13
 10
172.683373442946
 20
64.7937858397359
 11
172.536700442946
 21
64.7937858397359
  0
LINE
  5
24C
100
AcDbEntity
  8
0-0
100
AcDbLine
  6
CONTINUOUS
370
13
 10
172.536700442946
 20
67.1031868397359
 11
172.683373442946
 21
67.1031868397359
  0
LINE
  5
24D
100
AcDbEntity
  8
0-0
100
AcDbLine
  6
CONTINUOUS
370
13
 10
173.036700442946
 20
65.084384839736
 11
174.717967442946
 21
65.0843848397359
  0
LINE
  5
24E
100
AcDbEntity
  8
0-0
100
AcDbLine
  6
CONTINUOUS
370
13
 10
173.036700442946
 20
65.4843848397359
 11
174.317967442946
 21
65.4843848397359
  0
LINE
  5
24F
100
AcDbEntity
  8
0-0
100
AcDbLine
  6
CONTINUOUS
370
13
 10
174.717967442946
 20
59.8843848397359
 11
173.036700442946
 21
59.8843848397359
  0
LINE
  5
250
100
AcDbEntity
  8
0-0
100
AcDbLine
  6
CONTINUOUS
370
13
 10
174.317967442946
 20
62.4843848397359
 11
174.317967442946
 21
59.4843848397359
  0
LINE
  5
251
100
AcDbEntity
  8
0-0
100
AcDbLine
  6
CONTINUOUS
370
13
 10
174.317967442946
 20
59.4843848397359
 11
174.717967442946
 21
59.8843848397359
  0
LINE
  5
252
100
AcDbEntity
  8
0-0
100
AcDbLine
  6
CONTINUOUS
370
13
 10
174.317967442946
 20
59.4843848397359
 11
173.036700442946
 21
59.4843848397359
  0
LINE
  5
253
100
AcDbEntity
  8
0-0
100
AcDbLine
  6
CONTINUOUS
370
13
 10
174.717967442946
 20
62.4843848397359
 11
174.717967442946
 21
59.8843848397359
  0
LINE
  5
254
100
AcDbEntity
  8
0-0
100
AcDbLine
  6
CONTINUOUS
370
13
 10
174.317967442946
 20
65.4843848397359
 11
174.317967442946
 21
62.4843848397359
  0
LINE
  5
255
100
AcDbEntity
  8
0-0
100
AcDbLine
  6
CONTINUOUS
370
13
 10
174.717967442946
 20
65.0843848397359
 11
174.317967442946
 21
65.4843848397359
  0
LINE
  5
256
100
AcDbEntity
  8
0-0
100
AcDbLine
  6
CONTINUOUS
370
13
 10
174.717967442946
 20
65.0843848397359
 11
174.717967442946
 21
62.4843848397359
  0
LINE
  5
257
100
AcDbEntity
  8
0-0
100
AcDbLine
  6
CONTINUOUS
370
13
 10
180.622257442946
 20
66.0048008397359
 11
181.163356442946
 21
63.5640608397359
  0
LINE
  5
258
100
AcDbEntity
  8
0-0
100
AcDbLine
  6
CONTINUOUS
370
13
 10
175.252629442946
 20
64.8143828397359
 11
175.793728442946
 21
62.3736428397359
  0
LINE
  5
259
100
AcDbEntity
  8
0-0
100
AcDbLine
  6
CONTINUOUS
370
13
 10
180.622257442946
 20
66.0048008397359
 11
175.252629442946
 21
64.8143828397359
  0
LINE
  5
25A
100
AcDbEntity
  8
0-0
100
AcDbLine
  6
CONTINUOUS
370
13
 10
181.163356442946
 20
63.5640608397359
 11
175.793728442946
 21
62.3736428397359
  0
ARC
  5
25B
100
AcDbEntity
  8
0-0
100
AcDbCircle
  6
CONTINUOUS
370
13
 10
170.973209442946
 20
59.0202828397359
 40
2.063491
100
AcDbArc
 50
-34.0271690000002
 51
0
  0
ARC
  5
25C
100
AcDbEntity
  8
0-0
100
AcDbCircle
  6
CONTINUOUS
370
13
 10
170.973209442946
 20
59.0202828397359
 40
2.063491
100
AcDbArc
 50
0
 51
34.0271690000002
  0
ARC
  5
25D
100
AcDbEntity
  8
0-0
100
AcDbCircle
  6
CONTINUOUS
370
13
 10
170.978017442946
 20
65.9484858397359
 40
2.059508
100
AcDbArc
 50
-1.62175300000127
 51
1.62175299999896
  0
ARC
  5
25E
100
AcDbEntity
  8
0-0
100
AcDbCircle
  6
CONTINUOUS
370
13
 10
170.978017442946
 20
65.9484858397359
 40
2.059508
100
AcDbArc
 50
1.62175299999896
 51
34.1020129999963
  0
ARC
  5
25F
100
AcDbEntity
  8
0-0
100
AcDbCircle
  6
CONTINUOUS
370
13
 10
165.312726442946
 20
62.484384839736
 40
7.723973
100
AcDbArc
 50
-2.108298406674E-13
 51
17.3970299999995
  0
ARC
  5
260
100
AcDbEntity
  8
0-0
100
AcDbCircle
  6
CONTINUOUS
370
13
 10
165.312726442946
 20
62.484384839736
 40
7.723973
100
AcDbArc
 50
-17.3970299999998
 51
-2.108298406674E-13
  0
ARC
  5
261
100
AcDbEntity
  8
0-0
100
AcDbCircle
  6
CONTINUOUS
370
13
 10
170.978017442946
 20
65.9484858397359
 40
2.059508
100
AcDbArc
 50
-34.1020129999996
 51
-1.62175300000127
  0
LINE
  5
262
100
AcDbEntity
  8
0-0
100
AcDbLine
  6
CONTINUOUS
370
13
 10
302.551239228668
 20
61.4556648397359
 11
302.551239228668
 21
62.6508178397359
  0
LINE
  5
263
100
AcDbEntity
  8
0-0
100
AcDbLine
  6
CONTINUOUS
370
13
 10
300.001239228668
 20
62.6394888397359
 11
300.001239228668
 21
61.4556648397358
  0
LINE
  5
264
100
AcDbEntity
  8
0-0
100
AcDbLine
  6
CONTINUOUS
370
13
 10
301.276239228668
 20
67.1031868397359
 11
305.276239228668
 21
64.7937858397359
  0
LINE
  5
265
100
AcDbEntity
  8
0-0
100
AcDbLine
  6
CONTINUOUS
370
13
 10
305.276239228668
 20
64.7937858397359
 11
305.276239228668
 21
62.4843848397358
  0
LINE
  5
266
100
AcDbEntity
  8
0-0
100
AcDbLine
  6
CONTINUOUS
370
13
 10
305.276239228668
 20
60.1749838397359
 11
301.276239228668
 21
57.8655818397358
  0
LINE
  5
267
100
AcDbEntity
  8
0-0
100
AcDbLine
  6
CONTINUOUS
370
13
 10
305.276239228668
 20
62.4843848397358
 11
305.276239228668
 21
60.1749838397359
  0
LINE
  5
268
100
AcDbEntity
  8
0-0
100
AcDbLine
  6
CONTINUOUS
370
13
 10
297.276239228668
 20
64.7937858397358
 11
301.276239228668
 21
67.1031868397359
  0
LINE
  5
269
100
AcDbEntity
  8
0-0
100
AcDbLine
  6
CONTINUOUS
370
13
 10
297.276239228668
 20
62.484384839736
 11
297.276239228668
 21
64.7937858397358
  0
LINE
  5
26A
100
AcDbEntity
  8
0-0
100
AcDbLine
  6
CONTINUOUS
370
13
 10
301.276239228668
 20
57.8655818397358
 11
297.276239228668
 21
60.1749838397359
  0
LINE
  5
26B
100
AcDbEntity
  8
0-0
100
AcDbLine
  6
CONTINUOUS
370
13
 10
297.276239228668
 20
60.1749838397359
 11
297.276239228668
 21
62.484384839736
  0
LINE
  5
26C
100
AcDbEntity
  8
0-0
100
AcDbLine
  6
CONTINUOUS
370
13
 10
301.676239228668
 20
59.5111708397359
 11
301.676239228668
 21
59.9843848397359
  0
LINE
  5
26D
100
AcDbEntity
  8
0-0
100
AcDbLine
  6
CONTINUOUS
370
13
 10
300.876239228668
 20
59.9843848397359
 11
300.876239228668
 21
59.5111708397359
  0
LINE
  5
26E
100
AcDbEntity
  8
0-0
100
AcDbLine
  6
CONTINUOUS
370
13
 10
300.876239228668
 20
59.9843848397359
 11
301.676239228668
 21
59.9843848397359
  0
LINE
  5
26F
100
AcDbEntity
  8
0-0
100
AcDbLine
  6
CONTINUOUS
370
13
 10
299.567234228668
 20
66.0169078397359
 11
302.985243228668
 21
66.0169078397359
  0
LINE
  5
270
100
AcDbEntity
  8
0-0
100
AcDbLine
  6
CONTINUOUS
370
13
 10
299.567234228668
 20
63.5761678397359
 11
302.985243228668
 21
63.5761678397357
  0
LINE
  5
271
100
AcDbEntity
  8
0-0
100
AcDbLine
  6
CONTINUOUS
370
13
 10
302.310984228668
 20
62.3857498397358
 11
302.253943228668
 21
62.3857498397358
  0
LINE
  5
272
100
AcDbEntity
  8
0-0
100
AcDbLine
  6
CONTINUOUS
370
13
 10
300.298534228668
 20
62.3857498397358
 11
302.253943228668
 21
62.3857498397358
  0
LINE
  5
273
100
AcDbEntity
  8
0-0
100
AcDbLine
  6
CONTINUOUS
370
13
 10
302.310984228668
 20
62.3857498397358
 11
302.985243228668
 21
63.5761678397357
  0
LINE
  5
274
100
AcDbEntity
  8
0-0
100
AcDbLine
  6
CONTINUOUS
370
13
 10
299.567234228668
 20
63.5761678397359
 11
300.241494228668
 21
62.3857498397358
  0
LINE
  5
275
100
AcDbEntity
  8
0-0
100
AcDbLine
  6
CONTINUOUS
370
13
 10
303.182019228668
 20
63.9144948397359
 11
302.900031228668
 21
63.3052188397358
  0
LINE
  5
276
100
AcDbEntity
  8
0-0
100
AcDbLine
  6
CONTINUOUS
370
13
 10
299.370458228668
 20
63.9144948397358
 11
299.652473228668
 21
63.3051608397357
  0
LINE
  5
277
100
AcDbEntity
  8
0-0
100
AcDbLine
  6
CONTINUOUS
370
13
 10
300.298534228668
 20
62.3857498397358
 11
300.241494228668
 21
62.3857498397358
  0
LINE
  5
278
100
AcDbEntity
  8
0-0
100
AcDbLine
  6
CONTINUOUS
370
13
 10
302.253943228668
 20
62.3857498397358
 11
300.298534228668
 21
62.3857498397358
  0
LINE
  5
279
100
AcDbEntity
  8
0-0
100
AcDbLine
  6
CONTINUOUS
370
13
 10
302.820188228668
 20
63.1327058397359
 11
302.728262228668
 21
62.9340868397359
  0
LINE
  5
27A
100
AcDbEntity
  8
0-0
100
AcDbLine
  6
CONTINUOUS
370
13
 10
299.732289228668
 20
63.1327058397359
 11
299.824215228668
 21
62.9340868397359
  0
LINE
  5
27B
100
AcDbEntity
  8
0-0
100
AcDbLine
  6
CONTINUOUS
370
13
 10
302.900031228668
 20
63.3052188397358
 11
302.820188228668
 21
63.1327058397359
  0
LINE
  5
27C
100
AcDbEntity
  8
0-0
100
AcDbLine
  6
CONTINUOUS
370
13
 10
299.652473228668
 20
63.3051608397357
 11
299.732289228668
 21
63.1327058397359
  0
ARC
  5
27D
100
AcDbEntity
  8
0-0
100
AcDbCircle
  6
CONTINUOUS
370
13
 10
301.276239228668
 20
63.1104578397359
 40
1.217008
100
AcDbArc
 50
-143.452890000004
 51
-36.5471100000062
  0
ARC
  5
27E
100
AcDbEntity
  8
0-0
100
AcDbCircle
  6
CONTINUOUS
370
13
 10
301.270027228668
 20
63.1014748397359
 40
1.354468
100
AcDbArc
 50
-152.860160999998
 51
-89.7384530000017
  0
ARC
  5
27F
100
AcDbEntity
  8
0-0
100
AcDbCircle
  6
CONTINUOUS
370
13
 10
301.276239228668
 20
62.8971388397359
 40
1.561817
100
AcDbArc
 50
-144.721766999993
 51
-39.7952980000005
  0
ARC
  5
280
100
AcDbEntity
  8
0-0
100
AcDbCircle
  6
CONTINUOUS
370
13
 10
301.270027228668
 20
63.1014748397359
 40
1.354468
100
AcDbArc
 50
-152.860160999998
 51
-89.7384530000017
  0
ARC
  5
281
100
AcDbEntity
  8
0-0
100
AcDbCircle
  6
CONTINUOUS
370
13
 10
301.282450228668
 20
63.1014748397359
 40
1.354468
100
AcDbArc
 50
-90.2615470000031
 51
-27.1398389999992
  0
ARC
  5
282
100
AcDbEntity
  8
0-0
100
AcDbCircle
  6
CONTINUOUS
370
13
 10
301.276239228668
 20
62.8971388397359
 40
1.561817
100
AcDbArc
 50
-39.7952980000005
 51
-35.2782329999969
  0
ARC
  5
283
100
AcDbEntity
  8
0-0
100
AcDbCircle
  6
CONTINUOUS
370
13
 10
301.268793228668
 20
62.5167138397359
 40
1.661673
100
AcDbArc
 50
-139.713247999999
 51
-89.7432559999991
  0
ARC
  5
284
100
AcDbEntity
  8
0-0
100
AcDbCircle
  6
CONTINUOUS
370
13
 10
301.272907228668
 20
62.5157498397358
 40
1.660696
100
AcDbArc
 50
-89.8850489999924
 51
-39.6679659999954
  0
ARC
  5
285
100
AcDbEntity
  8
0-0
100
AcDbCircle
  6
CONTINUOUS
370
13
 10
301.957338228668
 20
62.7805628397358
 40
0.607908
100
AcDbArc
 50
-29.2403290000002
 51
-12.3234270000037
  0
ARC
  5
286
100
AcDbEntity
  8
0-0
100
AcDbCircle
  6
CONTINUOUS
370
13
 10
300.485653228668
 20
62.7458338397358
 40
0.49595
100
AcDbArc
 50
-167.618153000008
 51
-148.081070000017
  0
ARC
  5
287
100
AcDbEntity
  8
0-0
100
AcDbCircle
  6
CONTINUOUS
370
13
 10
301.276239228668
 20
64.7965378397358
 40
2.1
100
AcDbArc
 50
144.470040000003
 51
179.999999999999
  0
ARC
  5
288
100
AcDbEntity
  8
0-0
100
AcDbCircle
  6
CONTINUOUS
370
13
 10
301.276239228668
 20
62.4843848397358
 40
2.1
100
AcDbArc
 50
147.352670000003
 51
33.4021960000071
  0
ARC
  5
289
100
AcDbEntity
  8
0-0
100
AcDbCircle
  6
CONTINUOUS
370
13
 10
301.276239228668
 20
62.4843848397358
 40
2.6
100
AcDbArc
 50
-81.1501170000027
 51
39.799305000003
  0
ARC
  5
28A
100
AcDbEntity
  8
0-0
100
AcDbCircle
  6
CONTINUOUS
370
13
 10
301.276239228668
 20
62.4843848397358
 40
3
100
AcDbArc
 50
1.62844399690935E-12
 51
45.7432150000027
  0
ARC
  5
28B
100
AcDbEntity
  8
0-0
100
AcDbCircle
  6
CONTINUOUS
370
13
 10
301.276239228668
 20
62.4843848397358
 40
3
100
AcDbArc
 50
-82.3377440000024
 51
1.62844399690935E-12
  0
ARC
  5
28C
100
AcDbEntity
  8
0-0
100
AcDbCircle
  6
CONTINUOUS
370
13
 10
301.276239228668
 20
62.4843848397358
 40
3
100
AcDbArc
 50
134.256785000001
 51
179.999999999999
  0
ARC
  5
28D
100
AcDbEntity
  8
0-0
100
AcDbCircle
  6
CONTINUOUS
370
13
 10
301.276239228668
 20
62.4843848397358
 40
3
100
AcDbArc
 50
-97.6622560000031
 51
-82.3377440000024
  0
ARC
  5
28E
100
AcDbEntity
  8
0-0
100
AcDbCircle
  6
CONTINUOUS
370
13
 10
301.276239228668
 20
62.4843848397358
 40
2.6
100
AcDbArc
 50
140.200695000001
 51
-98.8498830000048
  0
ARC
  5
28F
100
AcDbEntity
  8
0-0
100
AcDbCircle
  6
CONTINUOUS
370
13
 10
301.276239228668
 20
64.7965378397358
 40
2.1
100
AcDbArc
 50
7.75449522337763E-13
 51
35.5299600000041
  0
ARC
  5
290
100
AcDbEntity
  8
0-0
100
AcDbCircle
  6
CONTINUOUS
370
13
 10
301.276239228668
 20
64.7965378397358
 40
2.1
100
AcDbArc
 50
-35.5299600000008
 51
7.75449522337763E-13
  0
ARC
  5
291
100
AcDbEntity
  8
0-0
100
AcDbCircle
  6
CONTINUOUS
370
13
 10
301.276239228668
 20
64.7965378397358
 40
2.1
100
AcDbArc
 50
179.999999999999
 51
-144.47004000001
  0
ARC
  5
292
100
AcDbEntity
  8
0-0
100
AcDbCircle
  6
CONTINUOUS
370
13
 10
301.276239228668
 20
63.6061198397358
 40
1.6
100
AcDbArc
 50
-49.7055750000002
 51
-22.7165289999974
  0
ARC
  5
293
100
AcDbEntity
  8
0-0
100
AcDbCircle
  6
CONTINUOUS
370
13
 10
301.276239228668
 20
63.6061198397358
 40
1.6
100
AcDbArc
 50
-155.164113999999
 51
-130.294424999996
  0
ARC
  5
294
100
AcDbEntity
  8
0-0
100
AcDbCircle
  6
CONTINUOUS
370
13
 10
301.276239228668
 20
62.4843848397358
 40
2.7
100
AcDbArc
 50
-98.5196240000029
 51
-81.4803760000043
  0
ARC
  5
295
100
AcDbEntity
  8
0-0
100
AcDbCircle
  6
CONTINUOUS
370
13
 10
301.276239228668
 20
62.4843848397358
 40
3
100
AcDbArc
 50
179.999999999999
 51
-97.6622560000031
  0
CIRCLE
  5
296
100
AcDbEntity
  8
0-0
100
AcDbCircle
  6
CONTINUOUS
370
13
 10
301.276239228668
 20
62.4843848397358
 40
4
  0
LINE
  5
297
100
AcDbEntity
  8
0-0
100
AcDbLine
  6
BYLAYER
370
13
 10
173.036700442946
 20
50.4843848397358
 11
173.036700442946
 21
58.4843848397358
  0
LINE
  5
298
100
AcDbEntity
  8
0-0
100
AcDbLine
  6
BYLAYER
370
13
 10
174.836700442946
 20
51.4843848397358
 11
174.836700442946
 21
57.4843848397357
  0
LINE
  5
299
100
AcDbEntity
  8
0-0
100
AcDbLine
  6
BYLAYER
370
13
 10
174.836700442946
 20
57.2843848397357
 11
172.536700442946
 21
57.2843848397357
  0
LINE
  5
29A
100
AcDbEntity
  8
0-0
100
AcDbLine
  6
BYLAYER
370
13
 10
174.836700442946
 20
57.4843848397357
 11
172.536700442946
 21
57.4843848397357
  0
LINE
  5
29B
100
AcDbEntity
  8
0-0
100
AcDbLine
  6
BYLAYER
370
13
 10
172.536700442946
 20
58.4843848397358
 11
173.036700442946
 21
58.4843848397358
  0
LINE
  5
29C
100
AcDbEntity
  8
0-0
100
AcDbLine
  6
BYLAYER
370
13
 10
174.836700442946
 20
51.6843848397358
 11
172.536700442946
 21
51.6843848397358
  0
LINE
  5
29D
100
AcDbEntity
  8
0-0
100
AcDbLine
  6
BYLAYER
370
13
 10
174.836700442946
 20
51.4843848397357
 11
172.536700442946
 21
51.4843848397358
  0
LINE
  5
29E
100
AcDbEntity
  8
0-0
100
AcDbLine
  6
BYLAYER
370
13
 10
172.536700442946
 20
50.4843848397359
 11
173.036700442946
 21
50.4843848397358
  0
LINE
  5
29F
100
AcDbEntity
  8
0-0
100
AcDbLine
  6
CONTINUOUS
370
30
 10
336.026239228668
 20
42.9843848397359
 11
336.376239228668
 21
48.4843848397359
  0
LINE
  5
2A0
100
AcDbEntity
  8
0-0
100
AcDbLine
  6
CONTINUOUS
370
30
 10
336.376239228668
 20
48.4843848397359
 11
322.176239228668
 21
48.484384839736
  0
LINE
  5
2A1
100
AcDbEntity
  8
0-0
100
AcDbLine
  6
CONTINUOUS
370
30
 10
322.176239228668
 20
48.484384839736
 11
322.526239228668
 21
42.9843848397358
  0
LINE
  5
2A2
100
AcDbEntity
  8
0-0
100
AcDbLine
  6
CONTINUOUS
370
30
 10
322.526239228668
 20
42.9843848397358
 11
336.026239228668
 21
42.9843848397359
  0
LINE
  5
2A3
100
AcDbEntity
  8
0-0
100
AcDbLine
  6
CONTINUOUS
370
30
 10
154.786700442946
 20
42.9843848397358
 11
154.468518624764
 21
47.9843848397358
  0
LINE
  5
2A4
100
AcDbEntity
  8
0-0
100
AcDbLine
  6
CONTINUOUS
370
30
 10
168.604882261127
 20
47.9843848397358
 11
168.286700442946
 21
42.9843848397358
  0
LINE
  5
2A5
100
AcDbEntity
  8
0-0
100
AcDbLine
  6
CONTINUOUS
370
30
 10
168.286700442946
 20
42.9843848397358
 11
154.786700442946
 21
42.9843848397358
  0
LINE
  5
2A6
100
AcDbEntity
  8
0-0
100
AcDbLine
  6
CONTINUOUS
370
30
 10
46.7867004429457
 20
42.9843848397357
 11
46.4685186247637
 21
47.9843848397358
  0
LINE
  5
2A7
100
AcDbEntity
  8
0-0
100
AcDbLine
  6
CONTINUOUS
370
30
 10
60.6048822611275
 20
47.9843848397358
 11
60.2867004429459
 21
42.9843848397356
  0
LINE
  5
2A8
100
AcDbEntity
  8
0-0
100
AcDbLine
  6
CONTINUOUS
370
30
 10
60.2867004429459
 20
42.9843848397356
 11
46.7867004429457
 21
42.9843848397357
  0
LINE
  5
2A9
100
AcDbEntity
  8
0-0
100
AcDbLine
  6
CONTINUOUS
370
30
 10
339.276239228668
 20
170.984384839736
 11
263.276239228668
 21
170.984384839736
  0
LINE
  5
2AA
100
AcDbEntity
  8
0-0
100
AcDbLine
  6
CONTINUOUS
370
30
 10
263.276239228668
 20
47.9843848397359
 11
263.276239228668
 21
170.984384839736
  0
LINE
  5
2AB
100
AcDbEntity
  8
0-0
100
AcDbLine
  6
CONTINUOUS
370
50
 10
340.276239228668
 20
237.857391833894
 11
340.276239228668
 21
367.857391833894
  0
LINE
  5
2AC
100
AcDbEntity
  8
0-0
100
AcDbLine
  6
CONTINUOUS
370
50
 10
340.276239228668
 20
171.984384839736
 11
262.276239228668
 21
171.984384839736
  0
LINE
  5
2AD
100
AcDbEntity
  8
0-0
100
AcDbLine
  6
CONTINUOUS
370
50
 10
262.276239228668
 20
47.9843848397359
 11
262.276239228668
 21
171.984384839736
  0
LINE
  5
2AE
100
AcDbEntity
  8
0-0
100
AcDbLine
  6
CONTINUOUS
370
50
 10
42.5367004429457
 20
171.984384839736
 11
172.536700442946
 21
171.984384839736
  0
LINE
  5
2AF
100
AcDbEntity
  8
0-0
100
AcDbLine
  6
CONTINUOUS
370
50
 10
262.276239228668
 20
237.857391833894
 11
262.276239228668
 21
367.857391833894
  0
LINE
  5
2B0
100
AcDbEntity
  8
0-0
100
AcDbLine
  6
CONTINUOUS
370
50
 10
262.276239228668
 20
237.857391833894
 11
340.276239228668
 21
237.857391833894
  0
LINE
  5
2B1
100
AcDbEntity
  8
0-0
100
AcDbLine
  6
CONTINUOUS
370
50
 10
42.5367004429457
 20
48.4843848397358
 11
42.5367004429457
 21
171.984384839736
  0
LINE
  5
2B2
100
AcDbEntity
  8
0-0
100
AcDbLine
  6
CONTINUOUS
370
50
 10
172.536700442946
 20
48.4843848397358
 11
172.536700442946
 21
171.984384839736
  0
LINE
  5
2B3
100
AcDbEntity
  8
0-0
100
AcDbLine
  6
CONTINUOUS
370
50
 10
43.0367004429457
 20
47.9843848397358
 11
172.036700442946
 21
47.9843848397358
  0
LINE
  5
2B4
100
AcDbEntity
  8
0-0
100
AcDbLine
  6
CONTINUOUS
370
50
 10
340.276239228668
 20
47.9843848397359
 11
339.276239228668
 21
47.9843848397359
  0
LINE
  5
2B5
100
AcDbEntity
  8
0-0
100
AcDbLine
  6
CONTINUOUS
370
50
 10
263.276239228668
 20
47.9843848397359
 11
262.276239228668
 21
47.9843848397359
  0
LINE
  5
2B6
100
AcDbEntity
  8
0-0
100
AcDbLine
  6
CONTINUOUS
370
50
 10
172.036700442946
 20
47.9843848397358
 11
172.536700442946
 21
48.4843848397358
  0
LINE
  5
2B7
100
AcDbEntity
  8
0-0
100
AcDbLine
  6
CONTINUOUS
370
50
 10
43.0367004429457
 20
47.9843848397358
 11
42.5367004429457
 21
48.4843848397358
  0
LINE
  5
2B8
100
AcDbEntity
  8
0-0
100
AcDbLine
  6
CONTINUOUS
370
50
 10
74.6652726088946
 20
226.158275665122
 11
150.265272608894
 21
226.158275665122
  0
LINE
  5
2B9
100
AcDbEntity
  8
0-0
100
AcDbLine
  6
CONTINUOUS
370
30
 10
74.6652726088946
 20
226.158275665122
 11
74.6652726088946
 21
348.458275665122
  0
LINE
  5
2BA
100
AcDbEntity
  8
0-0
100
AcDbLine
  6
CONTINUOUS
370
30
 10
150.265272608894
 20
226.158275665122
 11
150.265272608894
 21
348.458275665122
  0
LINE
  5
2BB
100
AcDbEntity
  8
0-0
100
AcDbLine
  6
CONTINUOUS
370
30
 10
74.6652726088946
 20
348.458275665122
 11
150.265272608894
 21
348.458275665122
  0
LINE
  5
2BC
100
AcDbEntity
  8
0-0
100
AcDbLine
  6
HIDDEN
370
13
 10
143.565272608895
 20
221.658275665122
 11
143.006255608894
 21
221.658275665122
  0
LINE
  5
2BD
100
AcDbEntity
  8
0-0
100
AcDbLine
  6
HIDDEN
370
13
 10
143.006255608894
 20
221.658275665122
 11
142.656255608894
 21
220.958275665122
  0
LINE
  5
2BE
100
AcDbEntity
  8
0-0
100
AcDbLine
  6
HIDDEN
370
13
 10
142.656255608894
 20
220.958275665122
 11
141.465272608895
 21
220.958275665122
  0
LINE
  5
2BF
100
AcDbEntity
  8
0-0
100
AcDbLine
  6
HIDDEN
370
13
 10
142.715272608895
 20
224.158275665122
 11
142.465272608895
 21
223.358275665122
  0
LINE
  5
2C0
100
AcDbEntity
  8
0-0
100
AcDbLine
  6
HIDDEN
370
13
 10
142.465272608895
 20
223.358275665122
 11
141.465272608895
 21
223.358275665122
  0
LINE
  5
2C1
100
AcDbEntity
  8
0-0
100
AcDbLine
  6
HIDDEN
370
13
 10
138.215272608895
 20
224.158275665122
 11
139.465272608895
 21
224.158275665122
  0
LINE
  5
2C2
100
AcDbEntity
  8
0-0
100
AcDbLine
  6
CONTINUOUS
370
30
 10
142.965272608895
 20
220.458275665122
 11
137.965272608895
 21
220.458275665122
  0
LINE
  5
2C3
100
AcDbEntity
  8
0-0
100
AcDbLine
  6
CONTINUOUS
370
30
 10
133.715272608895
 20
220.658275665122
 11
133.365272608894
 21
226.158275665122
  0
LINE
  5
2C4
100
AcDbEntity
  8
0-0
100
AcDbLine
  6
CONTINUOUS
370
30
 10
133.365272608894
 20
226.158275665122
 11
147.565272608895
 21
226.158275665122
  0
LINE
  5
2C5
100
AcDbEntity
  8
0-0
100
AcDbLine
  6
HIDDEN
370
13
 10
141.965272608895
 20
224.158275665122
 11
141.965272608895
 21
226.158275665122
  0
LINE
  5
2C6
100
AcDbEntity
  8
0-0
100
AcDbLine
  6
CONTINUOUS
370
30
 10
137.965272608895
 20
220.458275665122
 11
137.865272608894
 21
220.658275665122
  0
LINE
  5
2C7
100
AcDbEntity
  8
0-0
100
AcDbLine
  6
HIDDEN
370
13
 10
143.565272608895
 20
221.658275665122
 11
143.065272608895
 21
220.658275665122
  0
LINE
  5
2C8
100
AcDbEntity
  8
0-0
100
AcDbLine
  6
HIDDEN
370
13
 10
142.015272608894
 20
224.258275665122
 11
143.865272608894
 21
224.258275665122
  0
LINE
  5
2C9
100
AcDbEntity
  8
0-0
100
AcDbLine
  6
HIDDEN
370
13
 10
138.465272608895
 20
223.358275665122
 11
138.215272608895
 21
224.158275665122
  0
LINE
  5
2CA
100
AcDbEntity
  8
0-0
100
AcDbLine
  6
HIDDEN
370
13
 10
142.015272608894
 20
226.158275665122
 11
142.015272608894
 21
224.258275665122
  0
LINE
  5
2CB
100
AcDbEntity
  8
0-0
100
AcDbLine
  6
HIDDEN
370
13
 10
138.915272608895
 20
226.158275665122
 11
138.915272608895
 21
224.258275665122
  0
LINE
  5
2CC
100
AcDbEntity
  8
0-0
100
AcDbLine
  6
HIDDEN
370
13
 10
137.065272608895
 20
220.658275665122
 11
137.065272608895
 21
224.258275665122
  0
LINE
  5
2CD
100
AcDbEntity
  8
0-0
100
AcDbLine
  6
HIDDEN
370
13
 10
137.065272608895
 20
224.258275665122
 11
138.915272608895
 21
224.258275665122
  0
LINE
  5
2CE
100
AcDbEntity
  8
0-0
100
AcDbLine
  6
HIDDEN
370
13
 10
143.865272608894
 20
224.258275665122
 11
143.865272608894
 21
220.658275665122
  0
LINE
  5
2CF
100
AcDbEntity
  8
0-0
100
AcDbLine
  6
CONTINUOUS
370
30
 10
141.865272608894
 20
229.658275665122
 11
140.715272608895
 21
229.658275665122
  0
LINE
  5
2D0
100
AcDbEntity
  8
0-0
100
AcDbLine
  6
CONTINUOUS
370
30
 10
147.565272608895
 20
226.158275665122
 11
147.215272608894
 21
220.658275665122
  0
LINE
  5
2D1
100
AcDbEntity
  8
0-0
100
AcDbLine
  6
HIDDEN
370
13
 10
137.865272608894
 20
220.658275665122
 11
137.365272608894
 21
221.658275665122
  0
LINE
  5
2D2
100
AcDbEntity
  8
0-0
100
AcDbLine
  6
HIDDEN
370
13
 10
139.465272608895
 20
223.358275665122
 11
138.465272608895
 21
223.358275665122
  0
LINE
  5
2D3
100
AcDbEntity
  8
0-0
100
AcDbLine
  6
HIDDEN
370
13
 10
141.465272608895
 20
224.158275665122
 11
142.715272608895
 21
224.158275665122
  0
LINE
  5
2D4
100
AcDbEntity
  8
0-0
100
AcDbLine
  6
HIDDEN
370
13
 10
139.465272608895
 20
220.958275665122
 11
138.274289608895
 21
220.958275665122
  0
LINE
  5
2D5
100
AcDbEntity
  8
0-0
100
AcDbLine
  6
CONTINUOUS
370
30
 10
147.215272608894
 20
220.658275665122
 11
133.715272608895
 21
220.658275665122
  0
ARC
  5
2D6
100
AcDbEntity
  8
0-0
100
AcDbCircle
  6
CONTINUOUS
370
30
 10
141.365272608894
 20
227.558275665122
 40
0.1
100
AcDbArc
 50
-1.62844399690895E-11
 51
90
  0
ARC
  5
2D7
100
AcDbEntity
  8
0-0
100
AcDbCircle
  6
CONTINUOUS
370
30
 10
139.565272608895
 20
227.558275665122
 40
0.1
100
AcDbArc
 50
90
 51
179.999999999984
  0
LINE
  5
2D8
100
AcDbEntity
  8
0-0
100
AcDbLine
  6
CONTINUOUS
370
30
 10
140.215272608895
 20
229.658275665122
 11
140.215272608895
 21
228.258275665122
  0
LINE
  5
2D9
100
AcDbEntity
  8
0-0
100
AcDbLine
  6
CONTINUOUS
370
30
 10
140.215272608895
 20
229.658275665122
 11
139.065272608895
 21
229.658275665122
  0
LINE
  5
2DA
100
AcDbEntity
  8
0-0
100
AcDbLine
  6
CONTINUOUS
370
30
 10
141.965272608895
 20
226.158275665122
 11
141.965272608895
 21
229.558275665122
  0
LINE
  5
2DB
100
AcDbEntity
  8
0-0
100
AcDbLine
  6
CONTINUOUS
370
30
 10
140.715272608895
 20
228.258275665122
 11
141.465272608895
 21
228.258275665122
  0
LINE
  5
2DC
100
AcDbEntity
  8
0-0
100
AcDbLine
  6
HIDDEN
370
13
 10
139.465272608895
 20
226.158275665122
 11
139.465272608895
 21
220.958275665122
  0
LINE
  5
2DD
100
AcDbEntity
  8
0-0
100
AcDbLine
  6
CONTINUOUS
370
30
 10
141.365272608894
 20
227.658275665122
 11
139.565272608895
 21
227.658275665122
  0
LINE
  5
2DE
100
AcDbEntity
  8
0-0
100
AcDbLine
  6
CONTINUOUS
370
30
 10
140.715272608895
 20
229.658275665122
 11
140.715272608895
 21
228.258275665122
  0
LINE
  5
2DF
100
AcDbEntity
  8
0-0
100
AcDbLine
  6
CONTINUOUS
370
30
 10
141.465272608895
 20
226.158275665122
 11
141.465272608895
 21
228.258275665122
  0
LINE
  5
2E0
100
AcDbEntity
  8
0-0
100
AcDbLine
  6
HIDDEN
370
13
 10
138.965272608895
 20
226.158275665122
 11
138.965272608895
 21
224.158275665122
  0
LINE
  5
2E1
100
AcDbEntity
  8
0-0
100
AcDbLine
  6
CONTINUOUS
370
30
 10
140.215272608895
 20
228.258275665122
 11
139.465272608895
 21
228.258275665122
  0
LINE
  5
2E2
100
AcDbEntity
  8
0-0
100
AcDbLine
  6
CONTINUOUS
370
30
 10
143.065272608895
 20
220.658275665122
 11
142.965272608895
 21
220.458275665122
  0
LINE
  5
2E3
100
AcDbEntity
  8
0-0
100
AcDbLine
  6
HIDDEN
370
13
 10
137.924289608895
 20
221.658275665122
 11
137.365272608894
 21
221.658275665122
  0
LINE
  5
2E4
100
AcDbEntity
  8
0-0
100
AcDbLine
  6
HIDDEN
370
13
 10
138.274289608895
 20
220.958275665122
 11
137.924289608895
 21
221.658275665122
  0
LINE
  5
2E5
100
AcDbEntity
  8
0-0
100
AcDbLine
  6
HIDDEN
370
13
 10
138.276732608895
 20
220.958275665122
 11
138.274289608895
 21
220.958275665122
  0
LINE
  5
2E6
100
AcDbEntity
  8
0-0
100
AcDbLine
  6
CONTINUOUS
370
30
 10
139.465272608895
 20
228.258275665122
 11
139.465272608895
 21
226.158275665122
  0
LINE
  5
2E7
100
AcDbEntity
  8
0-0
100
AcDbLine
  6
HIDDEN
370
13
 10
141.465272608895
 20
220.958275665122
 11
141.465272608895
 21
226.158275665122
  0
ARC
  5
2E8
100
AcDbEntity
  8
0-0
100
AcDbCircle
  6
CONTINUOUS
370
30
 10
139.065272608895
 20
229.558275665122
 40
0.1
100
AcDbArc
 50
90
 51
180
  0
ARC
  5
2E9
100
AcDbEntity
  8
0-0
100
AcDbCircle
  6
CONTINUOUS
370
30
 10
141.865272608894
 20
229.558275665122
 40
0.1
100
AcDbArc
 50
0
 51
90
  0
LINE
  5
2EA
100
AcDbEntity
  8
0-0
100
AcDbLine
  6
CONTINUOUS
370
30
 10
138.965272608895
 20
229.558275665122
 11
138.965272608895
 21
226.158275665122
  0
LINE
  5
2EB
100
AcDbEntity
  8
0-0
100
AcDbLine
  6
CONTINUOUS
370
30
 10
74.4652726088945
 20
348.658275665122
 11
150.465272608894
 21
348.658275665122
  0
LINE
  5
2EC
100
AcDbEntity
  8
0-0
100
AcDbLine
  6
CONTINUOUS
370
30
 10
150.465272608894
 20
225.658275665122
 11
150.465272608894
 21
348.658275665122
  0
LINE
  5
2ED
100
AcDbEntity
  8
0-0
100
AcDbLine
  6
CONTINUOUS
370
30
 10
74.4652726088945
 20
225.658275665122
 11
74.4652726088945
 21
348.658275665122
  0
LINE
  5
2EE
100
AcDbEntity
  8
0-0
100
AcDbLine
  6
CONTINUOUS
370
50
 10
73.4652726088945
 20
349.658275665122
 11
151.465272608894
 21
349.658275665122
  0
LINE
  5
2EF
100
AcDbEntity
  8
0-0
100
AcDbLine
  6
CONTINUOUS
370
50
 10
151.465272608894
 20
225.658275665122
 11
151.465272608894
 21
349.658275665122
  0
LINE
  5
2F0
100
AcDbEntity
  8
0-0
100
AcDbLine
  6
CONTINUOUS
370
50
 10
73.4652726088945
 20
225.658275665122
 11
73.4652726088945
 21
349.658275665122
  0
LINE
  5
2F1
100
AcDbEntity
  8
0-0
100
AcDbLine
  6
CONTINUOUS
370
50
 10
73.4652726088945
 20
225.658275665122
 11
74.4652726088945
 21
225.658275665122
  0
LINE
  5
2F2
100
AcDbEntity
  8
0-0
100
AcDbLine
  6
CONTINUOUS
370
50
 10
150.465272608894
 20
225.658275665122
 11
151.465272608894
 21
225.658275665122
  0
LINE
  5
2F3
100
AcDbEntity
  8
0-0
100
AcDbLine
  6
CONTINUOUS
370
13
 10
37.4367004429456
 20
85.068932797492
 11
37.4367004429457
 21
69.068932797492
  0
LINE
  5
2F4
100
AcDbEntity
  8
0-0
100
AcDbLine
  6
CONTINUOUS
370
13
 10
41.4367004429457
 20
85.068932797492
 11
37.4367004429456
 21
85.068932797492
  0
LINE
  5
2F5
100
AcDbEntity
  8
0-0
100
AcDbLine
  6
CONTINUOUS
370
13
 10
41.4367004429457
 20
69.068932797492
 11
37.4367004429457
 21
69.068932797492
  0
LINE
  5
2F6
100
AcDbEntity
  8
0-0
100
AcDbLine
  6
CONTINUOUS
370
13
 10
42.5367004429457
 20
84.068932797492
 11
41.4367004429457
 21
84.068932797492
  0
LINE
  5
2F7
100
AcDbEntity
  8
0-0
100
AcDbLine
  6
CONTINUOUS
370
13
 10
42.5367004429458
 20
70.0689327974919
 11
41.4367004429457
 21
70.068932797492
  0
LINE
  5
2F8
100
AcDbEntity
  8
0-0
100
AcDbLine
  6
CONTINUOUS
370
13
 10
41.4367004429457
 20
85.068932797492
 11
41.4367004429457
 21
69.068932797492
  0
LINE
  5
2F9
100
AcDbEntity
  8
0-0
100
AcDbLine
  6
CONTINUOUS
370
13
 10
41.4367004429456
 20
84.4689327974921
 11
37.4367004429456
 21
84.4689327974921
  0
LINE
  5
2FA
100
AcDbEntity
  8
0-0
100
AcDbLine
  6
CONTINUOUS
370
13
 10
41.4367004429456
 20
69.668932797492
 11
37.4367004429457
 21
69.6689327974919
  0
LINE
  5
2FB
100
AcDbEntity
  8
0-0
100
AcDbLine
  6
CONTINUOUS
370
13
 10
67.7333570087473
 20
53.4843848397357
 11
59.7772835541913
 21
53.4843848397358
  0
LINE
  5
2FC
100
AcDbEntity
  8
0-0
100
AcDbLine
  6
CONTINUOUS
370
13
 10
48.5367004429457
 20
156.520240499131
 11
48.5367004429457
 21
162.709940092173
  0
LINE
  5
2FD
100
AcDbEntity
  8
0-0
100
AcDbLine
  6
CONTINUOUS
370
13
 10
166.536700442946
 20
156.624090735093
 11
166.536700442946
 21
162.796081133062
  0
LINE
  5
2FE
100
AcDbEntity
  8
0-0
100
AcDbLine
  6
CONTINUOUS
370
13
 10
151.536700442946
 20
50.6873741656442
 11
151.536700442946
 21
56.2409725193936
  0
LINE
  5
2FF
100
AcDbEntity
  8
0-0
100
AcDbLine
  6
CONTINUOUS
370
13
 10
154.287912766148
 20
53.4843848397359
 11
148.112573640927
 21
53.4843848397359
  0
LINE
  5
300
100
AcDbEntity
  8
0-0
100
AcDbLine
  6
CONTINUOUS
370
13
 10
63.5367004429458
 20
50.61815139606
 11
63.5367004429457
 21
56.6440540314879
  0
LINE
  5
301
100
AcDbEntity
  8
0-0
100
AcDbLine
  6
CONTINUOUS
370
13
 10
50.967232335224
 20
159.484384839736
 11
45.7062192907119
 21
159.484384839736
  0
LINE
  5
302
100
AcDbEntity
  8
0-0
100
AcDbLine
  6
CONTINUOUS
370
13
 10
168.69908616557
 20
159.484384839736
 11
163.927781289479
 21
159.484384839736
  0
LINE
  5
303
100
AcDbEntity
  8
0-0
100
AcDbLine
  6
CONTINUOUS
370
13
 10
240.861038120407
 20
367.857391833894
 11
240.861038120407
 21
237.857391833894
  0
LINE
  5
304
100
AcDbEntity
  8
0-0
100
AcDbLine
  6
CONTINUOUS
370
13
 10
240.861038120407
 20
367.857391833894
 11
241.637495255715
 21
364.959614355026
  0
LINE
  5
305
100
AcDbEntity
  8
0-0
100
AcDbLine
  6
CONTINUOUS
370
13
 10
240.861038120407
 20
367.857391833894
 11
240.0845809851
 21
364.959614355026
  0
LINE
  5
306
100
AcDbEntity
  8
0-0
100
AcDbLine
  6
CONTINUOUS
370
13
 10
240.861038120407
 20
237.857391833894
 11
240.084580985099
 21
240.755169312761
  0
LINE
  5
307
100
AcDbEntity
  8
0-0
100
AcDbLine
  6
CONTINUOUS
370
13
 10
240.861038120407
 20
237.857391833894
 11
241.637495255715
 21
240.755169312761
  0
TEXT
  5
308
100
AcDbEntity
  8
0-0
100
AcDbText
  6
CONTINUOUS
 10
241.290636886319
 20
291.857391833894
 40
8
  1
130
  7
Font_0
 50
90.0000000000005
 72
1
 11
233.290636886319
 21
298.857391833894
100
AcDbText
 73
3
  0
LINE
  5
309
100
AcDbEntity
  8
0-0
100
AcDbLine
  6
CONTINUOUS
370
13
 10
262.026239228668
 20
47.9843848397359
 11
240.361038120407
 21
47.984384839736
  0
LINE
  5
30A
100
AcDbEntity
  8
0-0
100
AcDbLine
  6
CONTINUOUS
370
13
 10
240.861038120407
 20
47.9843848397359
 11
240.861038120407
 21
171.984384839736
  0
LINE
  5
30B
100
AcDbEntity
  8
0-0
100
AcDbLine
  6
CONTINUOUS
370
13
 10
240.861038120407
 20
47.9843848397359
 11
240.0845809851
 21
50.8821623186031
  0
LINE
  5
30C
100
AcDbEntity
  8
0-0
100
AcDbLine
  6
CONTINUOUS
370
13
 10
240.861038120407
 20
47.9843848397359
 11
241.637495255715
 21
50.8821623186031
  0
LINE
  5
30D
100
AcDbEntity
  8
0-0
100
AcDbLine
  6
CONTINUOUS
370
13
 10
240.861038120407
 20
171.984384839736
 11
241.637495255715
 21
169.086607360869
  0
LINE
  5
30E
100
AcDbEntity
  8
0-0
100
AcDbLine
  6
CONTINUOUS
370
13
 10
240.861038120407
 20
171.984384839736
 11
240.0845809851
 21
169.086607360869
  0
TEXT
  5
30F
100
AcDbEntity
  8
0-0
100
AcDbText
  6
CONTINUOUS
 10
240.948163805895
 20
102.784313170478
 40
8
  1
124
  7
Font_0
 50
90.0000000000002
 72
1
 11
232.948163805895
 21
109.784313170478
100
AcDbText
 73
3
  0
LINE
  5
310
100
AcDbEntity
  8
0-0
100
AcDbLine
  6
CONTINUOUS
370
13
 10
262.026239228668
 20
171.984384839736
 11
240.361038120407
 21
171.984384839736
  0
LINE
  5
311
100
AcDbEntity
  8
0-0
100
AcDbLine
  6
CONTINUOUS
370
13
 10
266.276239228668
 20
42.9843848397359
 11
240.361038120407
 21
42.984384839736
  0
LINE
  5
312
100
AcDbEntity
  8
0-0
100
AcDbLine
  6
CONTINUOUS
370
13
 10
240.861038120407
 20
42.9843848397359
 11
240.861038120407
 21
47.9843848397359
  0
LINE
  5
313
100
AcDbEntity
  8
0-0
100
AcDbLine
  6
CONTINUOUS
370
13
 10
240.861038120407
 20
42.9843848397359
 11
240.0845809851
 21
45.8821623186031
  0
LINE
  5
314
100
AcDbEntity
  8
0-0
100
AcDbLine
  6
CONTINUOUS
370
13
 10
240.861038120407
 20
42.9843848397359
 11
241.637495255715
 21
45.8821623186031
  0
LINE
  5
315
100
AcDbEntity
  8
0-0
100
AcDbLine
  6
CONTINUOUS
370
13
 10
240.861038120407
 20
47.9843848397359
 11
241.637495255715
 21
45.0866073608687
  0
LINE
  5
316
100
AcDbEntity
  8
0-0
100
AcDbLine
  6
CONTINUOUS
370
13
 10
240.861038120407
 20
47.9843848397359
 11
240.0845809851
 21
45.0866073608687
  0
TEXT
  5
317
100
AcDbEntity
  8
0-0
100
AcDbText
  6
CONTINUOUS
 10
240.83881788343
 20
43.604460870759
 40
8
  1
5
  7
Font_0
 50
90
 72
1
 11
232.83881788343
 21
45.604460870759
100
AcDbText
 73
3
  0
LINE
  5
318
100
AcDbEntity
  8
0-0
100
AcDbLine
  6
CONTINUOUS
370
13
 10
256.867876147503
 20
47.9843848397359
 11
240.361038120407
 21
47.984384839736
  0
LINE
  5
319
100
AcDbEntity
  8
0-0
100
AcDbLine
  6
CONTINUOUS
370
13
 10
262.276239228668
 20
368.107391833894
 11
262.276239228668
 21
383.679837490369
  0
LINE
  5
31A
100
AcDbEntity
  8
0-0
100
AcDbLine
  6
CONTINUOUS
370
13
 10
262.276239228668
 20
383.179837490369
 11
340.276239228668
 21
383.179837490369
  0
LINE
  5
31B
100
AcDbEntity
  8
0-0
100
AcDbLine
  6
CONTINUOUS
370
13
 10
262.276239228668
 20
383.179837490369
 11
265.174016707535
 21
383.956294625677
  0
LINE
  5
31C
100
AcDbEntity
  8
0-0
100
AcDbLine
  6
CONTINUOUS
370
13
 10
262.276239228668
 20
383.179837490369
 11
265.174016707535
 21
382.403380355062
  0
LINE
  5
31D
100
AcDbEntity
  8
0-0
100
AcDbLine
  6
CONTINUOUS
370
13
 10
340.276239228668
 20
383.179837490369
 11
337.378461749801
 21
382.403380355062
  0
LINE
  5
31E
100
AcDbEntity
  8
0-0
100
AcDbLine
  6
CONTINUOUS
370
13
 10
340.276239228668
 20
383.179837490369
 11
337.378461749801
 21
383.956294625677
  0
TEXT
  5
31F
100
AcDbEntity
  8
0-0
100
AcDbText
  6
CONTINUOUS
 10
296.776239228668
 20
383.429837490369
 40
8
  1
78
  7
Font_0
 72
1
 11
301.276239228668
 21
391.429837490369
100
AcDbText
 73
3
  0
LINE
  5
320
100
AcDbEntity
  8
0-0
100
AcDbLine
  6
CONTINUOUS
370
13
 10
340.276239228668
 20
368.107391833894
 11
340.276239228668
 21
383.679837490369
  0
LINE
  5
321
100
AcDbEntity
  8
0-0
100
AcDbLine
  6
CONTINUOUS
370
13
 10
285.526239228668
 20
201.357873459387
 11
240.361038120407
 21
201.357873459388
  0
LINE
  5
322
100
AcDbEntity
  8
0-0
100
AcDbLine
  6
CONTINUOUS
370
13
 10
240.861038120407
 20
201.357873459388
 11
240.861038120407
 21
237.857391833894
  0
LINE
  5
323
100
AcDbEntity
  8
0-0
100
AcDbLine
  6
CONTINUOUS
370
13
 10
240.861038120407
 20
201.357873459388
 11
240.084580985099
 21
204.255650938255
  0
LINE
  5
324
100
AcDbEntity
  8
0-0
100
AcDbLine
  6
CONTINUOUS
370
13
 10
240.861038120407
 20
201.357873459388
 11
241.637495255715
 21
204.255650938255
  0
LINE
  5
325
100
AcDbEntity
  8
0-0
100
AcDbLine
  6
CONTINUOUS
370
13
 10
240.861038120407
 20
237.857391833894
 11
241.637495255715
 21
234.959614355027
  0
LINE
  5
326
100
AcDbEntity
  8
0-0
100
AcDbLine
  6
CONTINUOUS
370
13
 10
240.861038120407
 20
237.857391833894
 11
240.084580985099
 21
234.959614355027
  0
TEXT
  5
327
100
AcDbEntity
  8
0-0
100
AcDbText
  6
CONTINUOUS
 10
241.290636886319
 20
210.107632646641
 40
8
  1
36.5
  7
Font_0
 50
90
 72
1
 11
233.290636886319
 21
219.607632646641
100
AcDbText
 73
3
  0
LINE
  5
328
100
AcDbEntity
  8
0-0
100
AcDbLine
  6
CONTINUOUS
370
50
 10
340.276239228668
 20
47.9843848397359
 11
340.276239228668
 21
152.799036081768
  0
LINE
  5
329
100
AcDbEntity
  8
0-0
100
AcDbLine
  6
CONTINUOUS
370
50
 10
340.276239228668
 20
165.169733597704
 11
340.276239228668
 21
171.984384839736
  0
LINE
  5
32A
100
AcDbEntity
  8
0-0
100
AcDbLine
  6
CONTINUOUS
370
30
 10
339.276239228668
 20
47.9843848397359
 11
339.276239228668
 21
153.216992780261
  0
LINE
  5
32B
100
AcDbEntity
  8
0-0
100
AcDbLine
  6
CONTINUOUS
370
30
 10
339.276239228668
 20
164.751776899211
 11
339.276239228668
 21
170.984384839736
  0
LINE
  5
32C
100
AcDbEntity
  8
0-0
100
AcDbLine
  6
CONTINUOUS
370
30
 10
339.076239228668
 20
48.4843848397359
 11
339.076239228668
 21
153.325439218006
  0
CIRCLE
  5
32D
100
AcDbEntity
  8
0-0
100
AcDbCircle
  6
CONTINUOUS
370
13
 10
151.536700442946
 20
53.4843848397358
 40
3
  0
LINE
  5
32E
100
AcDbEntity
  8
0-0
100
AcDbLine
  6
CONTINUOUS
370
20
 10
149.682650821174
 20
54.2343848397357
 11
150.786700442946
 21
54.2343848397357
  0
LINE
  5
32F
100
AcDbEntity
  8
0-0
100
AcDbLine
  6
CONTINUOUS
370
20
 10
149.682650821174
 20
52.7343848397356
 11
150.786700442946
 21
52.7343848397356
  0
LINE
  5
330
100
AcDbEntity
  8
0-0
100
AcDbLine
  6
CONTINUOUS
370
20
 10
150.786700442946
 20
51.6303352179635
 11
150.786700442946
 21
52.7343848397356
  0
LINE
  5
331
100
AcDbEntity
  8
0-0
100
AcDbLine
  6
CONTINUOUS
370
20
 10
152.286700442946
 20
51.6303352179634
 11
152.286700442946
 21
52.7343848397356
  0
LINE
  5
332
100
AcDbEntity
  8
0-0
100
AcDbLine
  6
CONTINUOUS
370
20
 10
153.39075006472
 20
54.2343848397357
 11
153.39075006472
 21
52.7343848397356
  0
LINE
  5
333
100
AcDbEntity
  8
0-0
100
AcDbLine
  6
CONTINUOUS
370
20
 10
149.682650821172
 20
54.2343848397358
 11
149.682650821172
 21
52.7343848397356
  0
LINE
  5
334
100
AcDbEntity
  8
0-0
100
AcDbLine
  6
CONTINUOUS
370
20
 10
150.786700442946
 20
51.6303352179619
 11
152.286700442946
 21
51.6303352179618
  0
LINE
  5
335
100
AcDbEntity
  8
0-0
100
AcDbLine
  6
CONTINUOUS
370
20
 10
150.786700442946
 20
55.3384344615098
 11
152.286700442946
 21
55.3384344615098
  0
LINE
  5
336
100
AcDbEntity
  8
0-0
100
AcDbLine
  6
CONTINUOUS
370
20
 10
152.286700442946
 20
52.7343848397356
 11
153.39075006472
 21
52.7343848397356
  0
LINE
  5
337
100
AcDbEntity
  8
0-0
100
AcDbLine
  6
CONTINUOUS
370
20
 10
150.786700442946
 20
54.2343848397357
 11
150.786700442946
 21
55.3384344615098
  0
LINE
  5
338
100
AcDbEntity
  8
0-0
100
AcDbLine
  6
CONTINUOUS
370
20
 10
152.286700442946
 20
54.2343848397358
 11
153.39075006472
 21
54.2343848397357
  0
LINE
  5
339
100
AcDbEntity
  8
0-0
100
AcDbLine
  6
CONTINUOUS
370
20
 10
152.286700442946
 20
54.2343848397358
 11
152.286700442946
 21
55.3384344615098
  0
CIRCLE
  5
33A
100
AcDbEntity
  8
0-0
100
AcDbCircle
  6
CONTINUOUS
370
13
 10
63.5367004429457
 20
53.4843848397358
 40
3
  0
LINE
  5
33B
100
AcDbEntity
  8
0-0
100
AcDbLine
  6
CONTINUOUS
370
20
 10
61.6826508211735
 20
54.2343848397358
 11
62.7867004429458
 21
54.2343848397359
  0
LINE
  5
33C
100
AcDbEntity
  8
0-0
100
AcDbLine
  6
CONTINUOUS
370
20
 10
61.6826508211736
 20
52.7343848397356
 11
62.7867004429461
 21
52.7343848397355
  0
LINE
  5
33D
100
AcDbEntity
  8
0-0
100
AcDbLine
  6
CONTINUOUS
370
20
 10
62.7867004429461
 20
51.6303352179633
 11
62.7867004429461
 21
52.7343848397355
  0
LINE
  5
33E
100
AcDbEntity
  8
0-0
100
AcDbLine
  6
CONTINUOUS
370
20
 10
64.286700442946
 20
51.6303352179634
 11
64.286700442946
 21
52.7343848397356
  0
LINE
  5
33F
100
AcDbEntity
  8
0-0
100
AcDbLine
  6
CONTINUOUS
370
20
 10
65.3907500647197
 20
54.2343848397358
 11
65.3907500647197
 21
52.7343848397357
  0
LINE
  5
340
100
AcDbEntity
  8
0-0
100
AcDbLine
  6
CONTINUOUS
370
20
 10
61.6826508211718
 20
54.2343848397357
 11
61.6826508211717
 21
52.7343848397356
  0
LINE
  5
341
100
AcDbEntity
  8
0-0
100
AcDbLine
  6
CONTINUOUS
370
20
 10
62.786700442946
 20
51.6303352179618
 11
64.2867004429461
 21
51.6303352179618
  0
LINE
  5
342
100
AcDbEntity
  8
0-0
100
AcDbLine
  6
CONTINUOUS
370
20
 10
62.7867004429459
 20
55.3384344615098
 11
64.2867004429459
 21
55.3384344615098
  0
LINE
  5
343
100
AcDbEntity
  8
0-0
100
AcDbLine
  6
CONTINUOUS
370
20
 10
64.286700442946
 20
52.7343848397356
 11
65.3907500647197
 21
52.7343848397357
  0
LINE
  5
344
100
AcDbEntity
  8
0-0
100
AcDbLine
  6
CONTINUOUS
370
20
 10
62.7867004429458
 20
54.2343848397359
 11
62.7867004429459
 21
55.3384344615098
  0
LINE
  5
345
100
AcDbEntity
  8
0-0
100
AcDbLine
  6
CONTINUOUS
370
20
 10
64.2867004429459
 20
54.2343848397358
 11
65.3907500647197
 21
54.2343848397358
  0
LINE
  5
346
100
AcDbEntity
  8
0-0
100
AcDbLine
  6
CONTINUOUS
370
20
 10
64.2867004429459
 20
54.2343848397358
 11
64.2867004429459
 21
55.3384344615098
  0
CIRCLE
  5
347
100
AcDbEntity
  8
0-0
100
AcDbCircle
  6
CONTINUOUS
370
13
 10
48.5367004429457
 20
159.484384839736
 40
3
  0
LINE
  5
348
100
AcDbEntity
  8
0-0
100
AcDbLine
  6
CONTINUOUS
370
20
 10
46.6826508211735
 20
160.234384839736
 11
47.7867004429459
 21
160.234384839736
  0
LINE
  5
349
100
AcDbEntity
  8
0-0
100
AcDbLine
  6
CONTINUOUS
370
20
 10
46.6826508211735
 20
158.734384839736
 11
47.7867004429459
 21
158.734384839736
  0
LINE
  5
34A
100
AcDbEntity
  8
0-0
100
AcDbLine
  6
CONTINUOUS
370
20
 10
47.7867004429459
 20
157.630335217963
 11
47.7867004429459
 21
158.734384839736
  0
LINE
  5
34B
100
AcDbEntity
  8
0-0
100
AcDbLine
  6
CONTINUOUS
370
20
 10
49.2867004429459
 20
157.630335217963
 11
49.2867004429459
 21
158.734384839736
  0
LINE
  5
34C
100
AcDbEntity
  8
0-0
100
AcDbLine
  6
CONTINUOUS
370
20
 10
50.3907500647197
 20
160.234384839736
 11
50.3907500647197
 21
158.734384839736
  0
LINE
  5
34D
100
AcDbEntity
  8
0-0
100
AcDbLine
  6
CONTINUOUS
370
20
 10
46.6826508211717
 20
160.234384839736
 11
46.6826508211716
 21
158.734384839736
  0
LINE
  5
34E
100
AcDbEntity
  8
0-0
100
AcDbLine
  6
CONTINUOUS
370
20
 10
47.7867004429459
 20
157.630335217962
 11
49.2867004429459
 21
157.630335217962
  0
LINE
  5
34F
100
AcDbEntity
  8
0-0
100
AcDbLine
  6
CONTINUOUS
370
20
 10
47.7867004429459
 20
161.33843446151
 11
49.2867004429459
 21
161.33843446151
  0
LINE
  5
350
100
AcDbEntity
  8
0-0
100
AcDbLine
  6
CONTINUOUS
370
20
 10
49.2867004429459
 20
158.734384839736
 11
50.3907500647197
 21
158.734384839736
  0
LINE
  5
351
100
AcDbEntity
  8
0-0
100
AcDbLine
  6
CONTINUOUS
370
20
 10
47.7867004429459
 20
160.234384839736
 11
47.7867004429459
 21
161.33843446151
  0
LINE
  5
352
100
AcDbEntity
  8
0-0
100
AcDbLine
  6
CONTINUOUS
370
20
 10
49.2867004429459
 20
160.234384839736
 11
50.3907500647197
 21
160.234384839736
  0
LINE
  5
353
100
AcDbEntity
  8
0-0
100
AcDbLine
  6
CONTINUOUS
370
20
 10
49.2867004429459
 20
160.234384839736
 11
49.2867004429459
 21
161.33843446151
  0
CIRCLE
  5
354
100
AcDbEntity
  8
0-0
100
AcDbCircle
  6
CONTINUOUS
370
13
 10
166.536700442946
 20
159.484384839736
 40
3
  0
LINE
  5
355
100
AcDbEntity
  8
0-0
100
AcDbLine
  6
CONTINUOUS
370
20
 10
164.682650821174
 20
160.234384839736
 11
165.786700442946
 21
160.234384839736
  0
LINE
  5
356
100
AcDbEntity
  8
0-0
100
AcDbLine
  6
CONTINUOUS
370
20
 10
164.682650821173
 20
158.734384839736
 11
165.786700442946
 21
158.734384839736
  0
LINE
  5
357
100
AcDbEntity
  8
0-0
100
AcDbLine
  6
CONTINUOUS
370
20
 10
165.786700442946
 20
157.630335217964
 11
165.786700442946
 21
158.734384839736
  0
LINE
  5
358
100
AcDbEntity
  8
0-0
100
AcDbLine
  6
CONTINUOUS
370
20
 10
167.286700442946
 20
157.630335217964
 11
167.286700442946
 21
158.734384839736
  0
LINE
  5
359
100
AcDbEntity
  8
0-0
100
AcDbLine
  6
CONTINUOUS
370
20
 10
168.39075006472
 20
160.234384839736
 11
168.39075006472
 21
158.734384839736
  0
LINE
  5
35A
100
AcDbEntity
  8
0-0
100
AcDbLine
  6
CONTINUOUS
370
20
 10
164.682650821172
 20
160.234384839736
 11
164.682650821172
 21
158.734384839736
  0
LINE
  5
35B
100
AcDbEntity
  8
0-0
100
AcDbLine
  6
CONTINUOUS
370
20
 10
165.786700442946
 20
157.630335217962
 11
167.286700442946
 21
157.630335217962
  0
LINE
  5
35C
100
AcDbEntity
  8
0-0
100
AcDbLine
  6
CONTINUOUS
370
20
 10
165.786700442946
 20
161.33843446151
 11
167.286700442946
 21
161.33843446151
  0
LINE
  5
35D
100
AcDbEntity
  8
0-0
100
AcDbLine
  6
CONTINUOUS
370
20
 10
167.286700442946
 20
158.734384839736
 11
168.39075006472
 21
158.734384839736
  0
LINE
  5
35E
100
AcDbEntity
  8
0-0
100
AcDbLine
  6
CONTINUOUS
370
20
 10
165.786700442946
 20
160.234384839736
 11
165.786700442946
 21
161.33843446151
  0
LINE
  5
35F
100
AcDbEntity
  8
0-0
100
AcDbLine
  6
CONTINUOUS
370
20
 10
167.286700442946
 20
160.234384839736
 11
168.39075006472
 21
160.234384839736
  0
LINE
  5
360
100
AcDbEntity
  8
0-0
100
AcDbLine
  6
CONTINUOUS
370
20
 10
167.286700442946
 20
160.234384839736
 11
167.286700442946
 21
161.33843446151
  0
MTEXT
  5
361
100
AcDbEntity
  8
0-0
100
AcDbMText
 10
97.038033391543
 20
376.917343016485
 40
10
 41
  0.0
  1
\L背　面
  7
Font_0
  0
LINE
  5
362
100
AcDbEntity
  8
0-0
100
AcDbLine
  6
CONTINUOUS
 62
7
370
30
 10
5.38199364769443
 20
404.805953846495
 11
5.38199364769443
 21
12.391351
  0
LINE
  5
363
100
AcDbEntity
  8
0-0
100
AcDbLine
  6
CONTINUOUS
 62
7
370
30
 10
5.38199364769443
 20
404.805953846495
 11
577.260204973627
 21
404.805953846495
  0
LINE
  5
364
100
AcDbEntity
  8
0-0
100
AcDbLine
  6
HIDDEN
370
13
 10
87.5652726088945
 20
221.658275665122
 11
87.0062556088945
 21
221.658275665122
  0
LINE
  5
365
100
AcDbEntity
  8
0-0
100
AcDbLine
  6
HIDDEN
370
13
 10
87.0062556088945
 20
221.658275665122
 11
86.6562556088945
 21
220.958275665122
  0
LINE
  5
366
100
AcDbEntity
  8
0-0
100
AcDbLine
  6
HIDDEN
370
13
 10
86.6562556088945
 20
220.958275665122
 11
85.4652726088945
 21
220.958275665122
  0
LINE
  5
367
100
AcDbEntity
  8
0-0
100
AcDbLine
  6
HIDDEN
370
13
 10
86.7152726088945
 20
224.158275665122
 11
86.4652726088945
 21
223.358275665122
  0
LINE
  5
368
100
AcDbEntity
  8
0-0
100
AcDbLine
  6
HIDDEN
370
13
 10
86.4652726088945
 20
223.358275665122
 11
85.4652726088945
 21
223.358275665122
  0
LINE
  5
369
100
AcDbEntity
  8
0-0
100
AcDbLine
  6
HIDDEN
370
13
 10
82.2152726088945
 20
224.158275665122
 11
83.4652726088945
 21
224.158275665122
  0
LINE
  5
36A
100
AcDbEntity
  8
0-0
100
AcDbLine
  6
CONTINUOUS
370
30
 10
86.9652726088945
 20
220.458275665122
 11
81.9652726088945
 21
220.458275665122
  0
LINE
  5
36B
100
AcDbEntity
  8
0-0
100
AcDbLine
  6
CONTINUOUS
370
30
 10
77.7152726088945
 20
220.658275665122
 11
77.3652726088945
 21
226.158275665122
  0
LINE
  5
36C
100
AcDbEntity
  8
0-0
100
AcDbLine
  6
CONTINUOUS
370
30
 10
77.3652726088945
 20
226.158275665122
 11
91.5652726088945
 21
226.158275665122
  0
LINE
  5
36D
100
AcDbEntity
  8
0-0
100
AcDbLine
  6
HIDDEN
370
13
 10
85.9652726088945
 20
224.158275665122
 11
85.9652726088945
 21
226.158275665122
  0
LINE
  5
36E
100
AcDbEntity
  8
0-0
100
AcDbLine
  6
CONTINUOUS
370
30
 10
81.9652726088945
 20
220.458275665122
 11
81.8652726088945
 21
220.658275665122
  0
LINE
  5
36F
100
AcDbEntity
  8
0-0
100
AcDbLine
  6
HIDDEN
370
13
 10
87.5652726088945
 20
221.658275665122
 11
87.0652726088945
 21
220.658275665122
  0
LINE
  5
370
100
AcDbEntity
  8
0-0
100
AcDbLine
  6
HIDDEN
370
13
 10
86.0152726088945
 20
224.258275665122
 11
87.8652726088945
 21
224.258275665122
  0
LINE
  5
371
100
AcDbEntity
  8
0-0
100
AcDbLine
  6
HIDDEN
370
13
 10
82.4652726088945
 20
223.358275665122
 11
82.2152726088945
 21
224.158275665122
  0
LINE
  5
372
100
AcDbEntity
  8
0-0
100
AcDbLine
  6
HIDDEN
370
13
 10
86.0152726088945
 20
226.158275665122
 11
86.0152726088945
 21
224.258275665122
  0
LINE
  5
373
100
AcDbEntity
  8
0-0
100
AcDbLine
  6
HIDDEN
370
13
 10
82.9152726088946
 20
226.158275665122
 11
82.9152726088946
 21
224.258275665122
  0
LINE
  5
374
100
AcDbEntity
  8
0-0
100
AcDbLine
  6
HIDDEN
370
13
 10
81.0652726088945
 20
220.658275665122
 11
81.0652726088945
 21
224.258275665122
  0
LINE
  5
375
100
AcDbEntity
  8
0-0
100
AcDbLine
  6
HIDDEN
370
13
 10
81.0652726088945
 20
224.258275665122
 11
82.9152726088946
 21
224.258275665122
  0
LINE
  5
376
100
AcDbEntity
  8
0-0
100
AcDbLine
  6
HIDDEN
370
13
 10
87.8652726088945
 20
224.258275665122
 11
87.8652726088945
 21
220.658275665122
  0
LINE
  5
377
100
AcDbEntity
  8
0-0
100
AcDbLine
  6
CONTINUOUS
370
30
 10
85.8652726088945
 20
229.658275665122
 11
84.7152726088945
 21
229.658275665122
  0
LINE
  5
378
100
AcDbEntity
  8
0-0
100
AcDbLine
  6
CONTINUOUS
370
30
 10
91.5652726088945
 20
226.158275665122
 11
91.2152726088945
 21
220.658275665122
  0
LINE
  5
379
100
AcDbEntity
  8
0-0
100
AcDbLine
  6
HIDDEN
370
13
 10
81.8652726088945
 20
220.658275665122
 11
81.3652726088945
 21
221.658275665122
  0
LINE
  5
37A
100
AcDbEntity
  8
0-0
100
AcDbLine
  6
HIDDEN
370
13
 10
83.4652726088945
 20
223.358275665122
 11
82.4652726088945
 21
223.358275665122
  0
LINE
  5
37B
100
AcDbEntity
  8
0-0
100
AcDbLine
  6
HIDDEN
370
13
 10
85.4652726088945
 20
224.158275665122
 11
86.7152726088945
 21
224.158275665122
  0
LINE
  5
37C
100
AcDbEntity
  8
0-0
100
AcDbLine
  6
HIDDEN
370
13
 10
83.4652726088945
 20
220.958275665122
 11
82.2742896088946
 21
220.958275665122
  0
LINE
  5
37D
100
AcDbEntity
  8
0-0
100
AcDbLine
  6
CONTINUOUS
370
30
 10
91.2152726088945
 20
220.658275665122
 11
77.7152726088945
 21
220.658275665122
  0
ARC
  5
37E
100
AcDbEntity
  8
0-0
100
AcDbCircle
  6
CONTINUOUS
370
30
 10
85.3652726088945
 20
227.558275665122
 40
0.1
100
AcDbArc
 50
-1.62844399690895E-11
 51
90
  0
ARC
  5
37F
100
AcDbEntity
  8
0-0
100
AcDbCircle
  6
CONTINUOUS
370
30
 10
83.5652726088945
 20
227.558275665122
 40
0.1
100
AcDbArc
 50
90
 51
179.999999999984
  0
LINE
  5
380
100
AcDbEntity
  8
0-0
100
AcDbLine
  6
CONTINUOUS
370
30
 10
84.2152726088945
 20
229.658275665122
 11
84.2152726088945
 21
228.258275665122
  0
LINE
  5
381
100
AcDbEntity
  8
0-0
100
AcDbLine
  6
CONTINUOUS
370
30
 10
84.2152726088945
 20
229.658275665122
 11
83.0652726088945
 21
229.658275665122
  0
LINE
  5
382
100
AcDbEntity
  8
0-0
100
AcDbLine
  6
CONTINUOUS
370
30
 10
85.9652726088945
 20
226.158275665122
 11
85.9652726088945
 21
229.558275665122
  0
LINE
  5
383
100
AcDbEntity
  8
0-0
100
AcDbLine
  6
CONTINUOUS
370
30
 10
84.7152726088945
 20
228.258275665122
 11
85.4652726088945
 21
228.258275665122
  0
LINE
  5
384
100
AcDbEntity
  8
0-0
100
AcDbLine
  6
HIDDEN
370
13
 10
83.4652726088945
 20
226.158275665122
 11
83.4652726088945
 21
220.958275665122
  0
LINE
  5
385
100
AcDbEntity
  8
0-0
100
AcDbLine
  6
CONTINUOUS
370
30
 10
85.3652726088945
 20
227.658275665122
 11
83.5652726088945
 21
227.658275665122
  0
LINE
  5
386
100
AcDbEntity
  8
0-0
100
AcDbLine
  6
CONTINUOUS
370
30
 10
84.7152726088945
 20
229.658275665122
 11
84.7152726088945
 21
228.258275665122
  0
LINE
  5
387
100
AcDbEntity
  8
0-0
100
AcDbLine
  6
CONTINUOUS
370
30
 10
85.4652726088945
 20
226.158275665122
 11
85.4652726088945
 21
228.258275665122
  0
LINE
  5
388
100
AcDbEntity
  8
0-0
100
AcDbLine
  6
HIDDEN
370
13
 10
82.9652726088945
 20
226.158275665122
 11
82.9652726088945
 21
224.158275665122
  0
LINE
  5
389
100
AcDbEntity
  8
0-0
100
AcDbLine
  6
CONTINUOUS
370
30
 10
84.2152726088945
 20
228.258275665122
 11
83.4652726088945
 21
228.258275665122
  0
LINE
  5
38A
100
AcDbEntity
  8
0-0
100
AcDbLine
  6
CONTINUOUS
370
30
 10
87.0652726088945
 20
220.658275665122
 11
86.9652726088945
 21
220.458275665122
  0
LINE
  5
38B
100
AcDbEntity
  8
0-0
100
AcDbLine
  6
HIDDEN
370
13
 10
81.9242896088945
 20
221.658275665122
 11
81.3652726088945
 21
221.658275665122
  0
LINE
  5
38C
100
AcDbEntity
  8
0-0
100
AcDbLine
  6
HIDDEN
370
13
 10
82.2742896088946
 20
220.958275665122
 11
81.9242896088945
 21
221.658275665122
  0
LINE
  5
38D
100
AcDbEntity
  8
0-0
100
AcDbLine
  6
HIDDEN
370
13
 10
82.2767326088945
 20
220.958275665122
 11
82.2742896088946
 21
220.958275665122
  0
LINE
  5
38E
100
AcDbEntity
  8
0-0
100
AcDbLine
  6
CONTINUOUS
370
30
 10
83.4652726088945
 20
228.258275665122
 11
83.4652726088945
 21
226.158275665122
  0
LINE
  5
38F
100
AcDbEntity
  8
0-0
100
AcDbLine
  6
HIDDEN
370
13
 10
85.4652726088945
 20
220.958275665122
 11
85.4652726088945
 21
226.158275665122
  0
ARC
  5
390
100
AcDbEntity
  8
0-0
100
AcDbCircle
  6
CONTINUOUS
370
30
 10
83.0652726088945
 20
229.558275665122
 40
0.1
100
AcDbArc
 50
90
 51
180
  0
ARC
  5
391
100
AcDbEntity
  8
0-0
100
AcDbCircle
  6
CONTINUOUS
370
30
 10
85.8652726088945
 20
229.558275665122
 40
0.1
100
AcDbArc
 50
0
 51
90
  0
LINE
  5
392
100
AcDbEntity
  8
0-0
100
AcDbLine
  6
CONTINUOUS
370
30
 10
82.9652726088945
 20
229.558275665122
 11
82.9652726088945
 21
226.158275665122
  0
CIRCLE
  5
393
100
AcDbEntity
  8
0-0
100
AcDbCircle
  6
CONTINUOUS
370
30
 10
325.276239228668
 20
62.4843848397358
 40
4.6
  0
ARC
  5
394
100
AcDbEntity
  8
0-0
100
AcDbCircle
  6
BYLAYER
370
20
 10
325.276239228668
 20
62.4843848397358
 40
9
100
AcDbArc
 50
301.591754176586
 51
328.408245823414
  0
ARC
  5
395
100
AcDbEntity
  8
0-0
100
AcDbCircle
  6
BYLAYER
370
20
 10
325.276239228668
 20
62.4843848397358
 40
10
100
AcDbArc
 50
208.567456262433
 51
211.432543737566
  0
ARC
  5
396
100
AcDbEntity
  8
0-0
100
AcDbCircle
  6
BYLAYER
370
20
 10
325.276239228668
 20
62.4843848397358
 40
8.5
100
AcDbArc
 50
298.314586959778
 51
241.685413040223
  0
LINE
  5
397
100
AcDbEntity
  8
0-0
100
AcDbLine
  6
BYLAYER
370
20
 10
316.493691943206
 20
57.702453934899
 11
317.360018207544
 21
58.2026276368203
  0
LINE
  5
398
100
AcDbEntity
  8
0-0
100
AcDbLine
  6
BYLAYER
370
20
 10
316.743691943206
 20
57.2694412330069
 11
317.610018207544
 21
57.7696149349282
  0
LINE
  5
399
100
AcDbEntity
  8
0-0
100
AcDbLine
  6
BYLAYER
370
20
 10
315.279364717102
 20
62.7343848397358
 11
316.279712120945
 21
62.7343848397358
  0
LINE
  5
39A
100
AcDbEntity
  8
0-0
100
AcDbLine
  6
BYLAYER
370
20
 10
315.279364717102
 20
62.2343848397358
 11
316.279712120945
 21
62.2343848397358
  0
LINE
  5
39B
100
AcDbEntity
  8
0-0
100
AcDbLine
  6
BYLAYER
370
20
 10
316.743691943206
 20
67.699328446465
 11
317.610018207544
 21
67.1991547445436
  0
LINE
  5
39C
100
AcDbEntity
  8
0-0
100
AcDbLine
  6
BYLAYER
370
20
 10
316.493691943206
 20
67.2663157445729
 11
317.360018207544
 21
66.7661420426515
  0
LINE
  5
39D
100
AcDbEntity
  8
0-0
100
AcDbLine
  6
BYLAYER
370
20
 10
320.494308323831
 20
71.2669321251974
 11
320.994482025752
 21
70.4006058608597
  0
LINE
  5
39E
100
AcDbEntity
  8
0-0
100
AcDbLine
  6
BYLAYER
370
20
 10
320.061295621939
 20
71.0169321251974
 11
320.56146932386
 21
70.1506058608597
  0
LINE
  5
39F
100
AcDbEntity
  8
0-0
100
AcDbLine
  6
BYLAYER
370
20
 10
320.494308323831
 20
53.7018375542745
 11
321.244584212622
 21
55.0013535133555
  0
LINE
  5
3A0
100
AcDbEntity
  8
0-0
100
AcDbLine
  6
BYLAYER
370
20
 10
320.061295621939
 20
53.9518375542745
 11
320.56146932386
 21
54.8181638186122
  0
LINE
  5
3A1
100
AcDbEntity
  8
0-0
100
AcDbLine
  6
BYLAYER
370
20
 10
333.192460249792
 20
66.7661420426515
 11
334.058786514129
 21
67.2663157445729
  0
LINE
  5
3A2
100
AcDbEntity
  8
0-0
100
AcDbLine
  6
BYLAYER
370
20
 10
332.942460249792
 20
67.1991547445436
 11
333.808786514129
 21
67.6993284464649
  0
LINE
  5
3A3
100
AcDbEntity
  8
0-0
100
AcDbLine
  6
BYLAYER
370
20
 10
329.991009133476
 20
70.1506058608595
 11
330.491182835397
 21
71.0169321251974
  0
LINE
  5
3A4
100
AcDbEntity
  8
0-0
100
AcDbLine
  6
BYLAYER
370
20
 10
329.557996431584
 20
70.4006058608595
 11
330.058170133505
 21
71.2669321251974
  0
LINE
  5
3A5
100
AcDbEntity
  8
0-0
100
AcDbLine
  6
BYLAYER
370
20
 10
329.991009133476
 20
54.8181638186122
 11
330.491182835397
 21
53.9518375542745
  0
LINE
  5
3A6
100
AcDbEntity
  8
0-0
100
AcDbLine
  6
BYLAYER
370
20
 10
329.307894244713
 20
55.0013535133555
 11
330.058170133505
 21
53.7018375542745
  0
LINE
  5
3A7
100
AcDbEntity
  8
0-0
100
AcDbLine
  6
BYLAYER
370
20
 10
333.192460249792
 20
58.2026276368203
 11
334.058786514129
 21
57.702453934899
  0
LINE
  5
3A8
100
AcDbEntity
  8
0-0
100
AcDbLine
  6
BYLAYER
370
20
 10
332.942460249792
 20
57.7696149349282
 11
333.808786514129
 21
57.2694412330069
  0
LINE
  5
3A9
100
AcDbEntity
  8
0-0
100
AcDbLine
  6
BYLAYER
370
20
 10
334.272766336391
 20
62.7343848397358
 11
335.273113740234
 21
62.7343848397358
  0
LINE
  5
3AA
100
AcDbEntity
  8
0-0
100
AcDbLine
  6
BYLAYER
370
20
 10
334.272766336391
 20
62.2343848397358
 11
335.273113740234
 21
62.2343848397358
  0
LINE
  5
3AB
100
AcDbEntity
  8
0-0
100
AcDbLine
  6
BYLAYER
370
20
 10
325.026239228668
 20
72.481259351302
 11
325.026239228668
 21
71.4809119474591
  0
LINE
  5
3AC
100
AcDbEntity
  8
0-0
100
AcDbLine
  6
BYLAYER
370
20
 10
325.526239228668
 20
72.481259351302
 11
325.526239228668
 21
71.4809119474591
  0
ARC
  5
3AD
100
AcDbEntity
  8
0-0
100
AcDbCircle
  6
BYLAYER
370
20
 10
325.276239228668
 20
62.4843848397358
 40
10
100
AcDbArc
 50
178.567456262433
 51
181.432543737566
  0
ARC
  5
3AE
100
AcDbEntity
  8
0-0
100
AcDbCircle
  6
BYLAYER
370
20
 10
325.276239228668
 20
62.4843848397358
 40
10
100
AcDbArc
 50
148.567456262434
 51
151.432543737566
  0
ARC
  5
3AF
100
AcDbEntity
  8
0-0
100
AcDbCircle
  6
BYLAYER
370
20
 10
325.276239228668
 20
62.4843848397358
 40
10
100
AcDbArc
 50
118.567456262433
 51
121.432543737566
  0
ARC
  5
3B0
100
AcDbEntity
  8
0-0
100
AcDbCircle
  6
BYLAYER
370
20
 10
325.276239228668
 20
62.4843848397358
 40
10
100
AcDbArc
 50
88.5674562624335
 51
91.4325437375665
  0
ARC
  5
3B1
100
AcDbEntity
  8
0-0
100
AcDbCircle
  6
BYLAYER
370
20
 10
325.276239228668
 20
62.4843848397358
 40
10
100
AcDbArc
 50
58.5674562624332
 51
61.4325437375665
  0
ARC
  5
3B2
100
AcDbEntity
  8
0-0
100
AcDbCircle
  6
BYLAYER
370
20
 10
325.276239228668
 20
62.4843848397358
 40
10
100
AcDbArc
 50
28.5674562624334
 51
31.4325437375664
  0
ARC
  5
3B3
100
AcDbEntity
  8
0-0
100
AcDbCircle
  6
BYLAYER
370
20
 10
325.276239228668
 20
62.4843848397358
 40
10
100
AcDbArc
 50
358.567456262433
 51
1.43254373756651
  0
ARC
  5
3B4
100
AcDbEntity
  8
0-0
100
AcDbCircle
  6
BYLAYER
370
20
 10
325.276239228668
 20
62.4843848397358
 40
10
100
AcDbArc
 50
328.567456262434
 51
331.432543737567
  0
ARC
  5
3B5
100
AcDbEntity
  8
0-0
100
AcDbCircle
  6
BYLAYER
370
20
 10
325.276239228668
 20
62.4843848397358
 40
10
100
AcDbArc
 50
298.567456262433
 51
301.432543737567
  0
ARC
  5
3B6
100
AcDbEntity
  8
0-0
100
AcDbCircle
  6
BYLAYER
370
20
 10
325.276239228668
 20
62.4843848397358
 40
10
100
AcDbArc
 50
238.567456262433
 51
241.432543737566
  0
TEXT
  5
3B7
100
AcDbEntity
  8
0-0
100
AcDbText
  6
BYLAYER
 10
315.117999796108
 20
54.9241400102585
 40
2.5
 41
0.9
  1
1
  7
Font_0
100
AcDbText
  0
TEXT
  5
3B8
100
AcDbEntity
  8
0-0
100
AcDbText
  6
BYLAYER
 10
312.959503015894
 20
61.272867562664
 40
2.5
 41
0.9
  1
2
  7
Font_0
100
AcDbText
  0
TEXT
  5
3B9
100
AcDbEntity
  8
0-0
100
AcDbText
  6
BYLAYER
 10
314.39850086937
 20
67.621593084734
 40
2.5
 41
0.9
  1
3
  7
Font_0
100
AcDbText
  0
TEXT
  5
3BA
100
AcDbEntity
  8
0-0
100
AcDbText
  6
BYLAYER
 10
318.921072368079
 20
71.8129229082776
 40
2.5
 41
0.9
  1
4
  7
Font_0
100
AcDbText
  0
TEXT
  5
3BB
100
AcDbEntity
  8
0-0
100
AcDbText
  6
BYLAYER
 10
324.574280777153
 20
73.5386521368807
 40
2.5
 41
0.9
  1
5
  7
Font_0
100
AcDbText
  0
TEXT
  5
3BC
100
AcDbEntity
  8
0-0
100
AcDbText
  6
BYLAYER
 10
330.433067124509
 20
71.6687205143827
 40
2.5
 41
0.9
  1
6
  7
Font_0
100
AcDbText
  0
TEXT
  5
3BD
100
AcDbEntity
  8
0-0
100
AcDbText
  6
BYLAYER
 10
334.544491693122
 20
67.230455361808
 40
2.5
 41
0.9
  1
7
  7
Font_0
100
AcDbText
  0
TEXT
  5
3BE
100
AcDbEntity
  8
0-0
100
AcDbText
  6
BYLAYER
 10
336.600205468507
 20
61.4566559614595
 40
2.5
 41
0.9
  1
8
  7
Font_0
100
AcDbText
  0
TEXT
  5
3BF
100
AcDbEntity
  8
0-0
100
AcDbText
  6
BYLAYER
 10
335.161207615032
 20
55.6828565611111
 40
2.5
 41
0.9
  1
9
  7
Font_0
100
AcDbText
  0
TEXT
  5
3C0
100
AcDbEntity
  8
0-0
100
AcDbText
  6
BYLAYER
 10
330.535853111494
 20
50.8336596679924
 40
2.5
 41
0.9
  1
10
  7
Font_0
100
AcDbText
  0
TEXT
  5
3C1
100
AcDbEntity
  8
0-0
100
AcDbText
  6
BYLAYER
 10
319.183722816848
 20
50.9674307262548
 40
2.5
 41
0.9
  1
0
  7
Font_0
100
AcDbText
  0
ARC
  5
3C2
100
AcDbEntity
  8
0-0
100
AcDbCircle
  6
BYLAYER
370
20
 10
325.276239228668
 20
62.4843848397358
 40
7.5
100
AcDbArc
 50
266.077066929199
 51
213.9229330708
  0
CIRCLE
  5
3C3
100
AcDbEntity
  8
0-0
100
AcDbCircle
  6
BYLAYER
370
13
 10
325.276239228668
 20
62.4843848397358
 40
7
  0
CIRCLE
  5
3C4
100
AcDbEntity
  8
0-0
100
AcDbCircle
  6
CONTINUOUS
370
13
 10
325.276239228668
 20
62.4843848397358
 40
6
  0
LINE
  5
3C5
100
AcDbEntity
  8
0-0
100
AcDbLine
  6
BYLAYER
370
20
 10
321.101239228668
 20
55.2530727181358
 11
324.76312960931
 21
55.0019575251192
  0
LINE
  5
3C6
100
AcDbEntity
  8
0-0
100
AcDbLine
  6
BYLAYER
370
20
 10
321.101239228668
 20
55.2530727181358
 11
319.052821901918
 21
58.2988052171372
  0
ARC
  5
3C7
100
AcDbEntity
  8
0-0
100
AcDbCircle
  6
BYLAYER
370
20
 10
325.276239228668
 20
62.4843848397358
 40
9
100
AcDbArc
 50
211.591754176586
 51
238.408245823414
  0
ARC
  5
3C8
100
AcDbEntity
  8
0-0
100
AcDbCircle
  6
BYLAYER
370
20
 10
325.276239228668
 20
62.4843848397358
 40
9
100
AcDbArc
 50
181.591754176586
 51
208.408245823414
  0
ARC
  5
3C9
100
AcDbEntity
  8
0-0
100
AcDbCircle
  6
BYLAYER
370
20
 10
325.276239228668
 20
62.4843848397358
 40
9
100
AcDbArc
 50
151.591754176586
 51
178.408245823414
  0
ARC
  5
3CA
100
AcDbEntity
  8
0-0
100
AcDbCircle
  6
BYLAYER
370
20
 10
325.276239228668
 20
62.4843848397358
 40
9
100
AcDbArc
 50
121.591754176586
 51
148.408245823414
  0
ARC
  5
3CB
100
AcDbEntity
  8
0-0
100
AcDbCircle
  6
BYLAYER
370
20
 10
325.276239228668
 20
62.4843848397358
 40
9
100
AcDbArc
 50
91.5917541765859
 51
118.408245823414
  0
ARC
  5
3CC
100
AcDbEntity
  8
0-0
100
AcDbCircle
  6
BYLAYER
370
20
 10
325.276239228668
 20
62.4843848397358
 40
9
100
AcDbArc
 50
331.591754176586
 51
358.408245823414
  0
ARC
  5
3CD
100
AcDbEntity
  8
0-0
100
AcDbCircle
  6
BYLAYER
370
20
 10
325.276239228668
 20
62.4843848397358
 40
9
100
AcDbArc
 50
1.5917541765859
 51
28.4082458234141
  0
ARC
  5
3CE
100
AcDbEntity
  8
0-0
100
AcDbCircle
  6
BYLAYER
370
20
 10
325.276239228668
 20
62.4843848397358
 40
9
100
AcDbArc
 50
61.5917541765861
 51
88.4082458234141
  0
ARC
  5
3CF
100
AcDbEntity
  8
0-0
100
AcDbCircle
  6
BYLAYER
370
20
 10
325.276239228668
 20
62.4843848397358
 40
9
100
AcDbArc
 50
31.5917541765859
 51
58.4082458234139
  0
TEXT
  5
3D0
100
AcDbEntity
  8
0-0
100
AcDbText
  6
BYLAYER
 10
306.097980915472
 20
66.4719973516413
 40
2.5
 41
0.9
  1
CONT
  7
Font_0
100
AcDbText
  0
TEXT
  5
3D1
100
AcDbEntity
  8
0-0
100
AcDbText
  6
BYLAYER
 10
305.756010391792
 20
55.8552843743371
 40
2.5
 41
0.9
  1
TEST
  7
Font_0
100
AcDbText
  0
TEXT
  5
3D2
100
AcDbEntity
  8
0-0
100
AcDbText
  6
BYLAYER
 10
287.943318235458
 20
66.4719973516413
 40
2.5
 41
0.9
  1
CW
  7
Font_0
100
AcDbText
  0
TEXT
  5
3D3
100
AcDbEntity
  8
0-0
100
AcDbText
  6
BYLAYER
 10
288.246057538506
 20
55.8552843743371
 40
2.5
 41
0.9
  1
CCW
  7
Font_0
100
AcDbText
  0
MTEXT
  5
3D4
100
AcDbEntity
  8
0-0
100
AcDbMText
 10
273.70202609175
 20
65.6974598517648
 40
2
 41
  0.0
  1
{\fMS PGothic|b1;R.C. J}
 71
3
  7
Font_2
 11
1
 21
-2.793453120617E-14
  0
LINE
  5
3D5
100
AcDbEntity
  8
0-0
100
AcDbLine
  6
CONTINUOUS
370
13
 10
188.941911026465
 20
69.9843667100019
 11
172.536700442946
 21
69.9843667100019
  0
LINE
  5
3D6
100
AcDbEntity
  8
0-0
100
AcDbLine
  6
CONTINUOUS
370
13
 10
188.941911026465
 20
54.9850169733458
 11
174.71016434236
 21
54.9850169733458
  0
LINE
  5
3D7
100
AcDbEntity
  8
0-0
100
AcDbLine
  6
CONTINUOUS
370
13
 10
188.941911026465
 20
69.9843667100019
 11
188.941911026465
 21
54.9850169733458
  0
LINE
  5
3D8
100
AcDbEntity
  8
0-0
100
AcDbLine
  6
CONTINUOUS
370
13
 10
188.941911026465
 20
58.2988052171371
 11
173.093816134579
 21
58.2988052171371
  0
LINE
  5
3D9
100
AcDbEntity
  8
0-0
100
AcDbLine
  6
CONTINUOUS
370
50
 10
262.276239228668
 20
367.857391833894
 11
340.276239228668
 21
367.857391833894
  0
LINE
  5
3DA
100
AcDbEntity
  8
0-0
100
AcDbLine
  6
CONTINUOUS
370
13
 10
262.026239228668
 20
367.857391833894
 11
240.361038120407
 21
367.857391833894
  0
LINE
  5
3DB
100
AcDbEntity
  8
0-0
100
AcDbLine
  6
CONTINUOUS
370
13
 10
129.740273108894
 20
326.225436665122
 11
129.740273108894
 21
327.420589665122
  0
LINE
  5
3DC
100
AcDbEntity
  8
0-0
100
AcDbLine
  6
CONTINUOUS
370
13
 10
127.190273108895
 20
327.409260665122
 11
127.190273108895
 21
326.225436665122
  0
LINE
  5
3DD
100
AcDbEntity
  8
0-0
100
AcDbLine
  6
CONTINUOUS
370
13
 10
128.465273108895
 20
331.872958665122
 11
132.465273108894
 21
329.563557665122
  0
LINE
  5
3DE
100
AcDbEntity
  8
0-0
100
AcDbLine
  6
CONTINUOUS
370
13
 10
132.465273108894
 20
329.563557665122
 11
132.465273108895
 21
327.254156665122
  0
LINE
  5
3DF
100
AcDbEntity
  8
0-0
100
AcDbLine
  6
CONTINUOUS
370
13
 10
132.465273108895
 20
324.944755665122
 11
128.465273108895
 21
322.635353665122
  0
LINE
  5
3E0
100
AcDbEntity
  8
0-0
100
AcDbLine
  6
CONTINUOUS
370
13
 10
132.465273108895
 20
327.254156665122
 11
132.465273108895
 21
324.944755665122
  0
LINE
  5
3E1
100
AcDbEntity
  8
0-0
100
AcDbLine
  6
CONTINUOUS
370
13
 10
124.465273108895
 20
329.563557665122
 11
128.465273108895
 21
331.872958665122
  0
LINE
  5
3E2
100
AcDbEntity
  8
0-0
100
AcDbLine
  6
CONTINUOUS
370
13
 10
124.465273108894
 20
327.254156665122
 11
124.465273108895
 21
329.563557665122
  0
LINE
  5
3E3
100
AcDbEntity
  8
0-0
100
AcDbLine
  6
CONTINUOUS
370
13
 10
128.465273108895
 20
322.635353665122
 11
124.465273108895
 21
324.944755665122
  0
LINE
  5
3E4
100
AcDbEntity
  8
0-0
100
AcDbLine
  6
CONTINUOUS
370
13
 10
124.465273108895
 20
324.944755665122
 11
124.465273108894
 21
327.254156665122
  0
LINE
  5
3E5
100
AcDbEntity
  8
0-0
100
AcDbLine
  6
CONTINUOUS
370
13
 10
128.865273108894
 20
324.280942665122
 11
128.865273108895
 21
324.754156665122
  0
LINE
  5
3E6
100
AcDbEntity
  8
0-0
100
AcDbLine
  6
CONTINUOUS
370
13
 10
128.065273108894
 20
324.754156665122
 11
128.065273108894
 21
324.280942665122
  0
LINE
  5
3E7
100
AcDbEntity
  8
0-0
100
AcDbLine
  6
CONTINUOUS
370
13
 10
128.065273108894
 20
324.754156665122
 11
128.865273108895
 21
324.754156665122
  0
LINE
  5
3E8
100
AcDbEntity
  8
0-0
100
AcDbLine
  6
CONTINUOUS
370
13
 10
126.756268108894
 20
330.786679665122
 11
130.174277108894
 21
330.786679665122
  0
LINE
  5
3E9
100
AcDbEntity
  8
0-0
100
AcDbLine
  6
CONTINUOUS
370
13
 10
126.756268108894
 20
328.345939665122
 11
130.174277108895
 21
328.345939665122
  0
LINE
  5
3EA
100
AcDbEntity
  8
0-0
100
AcDbLine
  6
CONTINUOUS
370
13
 10
129.500018108895
 20
327.155521665122
 11
129.442977108895
 21
327.155521665122
  0
LINE
  5
3EB
100
AcDbEntity
  8
0-0
100
AcDbLine
  6
CONTINUOUS
370
13
 10
127.487568108894
 20
327.155521665122
 11
129.442977108895
 21
327.155521665122
  0
LINE
  5
3EC
100
AcDbEntity
  8
0-0
100
AcDbLine
  6
CONTINUOUS
370
13
 10
129.500018108895
 20
327.155521665122
 11
130.174277108895
 21
328.345939665122
  0
LINE
  5
3ED
100
AcDbEntity
  8
0-0
100
AcDbLine
  6
CONTINUOUS
370
13
 10
126.756268108894
 20
328.345939665122
 11
127.430528108895
 21
327.155521665122
  0
LINE
  5
3EE
100
AcDbEntity
  8
0-0
100
AcDbLine
  6
CONTINUOUS
370
13
 10
130.371053108895
 20
328.684266665122
 11
130.089065108895
 21
328.074990665122
  0
LINE
  5
3EF
100
AcDbEntity
  8
0-0
100
AcDbLine
  6
CONTINUOUS
370
13
 10
126.559492108895
 20
328.684266665122
 11
126.841507108894
 21
328.074932665122
  0
LINE
  5
3F0
100
AcDbEntity
  8
0-0
100
AcDbLine
  6
CONTINUOUS
370
13
 10
127.487568108894
 20
327.155521665122
 11
127.430528108895
 21
327.155521665122
  0
LINE
  5
3F1
100
AcDbEntity
  8
0-0
100
AcDbLine
  6
CONTINUOUS
370
13
 10
129.442977108895
 20
327.155521665122
 11
127.487568108894
 21
327.155521665122
  0
LINE
  5
3F2
100
AcDbEntity
  8
0-0
100
AcDbLine
  6
CONTINUOUS
370
13
 10
130.009222108895
 20
327.902477665122
 11
129.917296108894
 21
327.703858665122
  0
LINE
  5
3F3
100
AcDbEntity
  8
0-0
100
AcDbLine
  6
CONTINUOUS
370
13
 10
126.921323108894
 20
327.902477665122
 11
127.013249108894
 21
327.703858665122
  0
LINE
  5
3F4
100
AcDbEntity
  8
0-0
100
AcDbLine
  6
CONTINUOUS
370
13
 10
130.089065108895
 20
328.074990665122
 11
130.009222108895
 21
327.902477665122
  0
LINE
  5
3F5
100
AcDbEntity
  8
0-0
100
AcDbLine
  6
CONTINUOUS
370
13
 10
126.841507108894
 20
328.074932665122
 11
126.921323108894
 21
327.902477665122
  0
ARC
  5
3F6
100
AcDbEntity
  8
0-0
100
AcDbCircle
  6
CONTINUOUS
370
13
 10
128.465273108895
 20
327.880229665122
 40
1.217008
100
AcDbArc
 50
-143.452890000004
 51
-36.5471100000062
  0
ARC
  5
3F7
100
AcDbEntity
  8
0-0
100
AcDbCircle
  6
CONTINUOUS
370
13
 10
128.459061108894
 20
327.871246665122
 40
1.354468
100
AcDbArc
 50
-152.860160999998
 51
-89.7384530000017
  0
ARC
  5
3F8
100
AcDbEntity
  8
0-0
100
AcDbCircle
  6
CONTINUOUS
370
13
 10
128.465273108894
 20
327.666910665122
 40
1.561817
100
AcDbArc
 50
-144.721766999993
 51
-39.7952980000005
  0
ARC
  5
3F9
100
AcDbEntity
  8
0-0
100
AcDbCircle
  6
CONTINUOUS
370
13
 10
128.459061108894
 20
327.871246665122
 40
1.354468
100
AcDbArc
 50
-152.860160999998
 51
-89.7384530000017
  0
ARC
  5
3FA
100
AcDbEntity
  8
0-0
100
AcDbCircle
  6
CONTINUOUS
370
13
 10
128.471484108894
 20
327.871246665122
 40
1.354468
100
AcDbArc
 50
-90.2615470000031
 51
-27.1398389999992
  0
ARC
  5
3FB
100
AcDbEntity
  8
0-0
100
AcDbCircle
  6
CONTINUOUS
370
13
 10
128.465273108894
 20
327.666910665122
 40
1.561817
100
AcDbArc
 50
-39.7952980000005
 51
-35.2782329999969
  0
ARC
  5
3FC
100
AcDbEntity
  8
0-0
100
AcDbCircle
  6
CONTINUOUS
370
13
 10
128.457827108895
 20
327.286485665122
 40
1.661673
100
AcDbArc
 50
-139.713247999999
 51
-89.7432559999991
  0
ARC
  5
3FD
100
AcDbEntity
  8
0-0
100
AcDbCircle
  6
CONTINUOUS
370
13
 10
128.461941108894
 20
327.285521665122
 40
1.660696
100
AcDbArc
 50
-89.8850489999924
 51
-39.6679659999954
  0
ARC
  5
3FE
100
AcDbEntity
  8
0-0
100
AcDbCircle
  6
CONTINUOUS
370
13
 10
129.146372108895
 20
327.550334665122
 40
0.607908
100
AcDbArc
 50
-29.2403290000002
 51
-12.3234270000037
  0
ARC
  5
3FF
100
AcDbEntity
  8
0-0
100
AcDbCircle
  6
CONTINUOUS
370
13
 10
127.674687108895
 20
327.515605665122
 40
0.49595
100
AcDbArc
 50
-167.618153000008
 51
-148.081070000017
  0
ARC
  5
400
100
AcDbEntity
  8
0-0
100
AcDbCircle
  6
CONTINUOUS
370
13
 10
128.465273108895
 20
329.566309665122
 40
2.1
100
AcDbArc
 50
144.470040000003
 51
179.999999999999
  0
ARC
  5
401
100
AcDbEntity
  8
0-0
100
AcDbCircle
  6
CONTINUOUS
370
13
 10
128.465273108895
 20
327.254156665122
 40
2.1
100
AcDbArc
 50
147.352670000003
 51
33.4021960000071
  0
ARC
  5
402
100
AcDbEntity
  8
0-0
100
AcDbCircle
  6
CONTINUOUS
370
13
 10
128.465273108895
 20
327.254156665122
 40
2.6
100
AcDbArc
 50
-81.1501170000027
 51
39.799305000003
  0
ARC
  5
403
100
AcDbEntity
  8
0-0
100
AcDbCircle
  6
CONTINUOUS
370
13
 10
128.465273108895
 20
327.254156665122
 40
3
100
AcDbArc
 50
1.62844399690935E-12
 51
45.7432150000027
  0
ARC
  5
404
100
AcDbEntity
  8
0-0
100
AcDbCircle
  6
CONTINUOUS
370
13
 10
128.465273108895
 20
327.254156665122
 40
3
100
AcDbArc
 50
-82.3377440000024
 51
1.62844399690935E-12
  0
ARC
  5
405
100
AcDbEntity
  8
0-0
100
AcDbCircle
  6
CONTINUOUS
370
13
 10
128.465273108895
 20
327.254156665122
 40
3
100
AcDbArc
 50
134.256785000001
 51
179.999999999999
  0
ARC
  5
406
100
AcDbEntity
  8
0-0
100
AcDbCircle
  6
CONTINUOUS
370
13
 10
128.465273108895
 20
327.254156665122
 40
3
100
AcDbArc
 50
-97.6622560000031
 51
-82.3377440000024
  0
ARC
  5
407
100
AcDbEntity
  8
0-0
100
AcDbCircle
  6
CONTINUOUS
370
13
 10
128.465273108895
 20
327.254156665122
 40
2.6
100
AcDbArc
 50
140.200695000001
 51
-98.8498830000048
  0
ARC
  5
408
100
AcDbEntity
  8
0-0
100
AcDbCircle
  6
CONTINUOUS
370
13
 10
128.465273108895
 20
329.566309665122
 40
2.1
100
AcDbArc
 50
7.75449522337763E-13
 51
35.5299600000041
  0
ARC
  5
409
100
AcDbEntity
  8
0-0
100
AcDbCircle
  6
CONTINUOUS
370
13
 10
128.465273108895
 20
329.566309665122
 40
2.1
100
AcDbArc
 50
-35.5299600000008
 51
7.75449522337763E-13
  0
ARC
  5
40A
100
AcDbEntity
  8
0-0
100
AcDbCircle
  6
CONTINUOUS
370
13
 10
128.465273108895
 20
329.566309665122
 40
2.1
100
AcDbArc
 50
179.999999999999
 51
-144.47004000001
  0
ARC
  5
40B
100
AcDbEntity
  8
0-0
100
AcDbCircle
  6
CONTINUOUS
370
13
 10
128.465273108894
 20
328.375891665122
 40
1.6
100
AcDbArc
 50
-49.7055750000002
 51
-22.7165289999974
  0
ARC
  5
40C
100
AcDbEntity
  8
0-0
100
AcDbCircle
  6
CONTINUOUS
370
13
 10
128.465273108894
 20
328.375891665122
 40
1.6
100
AcDbArc
 50
-155.164113999999
 51
-130.294424999996
  0
ARC
  5
40D
100
AcDbEntity
  8
0-0
100
AcDbCircle
  6
CONTINUOUS
370
13
 10
128.465273108895
 20
327.254156665122
 40
2.7
100
AcDbArc
 50
-98.5196240000029
 51
-81.4803760000043
  0
ARC
  5
40E
100
AcDbEntity
  8
0-0
100
AcDbCircle
  6
CONTINUOUS
370
13
 10
128.465273108895
 20
327.254156665122
 40
3
100
AcDbArc
 50
179.999999999999
 51
-97.6622560000031
  0
CIRCLE
  5
40F
100
AcDbEntity
  8
0-0
100
AcDbCircle
  6
CONTINUOUS
370
13
 10
128.465273108895
 20
327.254156665122
 40
4
  0
TEXT
  5
410
100
AcDbEntity
  8
0-0
100
AcDbText
  6
BYLAYER
 10
135.826902154814
 20
331.241769177027
 40
2.5
 41
0.9
  1
R.C
  7
Font_0
100
AcDbText
  0
TEXT
  5
411
100
AcDbEntity
  8
0-0
100
AcDbText
  6
BYLAYER
 10
135.484931631134
 20
320.625056199723
 40
2.5
 41
0.9
  1
TIM
  7
Font_0
100
AcDbText
  0
TEXT
  5
412
100
AcDbEntity
  8
0-0
100
AcDbText
  6
BYLAYER
 10
135.484931631134
 20
326.004156665122
 40
2.5
 41
0.9
  1
OFF
  7
Font_0
100
AcDbText
  0
SOLID
  5
413
100
AcDbEntity
  8
0-0
 62
250
100
AcDbTrace
 10
40.802778433692
 20
145.878111016178
 30
0.0
 11
41.0137584336921
 21
145.720576016178
 31
0.0
 12
41.5065674336919
 22
146.600616016178
 32
0.0
 13
41.5065674336919
 23
146.600616016178
 33
0.0
  0
SOLID
  5
414
100
AcDbEntity
  8
0-0
 62
250
100
AcDbTrace
 10
41.120581433692
 20
153.532468016178
 30
0.0
 11
40.8925524336919
 21
153.400816016178
 31
0.0
 12
41.506567433692
 22
152.600616016178
 32
0.0
 13
41.506567433692
 23
152.600616016178
 33
0.0
  0
LINE
  5
415
100
AcDbEntity
  8
0-0
100
AcDbLine
  6
CONTINUOUS
370
13
 10
40.3659334336919
 20
147.440363016178
 11
39.820449433692
 21
147.319433016178
  0
LINE
  5
416
100
AcDbEntity
  8
0-0
100
AcDbLine
  6
CONTINUOUS
370
13
 10
40.3659334336919
 20
149.898634016178
 11
39.300994433692
 21
149.662543016178
  0
LINE
  5
417
100
AcDbEntity
  8
0-0
100
AcDbLine
  6
CONTINUOUS
370
13
 10
42.400527433692
 20
154.219419016178
 11
42.5472004336919
 21
154.219419016178
  0
LINE
  5
418
100
AcDbEntity
  8
0-0
100
AcDbLine
  6
CONTINUOUS
370
13
 10
42.0472004336921
 20
146.194801016178
 11
42.0472004336921
 21
149.600616016178
  0
LINE
  5
419
100
AcDbEntity
  8
0-0
100
AcDbLine
  6
CONTINUOUS
370
13
 10
42.047200433692
 20
146.078228016178
 11
42.0472004336921
 21
146.194801016178
  0
LINE
  5
41A
100
AcDbEntity
  8
0-0
100
AcDbLine
  6
CONTINUOUS
370
13
 10
42.0472004336921
 20
149.600616016178
 11
42.0472004336919
 21
153.064718016178
  0
LINE
  5
41B
100
AcDbEntity
  8
0-0
100
AcDbLine
  6
CONTINUOUS
370
13
 10
42.4005274336919
 20
151.910017016178
 11
42.547200433692
 21
151.910017016178
  0
LINE
  5
41C
100
AcDbEntity
  8
0-0
100
AcDbLine
  6
CONTINUOUS
370
13
 10
42.4005274336919
 20
147.291215016178
 11
42.5472004336919
 21
147.291215016178
  0
LINE
  5
41D
100
AcDbEntity
  8
0-0
100
AcDbLine
  6
CONTINUOUS
370
13
 10
42.547200433692
 20
144.981814016178
 11
42.400527433692
 21
144.981814016178
  0
LINE
  5
41E
100
AcDbEntity
  8
0-0
100
AcDbLine
  6
CONTINUOUS
370
13
 10
42.0472004336921
 20
147.000616016178
 11
40.365933433692
 21
147.000616016178
  0
LINE
  5
41F
100
AcDbEntity
  8
0-0
100
AcDbLine
  6
CONTINUOUS
370
13
 10
42.0472004336919
 20
146.600616016178
 11
40.7659334336919
 21
146.600616016178
  0
LINE
  5
420
100
AcDbEntity
  8
0-0
100
AcDbLine
  6
CONTINUOUS
370
13
 10
40.3659334336919
 20
152.200616016178
 11
42.0472004336919
 21
152.200616016178
  0
LINE
  5
421
100
AcDbEntity
  8
0-0
100
AcDbLine
  6
CONTINUOUS
370
13
 10
40.7659334336919
 20
149.600616016178
 11
40.7659334336919
 21
152.600616016178
  0
LINE
  5
422
100
AcDbEntity
  8
0-0
100
AcDbLine
  6
CONTINUOUS
370
13
 10
40.7659334336919
 20
152.600616016178
 11
40.3659334336919
 21
152.200616016178
  0
LINE
  5
423
100
AcDbEntity
  8
0-0
100
AcDbLine
  6
CONTINUOUS
370
13
 10
40.7659334336919
 20
152.600616016178
 11
42.047200433692
 21
152.600616016178
  0
LINE
  5
424
100
AcDbEntity
  8
0-0
100
AcDbLine
  6
CONTINUOUS
370
13
 10
40.3659334336919
 20
149.600616016178
 11
40.3659334336919
 21
152.200616016178
  0
LINE
  5
425
100
AcDbEntity
  8
0-0
100
AcDbLine
  6
CONTINUOUS
370
13
 10
40.7659334336919
 20
146.600616016178
 11
40.7659334336919
 21
149.600616016178
  0
LINE
  5
426
100
AcDbEntity
  8
0-0
100
AcDbLine
  6
CONTINUOUS
370
13
 10
40.365933433692
 20
147.000616016178
 11
40.7659334336919
 21
146.600616016178
  0
LINE
  5
427
100
AcDbEntity
  8
0-0
100
AcDbLine
  6
CONTINUOUS
370
13
 10
40.365933433692
 20
147.000616016178
 11
40.3659334336919
 21
149.600616016178
  0
LINE
  5
428
100
AcDbEntity
  8
0-0
100
AcDbLine
  6
CONTINUOUS
370
13
 10
34.4616434336921
 20
146.080200016178
 11
33.920544433692
 21
148.520940016178
  0
LINE
  5
429
100
AcDbEntity
  8
0-0
100
AcDbLine
  6
CONTINUOUS
370
13
 10
39.831271433692
 20
147.270618016178
 11
39.290172433692
 21
149.711358016178
  0
LINE
  5
42A
100
AcDbEntity
  8
0-0
100
AcDbLine
  6
CONTINUOUS
370
13
 10
34.4616434336921
 20
146.080200016178
 11
39.831271433692
 21
147.270618016178
  0
LINE
  5
42B
100
AcDbEntity
  8
0-0
100
AcDbLine
  6
CONTINUOUS
370
13
 10
33.920544433692
 20
148.520940016178
 11
39.290172433692
 21
149.711358016178
  0
ARC
  5
42C
100
AcDbEntity
  8
0-0
100
AcDbCircle
  6
CONTINUOUS
370
13
 10
44.1106914336919
 20
153.064718016178
 40
2.063491
100
AcDbArc
 50
505.972831
 51
540
  0
ARC
  5
42D
100
AcDbEntity
  8
0-0
100
AcDbCircle
  6
CONTINUOUS
370
13
 10
44.1106914336919
 20
153.064718016178
 40
2.063491
100
AcDbArc
 50
180
 51
214.027169
  0
ARC
  5
42E
100
AcDbEntity
  8
0-0
100
AcDbCircle
  6
CONTINUOUS
370
13
 10
44.1058834336921
 20
146.136515016178
 40
2.059508
100
AcDbArc
 50
538.378246999999
 51
541.621752999999
  0
ARC
  5
42F
100
AcDbEntity
  8
0-0
100
AcDbCircle
  6
CONTINUOUS
370
13
 10
44.1058834336921
 20
146.136515016178
 40
2.059508
100
AcDbArc
 50
181.621752999999
 51
214.102012999996
  0
ARC
  5
430
100
AcDbEntity
  8
0-0
100
AcDbCircle
  6
CONTINUOUS
370
13
 10
49.771174433692
 20
149.600616016178
 40
7.723973
100
AcDbArc
 50
540
 51
557.397029999999
  0
ARC
  5
431
100
AcDbEntity
  8
0-0
100
AcDbCircle
  6
CONTINUOUS
370
13
 10
49.771174433692
 20
149.600616016178
 40
7.723973
100
AcDbArc
 50
522.60297
 51
540
  0
ARC
  5
432
100
AcDbEntity
  8
0-0
100
AcDbCircle
  6
CONTINUOUS
370
13
 10
44.1058834336921
 20
146.136515016178
 40
2.059508
100
AcDbArc
 50
505.897987
 51
538.378246999999
  0
LINE
  5
433
100
AcDbEntity
  8
0-0
100
AcDbLine
  6
CONTINUOUS
 62
7
370
30
 10
275.668939728668
 20
76.9841102100459
 11
290.868402628668
 21
76.9841102100459
  0
LINE
  5
434
100
AcDbEntity
  8
0-0
100
AcDbLine
  6
CONTINUOUS
 62
7
370
30
 10
290.868646728668
 20
76.9843543100459
 11
290.868646728668
 21
92.9846595100459
  0
LINE
  5
435
100
AcDbEntity
  8
0-0
100
AcDbLine
  6
CONTINUOUS
 62
7
370
30
 10
290.868402628668
 20
92.9846595100459
 11
275.668939728668
 21
92.9846595100459
  0
LINE
  5
436
100
AcDbEntity
  8
0-0
100
AcDbLine
  6
CONTINUOUS
 62
7
370
30
 10
275.668939728668
 20
92.9846595100459
 11
275.668939728668
 21
76.9843543100459
  0
LINE
  5
437
100
AcDbEntity
  8
0-0
100
AcDbLine
  6
CONTINUOUS
 62
7
370
30
 10
283.268549088038
 20
92.9846595100459
 11
283.268549088038
 21
76.9843543100459
  0
LINE
  5
438
100
AcDbEntity
  8
0-0
100
AcDbLine
  6
CONTINUOUS
 62
7
370
30
 10
278.188470928668
 20
92.9846595100459
 11
278.188470928668
 21
76.9843543100459
  0
LINE
  5
439
100
AcDbEntity
  8
0-0
100
AcDbLine
  6
CONTINUOUS
 62
7
370
30
 10
282.218744428668
 20
87.4842322100459
 11
282.218744428668
 21
82.4842322100459
  0
LINE
  5
43A
100
AcDbEntity
  8
0-0
100
AcDbLine
  6
CONTINUOUS
 62
7
370
30
 10
279.228510028668
 20
87.4842322100459
 11
279.228510028668
 21
82.4842322100459
  0
LINE
  5
43B
100
AcDbEntity
  8
0-0
100
AcDbLine
  6
CONTINUOUS
 62
7
370
30
 10
279.228510028668
 20
82.4842322100459
 11
282.218500228668
 21
82.4842322100459
  0
LINE
  5
43C
100
AcDbEntity
  8
0-0
100
AcDbLine
  6
CONTINUOUS
 62
7
370
30
 10
279.228510028668
 20
87.4842322100459
 11
282.218500228668
 21
87.4842322100459
  0
LINE
  5
43D
100
AcDbEntity
  8
0-0
100
AcDbLine
  6
CONTINUOUS
 62
7
370
30
 10
288.348383028668
 20
92.9846595100459
 11
288.348383028668
 21
76.9843543100459
  0
LINE
  5
43E
100
AcDbEntity
  8
0-0
100
AcDbLine
  6
CONTINUOUS
 62
7
370
30
 10
284.318353728668
 20
87.4842322100459
 11
284.318353728668
 21
82.4842322100459
  0
LINE
  5
43F
100
AcDbEntity
  8
0-0
100
AcDbLine
  6
CONTINUOUS
 62
7
370
30
 10
287.308344028668
 20
87.4842322100459
 11
287.308344028668
 21
82.4842322100459
  0
LINE
  5
440
100
AcDbEntity
  8
0-0
100
AcDbLine
  6
CONTINUOUS
 62
7
370
30
 10
287.308344028668
 20
82.4842322100459
 11
284.318109628668
 21
82.4842322100459
  0
LINE
  5
441
100
AcDbEntity
  8
0-0
100
AcDbLine
  6
CONTINUOUS
 62
7
370
30
 10
287.308344028668
 20
87.4842322100459
 11
284.318109628668
 21
87.4842322100459
  0
CIRCLE
  5
442
100
AcDbEntity
  8
0-0
100
AcDbCircle
  6
CONTINUOUS
 62
7
370
30
 10
283.268793228668
 20
84.9843848397359
 40
0.5
  0
LINE
  5
443
100
AcDbEntity
  8
0-0
100
AcDbLine
  6
CONTINUOUS
 62
7
370
30
 10
173.036944442946
 20
76.9848427100459
 11
173.036944442946
 21
92.9846595100459
  0
LINE
  5
444
100
AcDbEntity
  8
0-0
100
AcDbLine
  6
CONTINUOUS
 62
7
370
30
 10
173.037188442946
 20
92.9846595100459
 11
172.536700442946
 21
92.9846595100459
  0
LINE
  5
445
100
AcDbEntity
  8
0-0
100
AcDbLine
  6
CONTINUOUS
 62
7
370
30
 10
172.536700442946
 20
76.9848427100459
 11
173.037188442946
 21
76.9848427100459
  0
LINE
  5
446
100
AcDbEntity
  8
0-0
100
AcDbLine
  6
CONTINUOUS
 62
7
370
30
 10
175.236651442946
 20
81.0846962100459
 11
175.236651442946
 21
78.8849891100459
  0
LINE
  5
447
100
AcDbEntity
  8
0-0
100
AcDbLine
  6
CONTINUOUS
 62
7
370
30
 10
175.236651442946
 20
88.8846229100459
 11
175.236651442946
 21
91.0846351100459
  0
LINE
  5
448
100
AcDbEntity
  8
0-0
100
AcDbLine
  6
CONTINUOUS
370
13
 10
284.558466058353
 20
81.0845741100459
 11
284.558466058353
 21
78.8845009100459
  0
LINE
  5
449
100
AcDbEntity
  8
0-0
100
AcDbLine
  6
CONTINUOUS
370
13
 10
287.058466058353
 20
81.0845741100459
 11
287.058466058353
 21
78.8845009100459
  0
LINE
  5
44A
100
AcDbEntity
  8
0-0
100
AcDbLine
  6
CONTINUOUS
370
13
 10
281.978510008353
 20
81.0845741100459
 11
281.978510008353
 21
78.8845009100459
  0
LINE
  5
44B
100
AcDbEntity
  8
0-0
100
AcDbLine
  6
CONTINUOUS
 62
7
370
30
 10
284.558466058353
 20
88.8845009100459
 11
287.058466058353
 21
88.8845009100459
  0
LINE
  5
44C
100
AcDbEntity
  8
0-0
100
AcDbLine
  6
CONTINUOUS
 62
7
370
30
 10
287.058466058353
 20
91.0846351100459
 11
284.558466058353
 21
91.0846351100459
  0
LINE
  5
44D
100
AcDbEntity
  8
0-0
100
AcDbLine
  6
CONTINUOUS
 62
7
370
30
 10
284.558466058353
 20
81.0845741100459
 11
287.058466058353
 21
81.0845741100459
  0
LINE
  5
44E
100
AcDbEntity
  8
0-0
100
AcDbLine
  6
CONTINUOUS
 62
7
370
30
 10
287.058466058353
 20
78.8845009100459
 11
284.558466058353
 21
78.8845009100459
  0
LINE
  5
44F
100
AcDbEntity
  8
0-0
100
AcDbLine
  6
CONTINUOUS
 62
7
370
30
 10
173.037188442946
 20
81.0845741100459
 11
175.236651442946
 21
81.0845741100459
  0
LINE
  5
450
100
AcDbEntity
  8
0-0
100
AcDbLine
  6
CONTINUOUS
 62
7
370
30
 10
279.478510008353
 20
81.0845741100459
 11
281.978510008353
 21
81.0845741100459
  0
LINE
  5
451
100
AcDbEntity
  8
0-0
100
AcDbLine
  6
CONTINUOUS
 62
7
370
30
 10
281.978510008353
 20
78.8845009100459
 11
279.478510008353
 21
78.8845009100459
  0
LINE
  5
452
100
AcDbEntity
  8
0-0
100
AcDbLine
  6
CONTINUOUS
 62
7
370
30
 10
175.224684100815
 20
78.8845009100459
 11
173.037188442946
 21
78.8845009100459
  0
LINE
  5
453
100
AcDbEntity
  8
0-0
100
AcDbLine
  6
CONTINUOUS
370
13
 10
279.478510008353
 20
81.0845741100459
 11
279.478510008353
 21
78.8845009100459
  0
LINE
  5
454
100
AcDbEntity
  8
0-0
100
AcDbLine
  6
CONTINUOUS
 62
7
370
30
 10
173.037188442946
 20
88.8845009100459
 11
175.256891153303
 21
88.8845009100459
  0
LINE
  5
455
100
AcDbEntity
  8
0-0
100
AcDbLine
  6
CONTINUOUS
 62
7
370
30
 10
279.478510008353
 20
88.8845009100459
 11
281.978510008353
 21
88.8845009100459
  0
LINE
  5
456
100
AcDbEntity
  8
0-0
100
AcDbLine
  6
CONTINUOUS
 62
7
370
30
 10
281.978510008353
 20
91.0846351100459
 11
279.478510008353
 21
91.0846351100459
  0
LINE
  5
457
100
AcDbEntity
  8
0-0
100
AcDbLine
  6
CONTINUOUS
 62
7
370
30
 10
175.236651442946
 20
91.0846351100459
 11
173.037188442946
 21
91.0846351100459
  0
TEXT
  5
458
100
AcDbEntity
  8
0-0
100
AcDbText
  6
CONTINUOUS
 10
280.033539081745
 20
83.3387368546113
 40
3
  1
9
  7
Font_0
 11
280.033539081745
 21
86.3387368546113
100
AcDbText
 73
3
  0
TEXT
  5
459
100
AcDbEntity
  8
0-0
100
AcDbText
  6
CONTINUOUS
 10
285.105692235014
 20
83.3090751402647
 40
3
  1
9
  7
Font_0
 11
285.105692235014
 21
86.3090751402647
100
AcDbText
 73
3
  0
TEXT
  5
45A
100
AcDbEntity
  8
0-0
100
AcDbText
  6
CONTINUOUS
 10
120.290245960036
 20
251.138803079768
 40
4
  1
DC12V IN
  7
Font_0
 11
120.290245960036
 21
255.138803079768
100
AcDbText
 73
3
  0
TEXT
  5
45B
100
AcDbEntity
  8
0-0
100
AcDbText
  6
CONTINUOUS
 10
123.703163259387
 20
336.472324748257
 40
4
  1
POWER
  7
Font_0
 11
123.703163259387
 21
340.472324748257
100
AcDbText
 73
3
  0
TEXT
  5
45C
100
AcDbEntity
  8
0-0
100
AcDbText
  6
BYLAYER
 10
280.585392755193
 20
71.4716865587803
 40
2.5
 41
0.9
  1
ROTOR
  7
Font_0
100
AcDbText
  0
TEXT
  5
45D
100
AcDbEntity
  8
0-0
100
AcDbText
  6
BYLAYER
 10
298.382885525911
 20
71.4716865587803
 40
2.5
 41
0.9
  1
DRIVE
  7
Font_0
100
AcDbText
  0
LINE
  5
45E
100
AcDbEntity
  8
0-0
100
AcDbLine
  6
CONTINUOUS
370
50
 10
201.536218817452
 20
137.984384839736
 11
202.186459630199
 21
137.984384839736
  0
LINE
  5
45F
100
AcDbEntity
  8
0-0
100
AcDbLine
  6
CONTINUOUS
370
50
 10
201.536218817452
 20
131.984384839736
 11
202.186459630199
 21
131.984384839736
  0
LINE
  5
460
100
AcDbEntity
  8
0-0
100
AcDbLine
  6
CONTINUOUS
370
50
 10
201.536218817452
 20
148.984384839736
 11
201.536218817452
 21
120.984384839736
  0
LINE
  5
461
100
AcDbEntity
  8
0-0
100
AcDbLine
  6
CONTINUOUS
370
50
 10
200.136218817452
 20
150.384384839736
 11
201.536218817452
 21
148.984384839736
  0
LINE
  5
462
100
AcDbEntity
  8
0-0
100
AcDbLine
  6
CONTINUOUS
370
50
 10
200.136218817452
 20
119.584384839736
 11
201.536218817452
 21
120.984384839736
  0
LINE
  5
463
100
AcDbEntity
  8
0-0
100
AcDbLine
  6
CONTINUOUS
370
50
 10
181.536700442946
 20
111.984384839736
 11
181.536700442946
 21
118.984384839736
  0
LINE
  5
464
100
AcDbEntity
  8
0-0
100
AcDbLine
  6
CONTINUOUS
370
50
 10
208.186218817452
 20
119.484384839736
 11
208.186218817452
 21
150.484384839736
  0
LINE
  5
465
100
AcDbEntity
  8
0-0
100
AcDbLine
  6
CONTINUOUS
370
50
 10
204.536700442946
 20
117.984384839736
 11
206.686218817452
 21
117.984384839736
  0
LINE
  5
466
100
AcDbEntity
  8
0-0
100
AcDbLine
  6
CONTINUOUS
370
50
 10
202.186218817452
 20
119.484384839736
 11
202.186218817452
 21
150.484384839736
  0
CIRCLE
  5
467
100
AcDbEntity
  8
0-0
100
AcDbCircle
  6
CONTINUOUS
370
13
 10
205.186218817452
 20
134.983034422074
 40
1.65
  0
LINE
  5
468
100
AcDbEntity
  8
0-0
100
AcDbLine
  6
CONTINUOUS
370
50
 10
181.536700442946
 20
166.984384839736
 11
181.536700442946
 21
111.984384839736
  0
LINE
  5
469
100
AcDbEntity
  8
0-0
100
AcDbLine
  6
CONTINUOUS
370
50
 10
181.536700442946
 20
102.984384839736
 11
181.536700442946
 21
111.984384839736
  0
LINE
  5
46A
100
AcDbEntity
  8
0-0
100
AcDbLine
  6
CONTINUOUS
370
50
 10
181.036700442946
 20
102.484384839736
 11
172.536700442946
 21
102.484384839736
  0
LINE
  5
46B
100
AcDbEntity
  8
0-0
100
AcDbLine
  6
CONTINUOUS
370
50
 10
181.036700442946
 20
167.484384839736
 11
172.536700442946
 21
167.484384839736
  0
LINE
  5
46C
100
AcDbEntity
  8
0-0
100
AcDbLine
  6
CONTINUOUS
370
50
 10
181.036700442946
 20
167.484384839736
 11
181.536700442946
 21
166.984384839736
  0
LINE
  5
46D
100
AcDbEntity
  8
0-0
100
AcDbLine
  6
CONTINUOUS
370
50
 10
181.036700442946
 20
102.484384839736
 11
181.536700442946
 21
102.984384839736
  0
LINE
  5
46E
100
AcDbEntity
  8
0-0
100
AcDbLine
  6
CONTINUOUS
370
50
 10
182.536700442946
 20
107.987954676012
 11
181.536700442946
 21
107.987954676012
  0
LINE
  5
46F
100
AcDbEntity
  8
0-0
100
AcDbLine
  6
CONTINUOUS
370
50
 10
181.536700442946
 20
104.984384839736
 11
182.536700442946
 21
104.984384839736
  0
LINE
  5
470
100
AcDbEntity
  8
0-0
100
AcDbLine
  6
CONTINUOUS
370
50
 10
181.536700442946
 20
120.934384839736
 11
181.536700442946
 21
149.034384839736
  0
LINE
  5
471
100
AcDbEntity
  8
0-0
100
AcDbLine
  6
CONTINUOUS
370
50
 10
181.536700442946
 20
150.984384839736
 11
181.536700442946
 21
157.984384839736
  0
LINE
  5
472
100
AcDbEntity
  8
0-0
100
AcDbLine
  6
CONTINUOUS
370
50
 10
207.036700442946
 20
151.633903214242
 11
208.186218817452
 21
150.484384839736
  0
LINE
  5
473
100
AcDbEntity
  8
0-0
100
AcDbLine
  6
CONTINUOUS
370
50
 10
203.186218817452
 20
151.484384839736
 11
202.186218817452
 21
150.484384839736
  0
LINE
  5
474
100
AcDbEntity
  8
0-0
100
AcDbLine
  6
CONTINUOUS
370
50
 10
206.686218817452
 20
117.984384839736
 11
208.186218817452
 21
119.484384839736
  0
LINE
  5
475
100
AcDbEntity
  8
0-0
100
AcDbLine
  6
CONTINUOUS
370
50
 10
203.186218817451
 20
118.484384839737
 11
202.186218817452
 21
119.484384839736
  0
LINE
  5
476
100
AcDbEntity
  8
0-0
100
AcDbLine
  6
CONTINUOUS
370
50
 10
204.536700442946
 20
117.984384839736
 11
206.686218817452
 21
117.984384839736
  0
CIRCLE
  5
477
100
AcDbEntity
  8
0-0
100
AcDbCircle
  6
CONTINUOUS
370
13
 10
205.186218817452
 20
134.983034422074
 40
1.65
  0
LINE
  5
478
100
AcDbEntity
  8
0-0
100
AcDbLine
  6
CONTINUOUS
370
13
 10
205.942272759965
 20
117.984384839736
 11
203.686218817452
 21
120.240438782249
  0
LINE
  5
479
100
AcDbEntity
  8
0-0
100
AcDbLine
  6
CONTINUOUS
370
13
 10
206.686218817452
 20
119.361759125809
 11
203.686218817452
 21
122.361759125809
  0
LINE
  5
47A
100
AcDbEntity
  8
0-0
100
AcDbLine
  6
CONTINUOUS
370
13
 10
206.686218817452
 20
121.483079469368
 11
203.686218817452
 21
124.483079469368
  0
LINE
  5
47B
100
AcDbEntity
  8
0-0
100
AcDbLine
  6
CONTINUOUS
370
13
 10
206.686218817452
 20
123.604399812928
 11
203.686218817452
 21
126.604399812928
  0
LINE
  5
47C
100
AcDbEntity
  8
0-0
100
AcDbLine
  6
CONTINUOUS
370
13
 10
206.686218817452
 20
125.725720156488
 11
203.686218817452
 21
128.725720156488
  0
LINE
  5
47D
100
AcDbEntity
  8
0-0
100
AcDbLine
  6
CONTINUOUS
370
13
 10
206.686218817452
 20
127.847040500047
 11
203.686218817452
 21
130.847040500047
  0
LINE
  5
47E
100
AcDbEntity
  8
0-0
100
AcDbLine
  6
CONTINUOUS
370
13
 10
206.686218817452
 20
129.968360843607
 11
203.686218817452
 21
132.968360843607
  0
LINE
  5
47F
100
AcDbEntity
  8
0-0
100
AcDbLine
  6
CONTINUOUS
370
13
 10
206.686218817452
 20
132.089681187166
 11
205.425433054047
 21
133.350466950571
  0
LINE
  5
480
100
AcDbEntity
  8
0-0
100
AcDbLine
  6
CONTINUOUS
370
13
 10
206.686218817452
 20
136.332321874286
 11
203.686218817452
 21
139.332321874286
  0
LINE
  5
481
100
AcDbEntity
  8
0-0
100
AcDbLine
  6
CONTINUOUS
370
13
 10
206.686218817452
 20
138.453642217845
 11
203.686218817452
 21
141.453642217845
  0
LINE
  5
482
100
AcDbEntity
  8
0-0
100
AcDbLine
  6
CONTINUOUS
370
13
 10
206.686218817452
 20
140.574962561405
 11
203.686218817452
 21
143.574962561405
  0
LINE
  5
483
100
AcDbEntity
  8
0-0
100
AcDbLine
  6
CONTINUOUS
370
13
 10
206.686218817452
 20
142.696282904965
 11
203.686218817452
 21
145.696282904965
  0
LINE
  5
484
100
AcDbEntity
  8
0-0
100
AcDbLine
  6
CONTINUOUS
370
13
 10
206.686218817452
 20
144.817603248524
 11
203.686218817452
 21
147.817603248524
  0
LINE
  5
485
100
AcDbEntity
  8
0-0
100
AcDbLine
  6
CONTINUOUS
370
13
 10
206.686218817452
 20
146.938923592084
 11
203.686218817452
 21
149.938923592084
  0
LINE
  5
486
100
AcDbEntity
  8
0-0
100
AcDbLine
  6
CONTINUOUS
370
13
 10
206.686218817452
 20
149.060243935644
 11
204.262077913359
 21
151.484384839736
  0
LINE
  5
487
100
AcDbEntity
  8
0-0
100
AcDbLine
  6
CONTINUOUS
370
13
 10
206.686218817452
 20
151.181564279203
 11
206.383398256919
 21
151.484384839736
  0
LINE
  5
488
100
AcDbEntity
  8
0-0
100
AcDbLine
  6
CONTINUOUS
370
13
 10
203.686218817452
 20
149.508486499034
 11
205.662117158155
 21
151.484384839736
  0
LINE
  5
489
100
AcDbEntity
  8
0-0
100
AcDbLine
  6
CONTINUOUS
370
13
 10
203.686218817452
 20
147.387166155474
 11
206.686218817452
 21
150.387166155474
  0
LINE
  5
48A
100
AcDbEntity
  8
0-0
100
AcDbLine
  6
CONTINUOUS
370
13
 10
203.686218817452
 20
145.265845811914
 11
206.686218817452
 21
148.265845811914
  0
LINE
  5
48B
100
AcDbEntity
  8
0-0
100
AcDbLine
  6
CONTINUOUS
370
13
 10
203.686218817452
 20
143.144525468355
 11
206.686218817452
 21
146.144525468355
  0
LINE
  5
48C
100
AcDbEntity
  8
0-0
100
AcDbLine
  6
CONTINUOUS
370
13
 10
203.686218817452
 20
141.023205124795
 11
206.686218817452
 21
144.023205124795
  0
LINE
  5
48D
100
AcDbEntity
  8
0-0
100
AcDbLine
  6
CONTINUOUS
370
13
 10
203.686218817452
 20
138.901884781235
 11
206.686218817452
 21
141.901884781235
  0
LINE
  5
48E
100
AcDbEntity
  8
0-0
100
AcDbLine
  6
CONTINUOUS
370
13
 10
203.686218817452
 20
136.780564437676
 11
206.686218817452
 21
139.780564437676
  0
LINE
  5
48F
100
AcDbEntity
  8
0-0
100
AcDbLine
  6
CONTINUOUS
370
13
 10
205.60577597925
 20
136.578801255914
 11
206.686218817452
 21
137.659244094116
  0
LINE
  5
490
100
AcDbEntity
  8
0-0
100
AcDbLine
  6
CONTINUOUS
370
13
 10
203.686218817452
 20
132.537923750556
 11
204.592030765771
 21
133.443735698876
  0
LINE
  5
491
100
AcDbEntity
  8
0-0
100
AcDbLine
  6
CONTINUOUS
370
13
 10
203.686218817452
 20
130.416603406997
 11
206.686218817452
 21
133.416603406997
  0
LINE
  5
492
100
AcDbEntity
  8
0-0
100
AcDbLine
  6
CONTINUOUS
370
13
 10
203.686218817452
 20
128.295283063437
 11
206.686218817452
 21
131.295283063437
  0
LINE
  5
493
100
AcDbEntity
  8
0-0
100
AcDbLine
  6
CONTINUOUS
370
13
 10
203.686218817452
 20
126.173962719878
 11
206.686218817452
 21
129.173962719878
  0
LINE
  5
494
100
AcDbEntity
  8
0-0
100
AcDbLine
  6
CONTINUOUS
370
13
 10
203.686218817452
 20
124.052642376318
 11
206.686218817452
 21
127.052642376318
  0
LINE
  5
495
100
AcDbEntity
  8
0-0
100
AcDbLine
  6
CONTINUOUS
370
13
 10
203.686218817452
 20
121.931322032758
 11
206.686218817452
 21
124.931322032758
  0
LINE
  5
496
100
AcDbEntity
  8
0-0
100
AcDbLine
  6
CONTINUOUS
370
13
 10
203.686218817452
 20
119.810001689199
 11
206.686218817452
 21
122.810001689199
  0
LINE
  5
497
100
AcDbEntity
  8
0-0
100
AcDbLine
  6
CONTINUOUS
370
13
 10
204.481922311549
 20
118.484384839737
 11
206.686218817452
 21
120.688681345639
  0
LINE
  5
498
100
AcDbEntity
  8
0-0
100
AcDbLine
  6
CONTINUOUS
370
13
 10
206.103242655108
 20
117.984384839736
 11
206.686218817452
 21
118.567361002079
  0
LINE
  5
499
100
AcDbEntity
  8
0-0
100
AcDbLine
  6
CONTINUOUS
370
13
 10
206.686218817452
 20
134.211001530726
 11
206.658699540101
 21
134.238520808077
  0
LINE
  5
49A
100
AcDbEntity
  8
0-0
100
AcDbLine
  6
CONTINUOUS
370
13
 10
204.441705203455
 20
136.455515144723
 11
203.686218817452
 21
137.211001530726
  0
LINE
  5
49B
100
AcDbEntity
  8
0-0
100
AcDbLine
  6
CONTINUOUS
370
20
 10
206.686218817452
 20
151.487356509039
 11
206.686218817452
 21
135.670420776318
  0
LINE
  5
49C
100
AcDbEntity
  8
0-0
100
AcDbLine
  6
CONTINUOUS
370
20
 10
206.686218817452
 20
134.211001530726
 11
206.686218817452
 21
117.984384839736
  0
LINE
  5
49D
100
AcDbEntity
  8
0-0
100
AcDbLine
  6
CONTINUOUS
370
20
 10
203.686218817452
 20
151.483856311848
 11
203.686218817452
 21
135.670420776318
  0
LINE
  5
49E
100
AcDbEntity
  8
0-0
100
AcDbLine
  6
CONTINUOUS
370
20
 10
203.686218817452
 20
134.295648067831
 11
203.686218817452
 21
118.486981627566
  0
LINE
  5
49F
100
AcDbEntity
  8
0-0
100
AcDbLine
  6
CONTINUOUS
370
20
 10
203.686218817452
 20
151.483856311848
 11
203.686218817452
 21
135.670420776318
  0
LINE
  5
4A0
100
AcDbEntity
  8
0-0
100
AcDbLine
  6
CONTINUOUS
370
20
 10
203.686218817452
 20
134.295648067831
 11
203.686218817452
 21
118.484384839737
  0
LINE
  5
4A1
100
AcDbEntity
  8
0-0
100
AcDbLine
  6
CONTINUOUS
370
20
 10
206.686218817452
 20
151.487356509039
 11
206.686218817452
 21
135.670420776317
  0
LINE
  5
4A2
100
AcDbEntity
  8
0-0
100
AcDbLine
  6
CONTINUOUS
370
20
 10
206.686218817452
 20
134.295648067831
 11
206.686218817452
 21
117.984384839736
  0
LINE
  5
4A3
100
AcDbEntity
  8
0-0
100
AcDbLine
  6
CONTINUOUS
370
50
 10
287.277589646329
 20
208.007873459387
 11
305.27758964633
 21
208.007873459387
  0
LINE
  5
4A4
100
AcDbEntity
  8
0-0
100
AcDbLine
  6
CONTINUOUS
370
50
 10
315.277589646329
 20
208.007873459387
 11
305.27758964633
 21
208.007873459387
  0
LINE
  5
4A5
100
AcDbEntity
  8
0-0
100
AcDbLine
  6
CONTINUOUS
370
50
 10
317.277589646329
 20
213.007391833893
 11
317.277589646329
 21
210.007873459387
  0
LINE
  5
4A6
100
AcDbEntity
  8
0-0
100
AcDbLine
  6
CONTINUOUS
370
50
 10
285.277589646329
 20
210.007873459387
 11
287.277589646329
 21
208.007873459387
  0
LINE
  5
4A7
100
AcDbEntity
  8
0-0
100
AcDbLine
  6
CONTINUOUS
370
50
 10
317.277589646329
 20
210.007873459387
 11
315.277589646329
 21
208.007873459387
  0
LINE
  5
4A8
100
AcDbEntity
  8
0-0
100
AcDbLine
  6
CONTINUOUS
370
50
 10
317.277589646329
 20
228.007391833893
 11
278.277589646329
 21
228.007391833893
  0
LINE
  5
4A9
100
AcDbEntity
  8
0-0
100
AcDbLine
  6
CONTINUOUS
370
50
 10
324.277589646329
 20
228.007391833893
 11
317.277589646329
 21
228.007391833893
  0
LINE
  5
4AA
100
AcDbEntity
  8
0-0
100
AcDbLine
  6
CONTINUOUS
370
50
 10
307.674019810053
 20
218.007391833893
 11
301.277589646329
 21
218.007391833893
  0
LINE
  5
4AB
100
AcDbEntity
  8
0-0
100
AcDbLine
  6
CONTINUOUS
370
50
 10
301.277589646329
 20
218.007391833893
 11
301.277589646329
 21
228.007391833893
  0
LINE
  5
4AC
100
AcDbEntity
  8
0-0
100
AcDbLine
  6
CONTINUOUS
370
50
 10
309.277589646329
 20
228.007391833893
 11
329.277589646329
 21
228.007391833893
  0
LINE
  5
4AD
100
AcDbEntity
  8
0-0
100
AcDbLine
  6
CONTINUOUS
370
50
 10
309.277589646329
 20
213.007391833893
 11
329.277589646329
 21
213.007391833893
  0
LINE
  5
4AE
100
AcDbEntity
  8
0-0
100
AcDbLine
  6
CONTINUOUS
370
50
 10
317.674019810053
 20
217.207391833894
 11
317.674019810053
 21
228.007391833894
  0
LINE
  5
4AF
100
AcDbEntity
  8
0-0
100
AcDbLine
  6
CONTINUOUS
370
50
 10
307.674019810053
 20
217.207391833894
 11
307.674019810053
 21
228.007391833894
  0
LINE
  5
4B0
100
AcDbEntity
  8
0-0
100
AcDbLine
  6
CONTINUOUS
370
50
 10
317.674019810053
 20
228.007391833894
 11
307.673503034292
 21
228.007391833894
  0
LINE
  5
4B1
100
AcDbEntity
  8
0-0
100
AcDbLine
  6
CONTINUOUS
370
50
 10
321.777589646329
 20
216.507391833893
 11
321.777589646329
 21
228.007391833893
  0
LINE
  5
4B2
100
AcDbEntity
  8
0-0
100
AcDbLine
  6
CONTINUOUS
370
50
 10
309.277589646329
 20
217.207391833894
 11
309.277589646329
 21
213.007391833893
  0
LINE
  5
4B3
100
AcDbEntity
  8
0-0
100
AcDbLine
  6
CONTINUOUS
370
50
 10
317.777589646329
 20
216.007391833893
 11
317.777589646329
 21
228.007391833893
  0
LINE
  5
4B4
100
AcDbEntity
  8
0-0
100
AcDbLine
  6
CONTINUOUS
370
50
 10
317.777589646329
 20
224.007391833893
 11
321.777589646329
 21
224.007391833893
  0
LINE
  5
4B5
100
AcDbEntity
  8
0-0
100
AcDbLine
  6
CONTINUOUS
370
50
 10
317.777589646329
 20
220.007391833893
 11
321.777589646329
 21
220.007391833893
  0
LINE
  5
4B6
100
AcDbEntity
  8
0-0
100
AcDbLine
  6
CONTINUOUS
370
50
 10
323.628442607415
 20
216.507391833893
 11
321.777589646329
 21
216.507391833893
  0
LINE
  5
4B7
100
AcDbEntity
  8
0-0
100
AcDbLine
  6
CONTINUOUS
370
50
 10
327.628442607415
 20
226.507391833894
 11
327.628442607415
 21
228.007391833893
  0
LINE
  5
4B8
100
AcDbEntity
  8
0-0
100
AcDbLine
  6
CONTINUOUS
370
50
 10
309.277589646329
 20
216.007391833893
 11
317.777589646329
 21
216.007391833893
  0
LINE
  5
4B9
100
AcDbEntity
  8
0-0
100
AcDbLine
  6
CONTINUOUS
370
20
 10
312.277589646329
 20
213.007391833893
 11
312.277589646329
 21
216.007391833893
  0
ARC
  5
4BA
100
AcDbEntity
  8
0-0
100
AcDbCircle
  6
CONTINUOUS
370
50
 10
323.628442607415
 20
220.507391833893
 40
4
100
AcDbArc
 50
-90
 51
-48.5903778907175
  0
LINE
  5
4BB
100
AcDbEntity
  8
0-0
100
AcDbLine
  6
CONTINUOUS
370
13
 10
309.673535835996
 20
217.002605763659
 11
315.673972252648
 21
217.002605763659
  0
LINE
  5
4BC
100
AcDbEntity
  8
0-0
100
AcDbLine
  6
CONTINUOUS
370
13
 10
309.673550591698
 20
217.002605763659
 11
315.673972252648
 21
217.002605763659
  0
LINE
  5
4BD
100
AcDbEntity
  8
0-0
100
AcDbLine
  6
CONTINUOUS
370
13
 10
315.323535835996
 20
216.302605763659
 11
310.023535835996
 21
216.302605763659
  0
LINE
  5
4BE
100
AcDbEntity
  8
0-0
100
AcDbLine
  6
CONTINUOUS
370
13
 10
309.673535835996
 20
216.652605763659
 11
309.673535835996
 21
217.002605763659
  0
LINE
  5
4BF
100
AcDbEntity
  8
0-0
100
AcDbLine
  6
CONTINUOUS
370
13
 10
315.673535835996
 20
216.652605763659
 11
315.673535835996
 21
217.002605763659
  0
ARC
  5
4C0
100
AcDbEntity
  8
0-0
100
AcDbCircle
  6
CONTINUOUS
370
13
 10
310.023535835996
 20
216.652605763659
 40
0.35
100
AcDbArc
 50
180
 51
-90
  0
ARC
  5
4C1
100
AcDbEntity
  8
0-0
100
AcDbCircle
  6
CONTINUOUS
370
13
 10
315.323535835996
 20
216.652605763659
 40
0.35
100
AcDbArc
 50
-90
 51
0
  0
LINE
  5
4C2
100
AcDbEntity
  8
0-0
100
AcDbLine
  6
CONTINUOUS
370
50
 10
317.674019810053
 20
217.207391833894
 11
307.673503034292
 21
217.207391833894
  0
LINE
  5
4C3
100
AcDbEntity
  8
0-0
100
AcDbLine
  6
CONTINUOUS
370
50
 10
298.27758964633
 20
208.007873459387
 11
298.277589646329
 21
207.357873459388
  0
LINE
  5
4C4
100
AcDbEntity
  8
0-0
100
AcDbLine
  6
CONTINUOUS
370
50
 10
304.27758964633
 20
208.007873459387
 11
304.27758964633
 21
207.357873459388
  0
ARC
  5
4C5
100
AcDbEntity
  8
0-0
100
AcDbCircle
  6
CONTINUOUS
370
50
 10
312.676239228668
 20
158.984384839736
 40
5
100
AcDbArc
 50
109.8363073669
 51
-132.843643043597
  0
LINE
  5
4C6
100
AcDbEntity
  8
0-0
100
AcDbLine
  6
CONTINUOUS
370
13
 10
332.909035761144
 20
228.007391833894
 11
332.935218358537
 21
226.507391833894
  0
CIRCLE
  5
4C7
100
AcDbEntity
  8
0-0
100
AcDbCircle
  6
CONTINUOUS
370
50
 10
301.276239228668
 20
134.984384839736
 40
16
  0
CIRCLE
  5
4C8
100
AcDbEntity
  8
0-0
100
AcDbCircle
  6
CONTINUOUS
370
50
 10
315.276239228668
 20
110.984384839736
 40
4
  0
LINE
  5
4C9
100
AcDbEntity
  8
0-0
100
AcDbLine
  6
CONTINUOUS
370
50
 10
310.477589646329
 20
217.007391833894
 11
314.877589646329
 21
217.007391833894
  0
LINE
  5
4CA
100
AcDbEntity
  8
0-0
100
AcDbLine
  6
CONTINUOUS
370
50
 10
314.877589646329
 20
217.007391833894
 11
315.077589646329
 21
217.207391833894
  0
LINE
  5
4CB
100
AcDbEntity
  8
0-0
100
AcDbLine
  6
CONTINUOUS
370
50
 10
310.277589646329
 20
217.207391833894
 11
310.477589646329
 21
217.007391833894
  0
ARC
  5
4CC
100
AcDbEntity
  8
0-0
100
AcDbCircle
  6
CONTINUOUS
370
50
 10
301.276239228668
 20
134.984384839736
 40
16
100
AcDbArc
 50
-59.6284372271245
 51
59.6284372271244
  0
LINE
  5
4CD
100
AcDbEntity
  8
0-0
100
AcDbLine
  6
CONTINUOUS
370
50
 10
309.276239228668
 20
120.146595246943
 11
309.276239228668
 21
107.984384839736
  0
LINE
  5
4CE
100
AcDbEntity
  8
0-0
100
AcDbLine
  6
CONTINUOUS
370
50
 10
321.276239228668
 20
104.984384839736
 11
329.276239228668
 21
118.840791300287
  0
LINE
  5
4CF
100
AcDbEntity
  8
0-0
100
AcDbLine
  6
CONTINUOUS
370
50
 10
321.70925193056
 20
164.234384839736
 11
329.276239228668
 21
151.127978379185
  0
LINE
  5
4D0
100
AcDbEntity
  8
0-0
100
AcDbLine
  6
CONTINUOUS
370
50
 10
320.410213824883
 20
164.984384839736
 11
312.276239228668
 21
164.984384839736
  0
LINE
  5
4D1
100
AcDbEntity
  8
0-0
100
AcDbLine
  6
CONTINUOUS
370
50
 10
312.276239228668
 20
104.984384839736
 11
309.276239228668
 21
107.984384839736
  0
LINE
  5
4D2
100
AcDbEntity
  8
0-0
100
AcDbLine
  6
CONTINUOUS
370
50
 10
312.276239228668
 20
164.984384839736
 11
309.276239228668
 21
161.984384839736
  0
LINE
  5
4D3
100
AcDbEntity
  8
0-0
100
AcDbLine
  6
CONTINUOUS
370
50
 10
312.276239228668
 20
104.984384839736
 11
321.276239228668
 21
104.984384839736
  0
LINE
  5
4D4
100
AcDbEntity
  8
0-0
100
AcDbLine
  6
CONTINUOUS
370
50
 10
329.276239228668
 20
151.127978379185
 11
329.276239228668
 21
118.840791300287
  0
LINE
  5
4D5
100
AcDbEntity
  8
0-0
100
AcDbLine
  6
CONTINUOUS
370
50
 10
309.276239228668
 20
149.822174432529
 11
309.276239228668
 21
161.984384839736
  0
ARC
  5
4D6
100
AcDbEntity
  8
0-0
100
AcDbCircle
  6
CONTINUOUS
370
50
 10
320.410213824883
 20
163.484384839736
 40
1.5
100
AcDbArc
 50
29.9999999999997
 51
89.9999999999984
  0
ARC
  5
4D7
100
AcDbEntity
  8
0-0
100
AcDbCircle
  6
CONTINUOUS
370
50
 10
315.276239228668
 20
120.146595246943
 40
6
100
AcDbArc
 50
170.080811044173
 51
180
  0
ARC
  5
4D8
100
AcDbEntity
  8
0-0
100
AcDbCircle
  6
CONTINUOUS
370
50
 10
315.276239228668
 20
149.822174432529
 40
6
100
AcDbArc
 50
180
 51
-170.080811044174
  0
LINE
  5
4D9
100
AcDbEntity
  8
0-0
100
AcDbLine
  6
CONTINUOUS
370
50
 10
322.276239228668
 20
163.484384839736
 11
337.774103273668
 21
163.484384839736
  0
LINE
  5
4DA
100
AcDbEntity
  8
0-0
100
AcDbLine
  6
CONTINUOUS
370
50
 10
327.338417055158
 20
154.484384839736
 11
337.774103273668
 21
154.484384839736
  0
ARC
  5
4DB
100
AcDbEntity
  8
0-0
100
AcDbCircle
  6
CONTINUOUS
370
50
 10
322.276239228668
 20
162.984384839736
 40
0.5
100
AcDbArc
 50
90
 51
104.457731776648
  0
LINE
  5
4DC
100
AcDbEntity
  8
0-0
100
AcDbLine
  6
CONTINUOUS
370
50
 10
321.777589646329
 20
218.007391833894
 11
321.777589646329
 21
226.007391833894
  0
LINE
  5
4DD
100
AcDbEntity
  8
0-0
100
AcDbLine
  6
CONTINUOUS
370
50
 10
322.277589646329
 20
226.507391833894
 11
337.77545369133
 21
226.507391833894
  0
LINE
  5
4DE
100
AcDbEntity
  8
0-0
100
AcDbLine
  6
CONTINUOUS
370
50
 10
322.277589646329
 20
217.507391833894
 11
337.77545369133
 21
217.507391833894
  0
ARC
  5
4DF
100
AcDbEntity
  8
0-0
100
AcDbCircle
  6
CONTINUOUS
370
50
 10
322.277589646329
 20
226.007391833894
 40
0.5
100
AcDbArc
 50
90
 51
180
  0
ARC
  5
4E0
100
AcDbEntity
  8
0-0
100
AcDbCircle
  6
CONTINUOUS
370
50
 10
322.277589646329
 20
218.007391833894
 40
0.5
100
AcDbArc
 50
180
 51
-90
  0
LINE
  5
4E1
100
AcDbEntity
  8
0-0
100
AcDbLine
  6
CONTINUOUS
370
50
 10
337.774103273668
 20
154.293969079913
 11
337.774103273668
 21
163.67480059956
  0
ARC
  5
4E2
100
AcDbEntity
  8
0-0
100
AcDbCircle
  6
CONTINUOUS
370
50
 10
342.274103273668
 20
158.984384839736
 40
6.5
100
AcDbArc
 50
-133.447711492946
 51
133.813061460403
  0
LINE
  5
4E3
100
AcDbEntity
  8
0-0
100
AcDbLine
  6
CONTINUOUS
370
50
 10
337.77545369133
 20
217.316806930985
 11
337.77545369133
 21
226.697638450632
  0
ARC
  5
4E4
100
AcDbEntity
  8
0-0
100
AcDbCircle
  6
CONTINUOUS
370
50
 10
342.27545369133
 20
222.007222690808
 40
6.5
100
AcDbArc
 50
-133.447711492946
 51
133.813061460403
  0
LINE
  5
4E5
100
AcDbEntity
  8
0-0
100
AcDbLine
  6
CONTINUOUS
370
40
 10
279.776239228668
 20
102.484384839737
 11
274.776239228668
 21
102.484384839737
  0
ARC
  5
4E6
100
AcDbEntity
  8
0-0
100
AcDbCircle
  6
CONTINUOUS
370
50
 10
301.276239228668
 20
134.984384839736
 40
23
100
AcDbArc
 50
-116.962388997481
 51
-69.6455936017628
  0
ARC
  5
4E7
100
AcDbEntity
  8
0-0
100
AcDbCircle
  6
CONTINUOUS
370
50
 10
301.276239228668
 20
134.984384839736
 40
23
100
AcDbArc
 50
72.7130547215597
 51
116.962388997479
  0
LINE
  5
4E8
100
AcDbEntity
  8
0-0
100
AcDbLine
  6
CONTINUOUS
370
50
 10
329.277589646329
 20
228.007391833893
 11
329.277589646329
 21
226.507391833894
  0
LINE
  5
4E9
100
AcDbEntity
  8
0-0
100
AcDbLine
  6
CONTINUOUS
370
50
 10
329.277589646329
 20
217.507391833894
 11
329.277589646329
 21
213.007391833893
  0
CIRCLE
  5
4EA
100
AcDbEntity
  8
0-0
100
AcDbCircle
  6
CONTINUOUS
370
13
 10
315.276239228668
 20
110.984384839736
 40
3
  0
LINE
  5
4EB
100
AcDbEntity
  8
0-0
100
AcDbLine
  6
CONTINUOUS
370
13
 10
313.422189606896
 20
111.734384839736
 11
314.526239228668
 21
111.734384839736
  0
LINE
  5
4EC
100
AcDbEntity
  8
0-0
100
AcDbLine
  6
CONTINUOUS
370
13
 10
313.422189606896
 20
110.234384839736
 11
314.526239228668
 21
110.234384839736
  0
LINE
  5
4ED
100
AcDbEntity
  8
0-0
100
AcDbLine
  6
CONTINUOUS
370
13
 10
314.526239228668
 20
109.130335217964
 11
314.526239228668
 21
110.234384839736
  0
LINE
  5
4EE
100
AcDbEntity
  8
0-0
100
AcDbLine
  6
CONTINUOUS
370
13
 10
316.026239228668
 20
109.130335217964
 11
316.026239228668
 21
110.234384839736
  0
LINE
  5
4EF
100
AcDbEntity
  8
0-0
100
AcDbLine
  6
CONTINUOUS
370
13
 10
317.130288850442
 20
111.734384839736
 11
317.130288850442
 21
110.234384839736
  0
LINE
  5
4F0
100
AcDbEntity
  8
0-0
100
AcDbLine
  6
CONTINUOUS
370
13
 10
313.422189606894
 20
111.734384839736
 11
313.422189606894
 21
110.234384839736
  0
LINE
  5
4F1
100
AcDbEntity
  8
0-0
100
AcDbLine
  6
CONTINUOUS
370
13
 10
314.526239228668
 20
109.130335217962
 11
316.026239228668
 21
109.130335217962
  0
LINE
  5
4F2
100
AcDbEntity
  8
0-0
100
AcDbLine
  6
CONTINUOUS
370
13
 10
314.526239228668
 20
112.83843446151
 11
316.026239228668
 21
112.83843446151
  0
LINE
  5
4F3
100
AcDbEntity
  8
0-0
100
AcDbLine
  6
CONTINUOUS
370
13
 10
316.026239228668
 20
110.234384839736
 11
317.130288850442
 21
110.234384839736
  0
LINE
  5
4F4
100
AcDbEntity
  8
0-0
100
AcDbLine
  6
CONTINUOUS
370
13
 10
314.526239228668
 20
111.734384839736
 11
314.526239228668
 21
112.83843446151
  0
LINE
  5
4F5
100
AcDbEntity
  8
0-0
100
AcDbLine
  6
CONTINUOUS
370
13
 10
316.026239228668
 20
111.734384839736
 11
317.130288850442
 21
111.734384839736
  0
LINE
  5
4F6
100
AcDbEntity
  8
0-0
100
AcDbLine
  6
CONTINUOUS
370
13
 10
316.026239228668
 20
111.734384839736
 11
316.026239228668
 21
112.83843446151
  0
CIRCLE
  5
4F7
100
AcDbEntity
  8
0-0
100
AcDbCircle
  6
CONTINUOUS
370
20
 10
315.276239228668
 20
110.984384839736
 40
4.2
  0
LINE
  5
4F8
100
AcDbEntity
  8
0-0
100
AcDbLine
  6
CONTINUOUS
370
13
 10
330.051239228668
 20
135.72726324652
 11
330.051239228668
 21
134.241506432953
  0
LINE
  5
4F9
100
AcDbEntity
  8
0-0
100
AcDbLine
  6
CONTINUOUS
370
13
 10
329.276239228668
 20
136.174709705142
 11
330.051239228668
 21
135.72726324652
  0
LINE
  5
4FA
100
AcDbEntity
  8
0-0
100
AcDbLine
  6
CONTINUOUS
370
13
 10
329.276239228668
 20
133.794059974331
 11
330.051239228668
 21
134.241506432953
  0
ARC
  5
4FB
100
AcDbEntity
  8
0-0
100
AcDbCircle
  6
CONTINUOUS
370
13
 10
328.776239228668
 20
134.984384839736
 40
2.7
100
AcDbArc
 50
-79.328070714235
 51
79.3280707142368
  0
ARC
  5
4FC
100
AcDbEntity
  8
0-0
100
AcDbCircle
  6
CONTINUOUS
370
20
 10
328.776239228668
 20
134.984384839736
 40
3
100
AcDbArc
 50
-80.4059317731372
 51
80.4059317731377
  0
LINE
  5
4FD
100
AcDbEntity
  8
0-0
100
AcDbLine
  6
BYLAYER
370
13
 10
269.054551728668
 20
144.734385422549
 11
270.497926728668
 21
144.734385422549
  0
LINE
  5
4FE
100
AcDbEntity
  8
0-0
100
AcDbLine
  6
BYLAYER
370
13
 10
270.497926728668
 20
147.234384256924
 11
269.054551728668
 21
147.234384256924
  0
CIRCLE
  5
4FF
100
AcDbEntity
  8
0-0
100
AcDbCircle
  6
BYLAYER
370
13
 10
269.776239228668
 20
145.984384839736
 40
2.4035896769725
  0
CIRCLE
  5
500
100
AcDbEntity
  8
0-0
100
AcDbCircle
  6
BYLAYER
370
13
 10
269.776239228668
 20
145.984384839736
 40
2.74999999999989
  0
LINE
  5
501
100
AcDbEntity
  8
0-0
100
AcDbLine
  6
BYLAYER
370
13
 10
268.332864228668
 20
145.984384839736
 11
269.054551728668
 21
144.734385422549
  0
LINE
  5
502
100
AcDbEntity
  8
0-0
100
AcDbLine
  6
BYLAYER
370
13
 10
269.054551728668
 20
147.234384256924
 11
268.332864228668
 21
145.984384839736
  0
LINE
  5
503
100
AcDbEntity
  8
0-0
100
AcDbLine
  6
BYLAYER
370
13
 10
270.497926728668
 20
144.734385422549
 11
271.219614228668
 21
145.984384839736
  0
LINE
  5
504
100
AcDbEntity
  8
0-0
100
AcDbLine
  6
BYLAYER
370
13
 10
271.219614228668
 20
145.984384839736
 11
270.497926728668
 21
147.234384256924
  0
LINE
  5
505
100
AcDbEntity
  8
0-0
100
AcDbLine
  6
BYLAYER
370
13
 10
269.054551728668
 20
122.734385422549
 11
270.497926728668
 21
122.734385422549
  0
LINE
  5
506
100
AcDbEntity
  8
0-0
100
AcDbLine
  6
BYLAYER
370
13
 10
270.497926728668
 20
125.234384256924
 11
269.054551728668
 21
125.234384256924
  0
CIRCLE
  5
507
100
AcDbEntity
  8
0-0
100
AcDbCircle
  6
BYLAYER
370
13
 10
269.776239228668
 20
123.984384839736
 40
2.4035896769725
  0
CIRCLE
  5
508
100
AcDbEntity
  8
0-0
100
AcDbCircle
  6
BYLAYER
370
13
 10
269.776239228668
 20
123.984384839736
 40
2.74999999999989
  0
LINE
  5
509
100
AcDbEntity
  8
0-0
100
AcDbLine
  6
BYLAYER
370
13
 10
268.332864228668
 20
123.984384839736
 11
269.054551728668
 21
122.734385422549
  0
LINE
  5
50A
100
AcDbEntity
  8
0-0
100
AcDbLine
  6
BYLAYER
370
13
 10
269.054551728668
 20
125.234384256924
 11
268.332864228668
 21
123.984384839736
  0
LINE
  5
50B
100
AcDbEntity
  8
0-0
100
AcDbLine
  6
BYLAYER
370
13
 10
270.497926728668
 20
122.734385422549
 11
271.219614228668
 21
123.984384839736
  0
LINE
  5
50C
100
AcDbEntity
  8
0-0
100
AcDbLine
  6
BYLAYER
370
13
 10
271.219614228668
 20
123.984384839736
 11
270.497926728668
 21
125.234384256924
  0
CIRCLE
  5
50D
100
AcDbEntity
  8
0-0
100
AcDbCircle
  6
CONTINUOUS
370
50
 10
315.276239228668
 20
110.984384839736
 40
4
  0
CIRCLE
  5
50E
100
AcDbEntity
  8
0-0
100
AcDbCircle
  6
CONTINUOUS
370
13
 10
315.276239228668
 20
110.984384839736
 40
3
  0
LINE
  5
50F
100
AcDbEntity
  8
0-0
100
AcDbLine
  6
CONTINUOUS
370
13
 10
313.422189606895
 20
111.734384839736
 11
314.526239228668
 21
111.734384839736
  0
LINE
  5
510
100
AcDbEntity
  8
0-0
100
AcDbLine
  6
CONTINUOUS
370
13
 10
313.422189606895
 20
110.234384839736
 11
314.526239228668
 21
110.234384839736
  0
LINE
  5
511
100
AcDbEntity
  8
0-0
100
AcDbLine
  6
CONTINUOUS
370
13
 10
314.526239228668
 20
109.130335217964
 11
314.526239228668
 21
110.234384839736
  0
LINE
  5
512
100
AcDbEntity
  8
0-0
100
AcDbLine
  6
CONTINUOUS
370
13
 10
316.026239228668
 20
109.130335217964
 11
316.026239228668
 21
110.234384839736
  0
LINE
  5
513
100
AcDbEntity
  8
0-0
100
AcDbLine
  6
CONTINUOUS
370
13
 10
317.130288850442
 20
111.734384839736
 11
317.130288850442
 21
110.234384839736
  0
LINE
  5
514
100
AcDbEntity
  8
0-0
100
AcDbLine
  6
CONTINUOUS
370
13
 10
313.422189606894
 20
111.734384839736
 11
313.422189606894
 21
110.234384839736
  0
LINE
  5
515
100
AcDbEntity
  8
0-0
100
AcDbLine
  6
CONTINUOUS
370
13
 10
314.526239228668
 20
109.130335217962
 11
316.026239228668
 21
109.130335217962
  0
LINE
  5
516
100
AcDbEntity
  8
0-0
100
AcDbLine
  6
CONTINUOUS
370
13
 10
314.526239228668
 20
112.83843446151
 11
316.026239228668
 21
112.83843446151
  0
LINE
  5
517
100
AcDbEntity
  8
0-0
100
AcDbLine
  6
CONTINUOUS
370
13
 10
316.026239228668
 20
110.234384839736
 11
317.130288850442
 21
110.234384839736
  0
LINE
  5
518
100
AcDbEntity
  8
0-0
100
AcDbLine
  6
CONTINUOUS
370
13
 10
314.526239228668
 20
111.734384839736
 11
314.526239228668
 21
112.83843446151
  0
LINE
  5
519
100
AcDbEntity
  8
0-0
100
AcDbLine
  6
CONTINUOUS
370
13
 10
316.026239228668
 20
111.734384839736
 11
317.130288850442
 21
111.734384839736
  0
LINE
  5
51A
100
AcDbEntity
  8
0-0
100
AcDbLine
  6
CONTINUOUS
370
13
 10
316.026239228668
 20
111.734384839736
 11
316.026239228668
 21
112.83843446151
  0
LINE
  5
51B
100
AcDbEntity
  8
0-0
100
AcDbLine
  6
CONTINUOUS
370
13
 10
314.30846939514
 20
135.68301722904
 11
311.334838767102
 21
135.286128216858
  0
LINE
  5
51C
100
AcDbEntity
  8
0-0
100
AcDbLine
  6
CONTINUOUS
370
13
 10
314.30846939514
 20
135.68301722904
 11
312.529726585932
 21
139.282992884944
  0
LINE
  5
51D
100
AcDbEntity
  8
0-0
100
AcDbLine
  6
CONTINUOUS
370
13
 10
311.334838767102
 20
135.286128216858
 11
312.529726585932
 21
139.282992884944
  0
LINE
  5
51E
100
AcDbEntity
  8
0-0
100
AcDbLine
  6
CONTINUOUS
370
13
 10
314.318588999301
 20
134.050413714442
 11
311.344958371263
 21
134.447302726624
  0
LINE
  5
51F
100
AcDbEntity
  8
0-0
100
AcDbLine
  6
CONTINUOUS
370
13
 10
314.318588999301
 20
134.050413714442
 11
312.539846190093
 21
130.450438058538
  0
LINE
  5
520
100
AcDbEntity
  8
0-0
100
AcDbLine
  6
CONTINUOUS
370
13
 10
311.344958371263
 20
134.447302726624
 11
312.539846190093
 21
130.450438058538
  0
ARC
  5
521
100
AcDbEntity
  8
0-0
100
AcDbCircle
  6
DIVIDE
370
13
 10
329.060848919494
 20
135.108740492719
 40
16
100
AcDbArc
 50
-118.247495151507
 51
-1.75250484849342
  0
LINE
  5
522
100
AcDbEntity
  8
0-0
100
AcDbLine
  6
DIVIDE
370
13
 10
318.794805319392
 20
119.944033149653
 11
309.678163017314
 21
114.680537262443
  0
ARC
  5
523
100
AcDbEntity
  8
0-0
100
AcDbCircle
  6
DIVIDE
370
13
 10
329.060848919494
 20
135.108740492719
 40
14.4
100
AcDbArc
 50
-102.463723610133
 51
-17.5362732735535
  0
LINE
  5
524
100
AcDbEntity
  8
0-0
100
AcDbLine
  6
DIVIDE
370
13
 10
313.080086805961
 20
102.78823241703
 11
329.080086805961
 21
102.78823241703
  0
LINE
  5
525
100
AcDbEntity
  8
0-0
100
AcDbLine
  6
DIVIDE
370
13
 10
365.041611033027
 20
132.78823241703
 11
357.041611033027
 21
118.931825956479
  0
LINE
  5
526
100
AcDbEntity
  8
0-0
100
AcDbLine
  6
DIVIDE
370
13
 10
360.541611033027
 20
140.58246105109
 11
365.041611033027
 21
132.78823241703
  0
LINE
  5
527
100
AcDbEntity
  8
0-0
100
AcDbLine
  6
DIVIDE
370
13
 10
308.580086805961
 20
110.58246105109
 11
309.678163017314
 21
114.680537262443
  0
LINE
  5
528
100
AcDbEntity
  8
0-0
100
AcDbLine
  6
DIVIDE
370
13
 10
360.541611033027
 20
140.58246105109
 11
356.443534821674
 21
141.680537262443
  0
LINE
  5
529
100
AcDbEntity
  8
0-0
100
AcDbLine
  6
DIVIDE
370
13
 10
308.580086805961
 20
110.58246105109
 11
313.080086805961
 21
102.78823241703
  0
LINE
  5
52A
100
AcDbEntity
  8
0-0
100
AcDbLine
  6
DIVIDE
370
13
 10
357.041611033027
 20
118.931825956479
 11
329.080086805961
 21
102.78823241703
  0
LINE
  5
52B
100
AcDbEntity
  8
0-0
100
AcDbLine
  6
DIVIDE
370
13
 10
347.326892519595
 20
136.417041375232
 11
356.443534821674
 21
141.680537262443
  0
LINE
  5
52C
100
AcDbEntity
  8
0-0
100
AcDbLine
  6
DIVIDE
370
13
 10
305.339326408485
 20
181.246327215399
 11
297.215288003849
 21
176.555911455576
  0
ARC
  5
52D
100
AcDbEntity
  8
0-0
100
AcDbCircle
  6
DIVIDE
370
13
 10
299.027307206167
 20
182.798233652518
 40
6.5
100
AcDbArc
 50
-13.8130614604036
 51
-106.186938539597
  0
LINE
  5
52E
100
AcDbEntity
  8
0-0
100
AcDbLine
  6
DIVIDE
370
13
 10
311.740340843806
 20
168.778613473796
 11
304.81213761353
 21
164.778613473796
  0
LINE
  5
52F
100
AcDbEntity
  8
0-0
100
AcDbLine
  6
DIVIDE
370
13
 10
297.380192889138
 20
176.651119335488
 11
304.129124911638
 21
164.961626175688
  0
LINE
  5
530
100
AcDbEntity
  8
0-0
100
AcDbLine
  6
DIVIDE
370
13
 10
305.174421523197
 20
181.151119335487
 11
311.923353545698
 21
169.461626175688
  0
LINE
  5
531
100
AcDbEntity
  8
0-0
100
AcDbLine
  6
DIVIDE
370
13
 10
304.81213761353
 20
164.778613473796
 11
304.129124911638
 21
164.961626175688
  0
LINE
  5
532
100
AcDbEntity
  8
0-0
100
AcDbLine
  6
DIVIDE
370
13
 10
311.740340843806
 20
168.778613473796
 11
311.923353545698
 21
169.461626175688
  0
LINE
  5
533
100
AcDbEntity
  8
0-0
100
AcDbLine
  6
DIVIDE
370
13
 10
309.575277334344
 20
167.528613473796
 11
311.495150315422
 21
164.203295926491
  0
LINE
  5
534
100
AcDbEntity
  8
0-0
100
AcDbLine
  6
DIVIDE
370
13
 10
306.977201122991
 20
166.028613473796
 11
309.092353119449
 21
162.365062750201
  0
LINE
  5
535
100
AcDbEntity
  8
0-0
100
AcDbLine
  6
DIVIDE
370
13
 10
309.237008744126
 20
162.714511858658
 11
309.310076524224
 21
162.587954751133
  0
LINE
  5
536
100
AcDbEntity
  8
0-0
100
AcDbLine
  6
DIVIDE
370
13
 10
308.977201122991
 20
162.564511858659
 11
311.057328141913
 21
163.765473752982
  0
LINE
  5
537
100
AcDbEntity
  8
0-0
100
AcDbLine
  6
DIVIDE
370
13
 10
311.355404353266
 20
164.063549964335
 11
311.425277334344
 21
164.324319479794
  0
LINE
  5
538
100
AcDbEntity
  8
0-0
100
AcDbLine
  6
DIVIDE
370
13
 10
309.237008744126
 20
162.714511858658
 11
308.827201122991
 21
162.824319479794
  0
POINT
  5
539
100
AcDbEntity
  8
0-0
100
AcDbPoint
 10
308.977201122991
 20
162.564511858659
  0
ARC
  5
53A
100
AcDbEntity
  8
0-0
100
AcDbCircle
  6
DIVIDE
370
13
 10
323.794805319392
 20
111.283779111809
 40
10
100
AcDbArc
 50
77.5362731164223
 51
120
  0
ARC
  5
53B
100
AcDbEntity
  8
0-0
100
AcDbCircle
  6
DIVIDE
370
13
 10
352.326892519595
 20
127.756787337388
 40
10
100
AcDbArc
 50
120
 51
162.463722396086
  0
LINE
  5
53C
100
AcDbEntity
  8
0-0
100
AcDbLine
  6
DIVIDE
370
13
 10
287.777589646329
 20
208.257391833893
 11
267.277589646329
 21
208.257391833893
  0
LINE
  5
53D
100
AcDbEntity
  8
0-0
100
AcDbLine
  6
DIVIDE
370
13
 10
287.777589646329
 20
221.757391833893
 11
267.277589646329
 21
221.757391833893
  0
LINE
  5
53E
100
AcDbEntity
  8
0-0
100
AcDbLine
  6
DIVIDE
370
13
 10
289.777589646329
 20
210.257391833893
 11
289.777589646329
 21
219.757391833893
  0
LINE
  5
53F
100
AcDbEntity
  8
0-0
100
AcDbLine
  6
DIVIDE
370
13
 10
265.277589646329
 20
219.757391833893
 11
265.277589646329
 21
210.257391833893
  0
LINE
  5
540
100
AcDbEntity
  8
0-0
100
AcDbLine
  6
DIVIDE
370
13
 10
265.277589646329
 20
210.257391833893
 11
267.277589646329
 21
208.257391833893
  0
LINE
  5
541
100
AcDbEntity
  8
0-0
100
AcDbLine
  6
DIVIDE
370
13
 10
267.277589646329
 20
221.757391833893
 11
265.277589646329
 21
219.757391833893
  0
LINE
  5
542
100
AcDbEntity
  8
0-0
100
AcDbLine
  6
DIVIDE
370
13
 10
289.777589646329
 20
219.757391833893
 11
287.777589646329
 21
221.757391833893
  0
LINE
  5
543
100
AcDbEntity
  8
0-0
100
AcDbLine
  6
DIVIDE
370
13
 10
289.777589646329
 20
210.257391833893
 11
287.777589646329
 21
208.257391833893
  0
LINE
  5
544
100
AcDbEntity
  8
0-0
100
AcDbLine
  6
DIVIDE
370
20
 10
265.774888811006
 20
154.606128378403
 11
252.823488399123
 21
154.606128378403
  0
LINE
  5
545
100
AcDbEntity
  8
0-0
100
AcDbLine
  6
DIVIDE
370
20
 10
265.774888811006
 20
153.006128378403
 11
252.758472857347
 21
153.006128378403
  0
LINE
  5
546
100
AcDbEntity
  8
0-0
100
AcDbLine
  6
DIVIDE
370
20
 10
265.774888811006
 20
116.853605510725
 11
253.423423463104
 21
116.853605510725
  0
LINE
  5
547
100
AcDbEntity
  8
0-0
100
AcDbLine
  6
DIVIDE
370
20
 10
265.774888811006
 20
115.253605510725
 11
253.452975982094
 21
115.253605510725
  0
LWPOLYLINE
  5
548
100
AcDbEntity
  8
0-0
100
AcDbPolyline
  6
DIVIDE
370
20
 90
     28
 10
252.791047168145
  20
154.620958257023
 10
252.881011647968
  20
154.568125116147
 10
252.963197706075
  20
154.514918010319
 10
253.036165303791
  20
154.461320202073
 10
253.098474402439
  20
154.407314953943
 10
253.148684963345
  20
154.352885528463
 10
253.185356947832
  20
154.298015188167
 10
253.207050317225
  20
154.242687195589
 10
253.212325032849
  20
154.186884813263
 10
253.199741056027
  20
154.130591303723
 10
253.161930457938
  20
154.064352371365
 10
253.10349397623
  20
153.997488501396
 10
253.030022534853
  20
153.930064676722
 10
252.947107057763
  20
153.86214588025
 10
252.860338468914
  20
153.793797094889
 10
252.775307692257
  20
153.725083303544
 10
252.697605651748
  20
153.656069489123
 10
252.63282327134
  20
153.586820634533
 10
252.586551474986
  20
153.517401722682
 10
252.566145304244
  20
153.462694056916
 10
252.55941938222
  20
153.407906897708
 10
252.565131593152
  20
153.353025808037
 10
252.582039821278
  20
153.298036350879
 10
252.608901950836
  20
153.242924089213
 10
252.644475866063
  20
153.187674586017
 10
252.687519451199
  20
153.132273404268
 10
252.73679059048
  20
153.076706106944
 10
252.791047168145
  20
153.020958257023
  0
LWPOLYLINE
  5
549
100
AcDbEntity
  8
0-0
100
AcDbPolyline
  6
DIVIDE
370
20
 90
     28
 10
252.791047168145
  20
154.620958257023
 10
252.740969169064
  20
154.570097747652
 10
252.695109050454
  20
154.520899112666
 10
252.654602392263
  20
154.47298417887
 10
252.620584774437
  20
154.425974773072
 10
252.594191776923
  20
154.379492722078
 10
252.576558979666
  20
154.333159852694
 10
252.568821962614
  20
154.286597991728
 10
252.572116305712
  20
154.239428965984
 10
252.587577588909
  20
154.191274602271
 10
252.616106010232
  20
154.141252622611
 10
252.654850343465
  20
154.090988821991
 10
252.700317157678
  20
154.041646590038
 10
252.74901302194
  20
153.994389316381
 10
252.797444505323
  20
153.950380390645
 10
252.842118176897
  20
153.91078320246
 10
252.879540605732
  20
153.876761141451
 10
252.9062183609
  20
153.849477597248
 10
252.91865801147
  20
153.830095959476
 10
252.919150561276
  20
153.827153852974
 10
252.918941614515
  20
153.824582635117
 10
252.918099883307
  20
153.822359423253
 10
252.916694079772
  20
153.820461334729
 10
252.914792916028
  20
153.818865486892
 10
252.912465104195
  20
153.817548997089
 10
252.909779356392
  20
153.816488982668
 10
252.906804384739
  20
153.815662560976
 10
252.903608901354
  20
153.81504684936
  0
LWPOLYLINE
  5
54A
100
AcDbEntity
  8
0-0
100
AcDbPolyline
  6
DIVIDE
370
20
 90
     28
 10
253.458380602933
  20
116.860895021114
 10
253.548345082756
  20
116.808061880238
 10
253.630531140863
  20
116.75485477441
 10
253.703498738579
  20
116.701256966164
 10
253.765807837227
  20
116.647251718034
 10
253.816018398133
  20
116.592822292554
 10
253.85269038262
  20
116.537951952258
 10
253.874383752013
  20
116.48262395968
 10
253.879658467636
  20
116.426821577354
 10
253.867074490815
  20
116.370528067814
 10
253.829263892726
  20
116.304289135456
 10
253.770827411018
  20
116.237425265487
 10
253.697355969641
  20
116.170001440813
 10
253.614440492551
  20
116.102082644341
 10
253.527671903702
  20
116.03373385898
 10
253.442641127045
  20
115.965020067635
 10
253.364939086536
  20
115.896006253214
 10
253.300156706128
  20
115.826757398625
 10
253.253884909774
  20
115.757338486773
 10
253.233478739032
  20
115.702630821007
 10
253.226752817008
  20
115.6478436618
 10
253.23246502794
  20
115.592962572128
 10
253.249373256066
  20
115.53797311497
 10
253.276235385624
  20
115.482860853304
 10
253.311809300851
  20
115.427611350108
 10
253.354852885987
  20
115.372210168359
 10
253.404124025268
  20
115.316642871035
 10
253.458380602933
  20
115.260895021114
  0
LWPOLYLINE
  5
54B
100
AcDbEntity
  8
0-0
100
AcDbPolyline
  6
DIVIDE
370
20
 90
     28
 10
253.458380602933
  20
116.860895021114
 10
253.408302603852
  20
116.810034511743
 10
253.362442485242
  20
116.760835876757
 10
253.321935827051
  20
116.712920942961
 10
253.287918209225
  20
116.665911537163
 10
253.26152521171
  20
116.619429486169
 10
253.243892414454
  20
116.573096616785
 10
253.236155397402
  20
116.526534755819
 10
253.2394497405
  20
116.479365730075
 10
253.254911023697
  20
116.431211366362
 10
253.28343944502
  20
116.381189386702
 10
253.322183778253
  20
116.330925586082
 10
253.367650592466
  20
116.281583354129
 10
253.416346456728
  20
116.234326080472
 10
253.464777940111
  20
116.190317154736
 10
253.509451611685
  20
116.150719966551
 10
253.54687404052
  20
116.116697905542
 10
253.573551795688
  20
116.089414361339
 10
253.585991446258
  20
116.070032723567
 10
253.586483996064
  20
116.067090617065
 10
253.586275049303
  20
116.064519399208
 10
253.585433318095
  20
116.062296187344
 10
253.58402751456
  20
116.06039809882
 10
253.582126350816
  20
116.058802250983
 10
253.579798538983
  20
116.05748576118
 10
253.57711279118
  20
116.056425746759
 10
253.574137819527
  20
116.055599325067
 10
253.570942336142
  20
116.054983613451
  0
LWPOLYLINE
  5
54C
100
AcDbEntity
  8
0-0
100
AcDbPolyline
  6
DIVIDE
370
20
 90
     28
 10
252.792397585807
  20
223.822221712513
 10
252.88236206563
  20
223.769388571637
 10
252.964548123737
  20
223.716181465809
 10
253.037515721452
  20
223.662583657563
 10
253.099824820101
  20
223.608578409433
 10
253.150035381006
  20
223.554148983953
 10
253.186707365494
  20
223.499278643657
 10
253.208400734887
  20
223.443950651079
 10
253.21367545051
  20
223.388148268753
 10
253.201091473688
  20
223.331854759213
 10
253.1632808756
  20
223.265615826855
 10
253.104844393891
  20
223.198751956886
 10
253.031372952515
  20
223.131328132212
 10
252.948457475425
  20
223.06340933574
 10
252.861688886575
  20
222.995060550378
 10
252.776658109919
  20
222.926346759034
 10
252.69895606941
  20
222.857332944613
 10
252.634173689002
  20
222.788084090023
 10
252.587901892648
  20
222.718665178172
 10
252.567495721906
  20
222.663957512406
 10
252.560769799882
  20
222.609170353198
 10
252.566482010814
  20
222.554289263527
 10
252.58339023894
  20
222.499299806369
 10
252.610252368497
  20
222.444187544703
 10
252.645826283725
  20
222.388938041507
 10
252.68886986886
  20
222.333536859758
 10
252.738141008142
  20
222.277969562434
 10
252.792397585807
  20
222.222221712513
  0
LWPOLYLINE
  5
54D
100
AcDbEntity
  8
0-0
100
AcDbPolyline
  6
DIVIDE
370
20
 90
     28
 10
252.792397585807
  20
223.822221712513
 10
252.742319586726
  20
223.771361203142
 10
252.696459468116
  20
223.722162568155
 10
252.655952809925
  20
223.67424763436
 10
252.621935192099
  20
223.627238228562
 10
252.595542194584
  20
223.580756177568
 10
252.577909397328
  20
223.534423308184
 10
252.570172380275
  20
223.487861447217
 10
252.573466723374
  20
223.440692421474
 10
252.58892800657
  20
223.39253805776
 10
252.617456427894
  20
223.3425160781
 10
252.656200761127
  20
223.292252277481
 10
252.701667575339
  20
223.242910045528
 10
252.750363439601
  20
223.19565277187
 10
252.798794922984
  20
223.151643846135
 10
252.843468594558
  20
223.112046657949
 10
252.880891023394
  20
223.078024596941
 10
252.907568778562
  20
223.050741052737
 10
252.920008429132
  20
223.031359414966
 10
252.920500978937
  20
223.028417308464
 10
252.920292032177
  20
223.025846090607
 10
252.919450300969
  20
223.023622878743
 10
252.918044497433
  20
223.021724790219
 10
252.91614333369
  20
223.020128942382
 10
252.913815521857
  20
223.018812452579
 10
252.911129774054
  20
223.017752438158
 10
252.9081548024
  20
223.016926016465
 10
252.904959319016
  20
223.016310304849
  0
LINE
  5
54E
100
AcDbEntity
  8
0-0
100
AcDbLine
  6
DASHDOT
370
13
 10
252.205713019849
 20
223.007391833893
 11
309.679342844939
 21
223.007391833893
  0
LINE
  5
54F
100
AcDbEntity
  8
0-0
100
AcDbLine
  6
DIVIDE
370
20
 10
307.674019810053
 20
223.807391833893
 11
284.027589646329
 21
223.807391833893
  0
LINE
  5
550
100
AcDbEntity
  8
0-0
100
AcDbLine
  6
DIVIDE
370
20
 10
270.527589646329
 20
223.807391833893
 11
252.826315918637
 21
223.807391833893
  0
LINE
  5
551
100
AcDbEntity
  8
0-0
100
AcDbLine
  6
DIVIDE
370
20
 10
307.674019810053
 20
222.207391833893
 11
284.027589646329
 21
222.207391833893
  0
LINE
  5
552
100
AcDbEntity
  8
0-0
100
AcDbLine
  6
DIVIDE
370
20
 10
270.527589646329
 20
222.207391833893
 11
252.814932344842
 21
222.207391833893
  0
LINE
  5
553
100
AcDbEntity
  8
0-0
100
AcDbLine
  6
CONTINUOUS
370
50
 10
316.774888811006
 20
201.357873459387
 11
285.774888811006
 21
201.357873459387
  0
LINE
  5
554
100
AcDbEntity
  8
0-0
100
AcDbLine
  6
CONTINUOUS
370
50
 10
284.274888811006
 20
202.857873459387
 11
284.274888811006
 21
205.857873459387
  0
LINE
  5
555
100
AcDbEntity
  8
0-0
100
AcDbLine
  6
CONTINUOUS
370
50
 10
318.274888811006
 20
205.857873459387
 11
318.274888811006
 21
202.857873459387
  0
LINE
  5
556
100
AcDbEntity
  8
0-0
100
AcDbLine
  6
CONTINUOUS
370
50
 10
316.774888811006
 20
207.357873459387
 11
285.774888811006
 21
207.357873459387
  0
LINE
  5
557
100
AcDbEntity
  8
0-0
100
AcDbLine
  6
CONTINUOUS
370
50
 10
266.276239228667
 20
228.007391833893
 11
324.276239228668
 21
228.007391833893
  0
LINE
  5
558
100
AcDbEntity
  8
0-0
100
AcDbLine
  6
CONTINUOUS
370
50
 10
333.276239228668
 20
228.007391833893
 11
324.276239228668
 21
228.007391833893
  0
LINE
  5
559
100
AcDbEntity
  8
0-0
100
AcDbLine
  6
CONTINUOUS
370
50
 10
333.776239228668
 20
228.507391833893
 11
333.776239228668
 21
237.917868754268
  0
LINE
  5
55A
100
AcDbEntity
  8
0-0
100
AcDbLine
  6
CONTINUOUS
370
50
 10
333.776239228668
 20
228.507391833893
 11
333.276239228668
 21
228.007391833893
  0
LINE
  5
55B
100
AcDbEntity
  8
0-0
100
AcDbLine
  6
CONTINUOUS
370
50
 10
265.776239228667
 20
228.507391833893
 11
265.776239228667
 21
237.879392922441
  0
LINE
  5
55C
100
AcDbEntity
  8
0-0
100
AcDbLine
  6
CONTINUOUS
370
50
 10
266.276239228667
 20
228.007391833893
 11
265.776239228667
 21
228.507391833893
  0
LINE
  5
55D
100
AcDbEntity
  8
0-0
100
AcDbLine
  6
CONTINUOUS
370
50
 10
285.774888811006
 20
207.357873459387
 11
284.274888811006
 21
205.857873459387
  0
LINE
  5
55E
100
AcDbEntity
  8
0-0
100
AcDbLine
  6
CONTINUOUS
370
50
 10
285.774888811006
 20
201.357873459387
 11
284.274888811006
 21
202.857873459387
  0
LINE
  5
55F
100
AcDbEntity
  8
0-0
100
AcDbLine
  6
CONTINUOUS
370
50
 10
316.774888811006
 20
201.357873459387
 11
318.274888811006
 21
202.857873459387
  0
LINE
  5
560
100
AcDbEntity
  8
0-0
100
AcDbLine
  6
CONTINUOUS
370
50
 10
318.274888811006
 20
205.857873459387
 11
316.774888811006
 21
207.357873459387
  0
LINE
  5
561
100
AcDbEntity
  8
0-0
100
AcDbLine
  6
CONTINUOUS
370
20
 10
284.274888811006
 20
205.857873459387
 11
318.274888811006
 21
205.857873459387
  0
LINE
  5
562
100
AcDbEntity
  8
0-0
100
AcDbLine
  6
CONTINUOUS
370
20
 10
284.274888811006
 20
202.857873459387
 11
318.274888811006
 21
202.857873459387
  0
CIRCLE
  5
563
100
AcDbEntity
  8
0-0
100
AcDbCircle
  6
DIVIDE
370
13
 10
315.276239228668
 20
110.984384839736
 40
4
  0
LINE
  5
564
100
AcDbEntity
  8
0-0
100
AcDbLine
  6
CONTINUOUS
370
50
 10
333.776239228668
 20
105.484384839736
 11
330.776239228668
 21
102.484384839736
  0
LINE
  5
565
100
AcDbEntity
  8
0-0
100
AcDbLine
  6
CONTINUOUS
370
50
 10
333.776239228668
 20
164.484384839736
 11
330.776239228668
 21
167.484384839736
  0
ARC
  5
566
100
AcDbEntity
  8
0-0
100
AcDbCircle
  6
CONTINUOUS
370
50
 10
328.776239228668
 20
134.984384839736
 40
3.75
100
AcDbArc
 50
-82.3377443392322
 51
82.3377443392317
  0
CIRCLE
  5
567
100
AcDbEntity
  8
0-0
100
AcDbCircle
  6
CONTINUOUS
370
50
 10
315.276239228668
 20
110.984384839736
 40
4
  0
LINE
  5
568
100
AcDbEntity
  8
0-0
100
AcDbLine
  6
CONTINUOUS
370
50
 10
330.776239228668
 20
102.484384839736
 11
265.776239228668
 21
102.484384839736
  0
LINE
  5
569
100
AcDbEntity
  8
0-0
100
AcDbLine
  6
CONTINUOUS
370
50
 10
330.776239228668
 20
167.484384839736
 11
265.776239228668
 21
167.484384839736
  0
LINE
  5
56A
100
AcDbEntity
  8
0-0
100
AcDbLine
  6
CONTINUOUS
370
50
 10
265.776239228668
 20
167.484384839736
 11
265.776239228668
 21
102.484384839736
  0
LINE
  5
56B
100
AcDbEntity
  8
0-0
100
AcDbLine
  6
CONTINUOUS
370
20
 10
333.276239228668
 20
105.691491620923
 11
330.569132447481
 21
102.984384839736
  0
LINE
  5
56C
100
AcDbEntity
  8
0-0
100
AcDbLine
  6
CONTINUOUS
370
20
 10
333.276239228668
 20
164.27727805855
 11
330.569132447481
 21
166.984384839736
  0
CIRCLE
  5
56D
100
AcDbEntity
  8
0-0
100
AcDbCircle
  6
CONTINUOUS
370
40
 10
301.276239228668
 20
134.984384839736
 40
15
  0
ARC
  5
56E
100
AcDbEntity
  8
0-0
100
AcDbCircle
  6
CONTINUOUS
370
50
 10
301.276239228668
 20
134.984384839736
 40
23
100
AcDbArc
 50
-116.96238899748
 51
-69.6455936017628
  0
ARC
  5
56F
100
AcDbEntity
  8
0-0
100
AcDbCircle
  6
CONTINUOUS
370
50
 10
301.276239228668
 20
134.984384839736
 40
23
100
AcDbArc
 50
72.7130547215596
 51
116.962388997479
  0
LINE
  5
570
100
AcDbEntity
  8
0-0
100
AcDbLine
  6
CONTINUOUS
370
50
 10
333.776239228668
 20
164.484384839736
 11
333.776239228668
 21
163.484384839736
  0
LINE
  5
571
100
AcDbEntity
  8
0-0
100
AcDbLine
  6
CONTINUOUS
370
50
 10
333.776239228668
 20
154.484384839736
 11
333.776239228668
 21
105.484384839736
  0
LINE
  5
572
100
AcDbEntity
  8
0-0
100
AcDbLine
  6
CONTINUOUS
370
20
 10
333.276239228668
 20
164.27727805855
 11
333.276239228668
 21
163.484384839736
  0
LINE
  5
573
100
AcDbEntity
  8
0-0
100
AcDbLine
  6
CONTINUOUS
370
20
 10
333.276239228668
 20
154.484384839736
 11
333.276239228668
 21
105.691491620923
  0
CIRCLE
  5
574
100
AcDbEntity
  8
0-0
100
AcDbCircle
  6
CONTINUOUS
370
20
 10
301.276239228668
 20
134.984384839736
 40
16.0013504176615
  0
LINE
  5
575
100
AcDbEntity
  8
0-0
100
AcDbLine
  6
CONTINUOUS
370
20
 10
330.569132447481
 20
166.984384839736
 11
270.526239228668
 21
166.984384839736
  0
LINE
  5
576
100
AcDbEntity
  8
0-0
100
AcDbLine
  6
CONTINUOUS
370
20
 10
270.526239228668
 20
166.984384839736
 11
266.276239228668
 21
166.984384839736
  0
LINE
  5
577
100
AcDbEntity
  8
0-0
100
AcDbLine
  6
CONTINUOUS
370
20
 10
330.569132447481
 20
102.984384839736
 11
270.526239228668
 21
102.984384839736
  0
LINE
  5
578
100
AcDbEntity
  8
0-0
100
AcDbLine
  6
CONTINUOUS
370
20
 10
270.526239228668
 20
102.984384839736
 11
266.276239228668
 21
102.984384839736
  0
LINE
  5
579
100
AcDbEntity
  8
0-0
100
AcDbLine
  6
CONTINUOUS
370
20
 10
266.276239228668
 20
166.984384839736
 11
266.276239228668
 21
154.984384839736
  0
LINE
  5
57A
100
AcDbEntity
  8
0-0
100
AcDbLine
  6
CONTINUOUS
370
20
 10
266.276239228668
 20
114.984384839736
 11
266.276239228668
 21
102.984384839736
  0
LINE
  5
57B
100
AcDbEntity
  8
0-0
100
AcDbLine
  6
CONTINUOUS
370
50
 10
318.274888811006
 20
205.857873459387
 11
318.274888811006
 21
202.857873459387
  0
LINE
  5
57C
100
AcDbEntity
  8
0-0
100
AcDbLine
  6
CONTINUOUS
370
50
 10
284.274888811006
 20
202.857873459387
 11
284.274888811006
 21
205.857873459387
  0
LINE
  5
57D
100
AcDbEntity
  8
0-0
100
AcDbLine
  6
CONTINUOUS
370
20
 10
318.274888811006
 20
205.857873459387
 11
284.274888811006
 21
205.857873459387
  0
LINE
  5
57E
100
AcDbEntity
  8
0-0
100
AcDbLine
  6
CONTINUOUS
370
20
 10
318.274888811006
 20
202.857873459387
 11
284.274888811006
 21
202.857873459387
  0
LINE
  5
57F
100
AcDbEntity
  8
0-0
100
AcDbLine
  6
CONTINUOUS
370
13
 10
284.384614364482
 20
202.857873459387
 11
284.274888811006
 21
202.967599012863
  0
LINE
  5
580
100
AcDbEntity
  8
0-0
100
AcDbLine
  6
CONTINUOUS
370
13
 10
286.505934708042
 20
202.857873459387
 11
284.274888811006
 21
205.088919356422
  0
LINE
  5
581
100
AcDbEntity
  8
0-0
100
AcDbLine
  6
CONTINUOUS
370
13
 10
288.627255051601
 20
202.857873459387
 11
285.627255051601
 21
205.857873459387
  0
LINE
  5
582
100
AcDbEntity
  8
0-0
100
AcDbLine
  6
CONTINUOUS
370
13
 10
290.748575395161
 20
202.857873459387
 11
287.748575395161
 21
205.857873459387
  0
LINE
  5
583
100
AcDbEntity
  8
0-0
100
AcDbLine
  6
CONTINUOUS
370
13
 10
292.869895738721
 20
202.857873459387
 11
289.869895738721
 21
205.857873459387
  0
LINE
  5
584
100
AcDbEntity
  8
0-0
100
AcDbLine
  6
CONTINUOUS
370
13
 10
294.990344452693
 20
202.858745088974
 11
291.99121608228
 21
205.857873459387
  0
LINE
  5
585
100
AcDbEntity
  8
0-0
100
AcDbLine
  6
CONTINUOUS
370
13
 10
297.11253642584
 20
202.857873459387
 11
294.11253642584
 21
205.857873459387
  0
LINE
  5
586
100
AcDbEntity
  8
0-0
100
AcDbLine
  6
CONTINUOUS
370
13
 10
299.2338567694
 20
202.857873459387
 11
296.2338567694
 21
205.857873459387
  0
LINE
  5
587
100
AcDbEntity
  8
0-0
100
AcDbLine
  6
CONTINUOUS
370
13
 10
301.355177112959
 20
202.857873459387
 11
298.355177112959
 21
205.857873459387
  0
LINE
  5
588
100
AcDbEntity
  8
0-0
100
AcDbLine
  6
CONTINUOUS
370
13
 10
303.476497456519
 20
202.857873459387
 11
300.476497456519
 21
205.857873459387
  0
LINE
  5
589
100
AcDbEntity
  8
0-0
100
AcDbLine
  6
CONTINUOUS
370
13
 10
305.597817800078
 20
202.857873459387
 11
302.597817800078
 21
205.857873459387
  0
LINE
  5
58A
100
AcDbEntity
  8
0-0
100
AcDbLine
  6
CONTINUOUS
370
13
 10
307.719138143638
 20
202.857873459387
 11
304.719138143638
 21
205.857873459387
  0
LINE
  5
58B
100
AcDbEntity
  8
0-0
100
AcDbLine
  6
CONTINUOUS
370
13
 10
309.840458487198
 20
202.857873459387
 11
306.840458487198
 21
205.857873459387
  0
LINE
  5
58C
100
AcDbEntity
  8
0-0
100
AcDbLine
  6
CONTINUOUS
370
13
 10
311.961778830757
 20
202.857873459387
 11
308.961778830757
 21
205.857873459387
  0
LINE
  5
58D
100
AcDbEntity
  8
0-0
100
AcDbLine
  6
CONTINUOUS
370
13
 10
314.083099174317
 20
202.857873459387
 11
311.083099174317
 21
205.857873459387
  0
LINE
  5
58E
100
AcDbEntity
  8
0-0
100
AcDbLine
  6
CONTINUOUS
370
13
 10
316.204419517877
 20
202.857873459387
 11
313.204419517876
 21
205.857873459387
  0
LINE
  5
58F
100
AcDbEntity
  8
0-0
100
AcDbLine
  6
CONTINUOUS
370
13
 10
318.274888811006
 20
202.908724509817
 11
315.325739861436
 21
205.857873459387
  0
LINE
  5
590
100
AcDbEntity
  8
0-0
100
AcDbLine
  6
CONTINUOUS
370
13
 10
318.274888811006
 20
205.030044853377
 11
317.447060204996
 21
205.857873459387
  0
LINE
  5
591
100
AcDbEntity
  8
0-0
100
AcDbLine
  6
CONTINUOUS
370
13
 10
284.274888811006
 20
204.855462549658
 11
285.277299720736
 21
205.857873459387
  0
LINE
  5
592
100
AcDbEntity
  8
0-0
100
AcDbLine
  6
CONTINUOUS
370
13
 10
284.398620064295
 20
202.857873459387
 11
287.398620064295
 21
205.857873459387
  0
LINE
  5
593
100
AcDbEntity
  8
0-0
100
AcDbLine
  6
CONTINUOUS
370
13
 10
286.519940407855
 20
202.857873459387
 11
289.519940407855
 21
205.857873459387
  0
LINE
  5
594
100
AcDbEntity
  8
0-0
100
AcDbLine
  6
CONTINUOUS
370
13
 10
288.641260751414
 20
202.857873459387
 11
291.641260751415
 21
205.857873459387
  0
LINE
  5
595
100
AcDbEntity
  8
0-0
100
AcDbLine
  6
CONTINUOUS
370
13
 10
290.762581094974
 20
202.857873459387
 11
293.762581094974
 21
205.857873459387
  0
LINE
  5
596
100
AcDbEntity
  8
0-0
100
AcDbLine
  6
CONTINUOUS
370
13
 10
292.883901438534
 20
202.857873459387
 11
295.883901438534
 21
205.857873459387
  0
LINE
  5
597
100
AcDbEntity
  8
0-0
100
AcDbLine
  6
CONTINUOUS
370
13
 10
295.005221782094
 20
202.857873459387
 11
298.005221782094
 21
205.857873459387
  0
LINE
  5
598
100
AcDbEntity
  8
0-0
100
AcDbLine
  6
CONTINUOUS
370
13
 10
297.126542125653
 20
202.857873459387
 11
300.126542125653
 21
205.857873459387
  0
LINE
  5
599
100
AcDbEntity
  8
0-0
100
AcDbLine
  6
CONTINUOUS
370
13
 10
299.247862469213
 20
202.857873459387
 11
302.247862469213
 21
205.857873459387
  0
LINE
  5
59A
100
AcDbEntity
  8
0-0
100
AcDbLine
  6
CONTINUOUS
370
13
 10
301.369182812773
 20
202.857873459387
 11
304.369182812772
 21
205.857873459387
  0
LINE
  5
59B
100
AcDbEntity
  8
0-0
100
AcDbLine
  6
CONTINUOUS
370
13
 10
303.490503156332
 20
202.857873459387
 11
306.490503156332
 21
205.857873459387
  0
LINE
  5
59C
100
AcDbEntity
  8
0-0
100
AcDbLine
  6
CONTINUOUS
370
13
 10
305.611823499891
 20
202.857873459387
 11
308.611823499892
 21
205.857873459387
  0
LINE
  5
59D
100
AcDbEntity
  8
0-0
100
AcDbLine
  6
CONTINUOUS
370
13
 10
307.733143843451
 20
202.857873459387
 11
310.733143843451
 21
205.857873459387
  0
LINE
  5
59E
100
AcDbEntity
  8
0-0
100
AcDbLine
  6
CONTINUOUS
370
13
 10
309.854464187011
 20
202.857873459387
 11
312.854464187011
 21
205.857873459387
  0
LINE
  5
59F
100
AcDbEntity
  8
0-0
100
AcDbLine
  6
CONTINUOUS
370
13
 10
311.975784530571
 20
202.857873459387
 11
314.975784530571
 21
205.857873459387
  0
LINE
  5
5A0
100
AcDbEntity
  8
0-0
100
AcDbLine
  6
CONTINUOUS
370
13
 10
314.09710487413
 20
202.857873459387
 11
317.09710487413
 21
205.857873459387
  0
LINE
  5
5A1
100
AcDbEntity
  8
0-0
100
AcDbLine
  6
CONTINUOUS
370
13
 10
316.21842521769
 20
202.857873459387
 11
318.274888811006
 21
204.914337052703
  0
LINE
  5
5A2
100
AcDbEntity
  8
0-0
100
AcDbLine
  6
CONTINUOUS
370
50
 10
317.276239228668
 20
210.007873459386
 11
300.276239228668
 21
210.007873459386
  0
CIRCLE
  5
5A3
100
AcDbEntity
  8
0-0
100
AcDbCircle
  6
CONTINUOUS
370
50
 10
277.276239228668
 20
215.007391833893
 40
2.5
  0
LINE
  5
5A4
100
AcDbEntity
  8
0-0
100
AcDbLine
  6
CONTINUOUS
370
50
 10
271.026239228668
 20
166.384384839736
 11
283.526239228668
 21
166.384384839736
  0
LINE
  5
5A5
100
AcDbEntity
  8
0-0
100
AcDbLine
  6
CONTINUOUS
370
50
 10
272.776239228668
 20
150.384384839736
 11
281.776239228668
 21
150.384384839736
  0
LINE
  5
5A6
100
AcDbEntity
  8
0-0
100
AcDbLine
  6
CONTINUOUS
370
50
 10
272.776239228668
 20
154.984384839736
 11
272.776239228668
 21
150.384384839736
  0
LINE
  5
5A7
100
AcDbEntity
  8
0-0
100
AcDbLine
  6
CONTINUOUS
370
50
 10
281.776239228668
 20
154.984384839736
 11
281.776239228668
 21
150.384384839736
  0
LINE
  5
5A8
100
AcDbEntity
  8
0-0
100
AcDbLine
  6
CONTINUOUS
370
50
 10
271.026239228668
 20
225.007391833893
 11
271.026239228668
 21
211.007391833893
  0
LINE
  5
5A9
100
AcDbEntity
  8
0-0
100
AcDbLine
  6
CONTINUOUS
370
50
 10
283.526239228668
 20
211.007391833893
 11
283.526239228668
 21
225.007391833893
  0
LINE
  5
5AA
100
AcDbEntity
  8
0-0
100
AcDbLine
  6
CONTINUOUS
370
50
 10
273.026239228668
 20
209.007391833893
 11
281.526239228668
 21
209.007391833893
  0
LINE
  5
5AB
100
AcDbEntity
  8
0-0
100
AcDbLine
  6
CONTINUOUS
370
50
 10
273.026239228668
 20
227.007391833893
 11
281.526239228668
 21
227.007391833893
  0
LINE
  5
5AC
100
AcDbEntity
  8
0-0
100
AcDbLine
  6
CONTINUOUS
370
50
 10
283.526239228668
 20
211.007391833893
 11
281.526239228668
 21
209.007391833893
  0
LINE
  5
5AD
100
AcDbEntity
  8
0-0
100
AcDbLine
  6
CONTINUOUS
370
50
 10
283.526239228668
 20
225.007391833893
 11
281.526239228668
 21
227.007391833893
  0
LINE
  5
5AE
100
AcDbEntity
  8
0-0
100
AcDbLine
  6
CONTINUOUS
370
50
 10
273.026239228668
 20
227.007391833893
 11
271.026239228668
 21
225.007391833893
  0
LINE
  5
5AF
100
AcDbEntity
  8
0-0
100
AcDbLine
  6
CONTINUOUS
370
50
 10
271.026239228668
 20
211.007391833893
 11
273.026239228668
 21
209.007391833893
  0
LINE
  5
5B0
100
AcDbEntity
  8
0-0
100
AcDbLine
  6
CONTINUOUS
370
50
 10
271.026239228668
 20
154.984384839736
 11
272.776239228668
 21
154.984384839736
  0
LINE
  5
5B1
100
AcDbEntity
  8
0-0
100
AcDbLine
  6
CONTINUOUS
370
50
 10
271.026239228668
 20
166.384384839736
 11
271.026239228668
 21
154.984384839736
  0
LINE
  5
5B2
100
AcDbEntity
  8
0-0
100
AcDbLine
  6
CONTINUOUS
370
50
 10
273.026239228668
 20
166.384384839736
 11
273.026239228668
 21
150.384384839736
  0
LINE
  5
5B3
100
AcDbEntity
  8
0-0
100
AcDbLine
  6
CONTINUOUS
370
50
 10
281.526239228668
 20
166.384384839736
 11
281.526239228668
 21
150.384384839736
  0
LINE
  5
5B4
100
AcDbEntity
  8
0-0
100
AcDbLine
  6
CONTINUOUS
370
50
 10
283.526239228668
 20
166.384384839736
 11
283.526239228668
 21
154.984384839736
  0
LINE
  5
5B5
100
AcDbEntity
  8
0-0
100
AcDbLine
  6
CONTINUOUS
370
50
 10
283.526239228668
 20
225.007391833893
 11
281.526239228668
 21
227.007391833893
  0
LINE
  5
5B6
100
AcDbEntity
  8
0-0
100
AcDbLine
  6
CONTINUOUS
370
50
 10
283.526239228668
 20
211.007391833893
 11
281.526239228668
 21
209.007391833893
  0
LINE
  5
5B7
100
AcDbEntity
  8
0-0
100
AcDbLine
  6
CONTINUOUS
370
50
 10
273.026239228668
 20
209.007391833893
 11
271.026239228668
 21
211.007391833893
  0
LINE
  5
5B8
100
AcDbEntity
  8
0-0
100
AcDbLine
  6
CONTINUOUS
370
50
 10
271.026239228668
 20
225.007391833893
 11
273.026239228668
 21
227.007391833893
  0
ARC
  5
5B9
100
AcDbEntity
  8
0-0
100
AcDbCircle
  6
CONTINUOUS
370
50
 10
301.276239228668
 20
134.984384839736
 40
16
100
AcDbArc
 50
93.583321698472
 51
-93.583321698472
  0
LINE
  5
5BA
100
AcDbEntity
  8
0-0
100
AcDbLine
  6
CONTINUOUS
370
50
 10
265.776239228668
 20
154.984384839736
 11
265.776239228668
 21
114.984384839736
  0
LINE
  5
5BB
100
AcDbEntity
  8
0-0
100
AcDbLine
  6
CONTINUOUS
370
50
 10
265.776239228668
 20
210.007391833893
 11
265.776239228668
 21
228.007391833893
  0
LINE
  5
5BC
100
AcDbEntity
  8
0-0
100
AcDbLine
  6
CONTINUOUS
370
50
 10
300.276239228668
 20
228.007391833893
 11
265.776239228668
 21
228.007391833893
  0
CIRCLE
  5
5BD
100
AcDbEntity
  8
0-0
100
AcDbCircle
  6
CONTINUOUS
370
50
 10
269.776239228668
 20
145.984384839736
 40
3
  0
CIRCLE
  5
5BE
100
AcDbEntity
  8
0-0
100
AcDbCircle
  6
CONTINUOUS
370
50
 10
269.776239228668
 20
123.984384839736
 40
3
  0
CIRCLE
  5
5BF
100
AcDbEntity
  8
0-0
100
AcDbCircle
  6
CONTINUOUS
370
50
 10
269.776239228668
 20
145.984384839736
 40
1.6
  0
CIRCLE
  5
5C0
100
AcDbEntity
  8
0-0
100
AcDbCircle
  6
CONTINUOUS
370
50
 10
269.776239228668
 20
123.984384839736
 40
1.6
  0
LINE
  5
5C1
100
AcDbEntity
  8
0-0
100
AcDbLine
  6
CONTINUOUS
370
50
 10
300.276239228668
 20
151.463569559565
 11
291.776239228668
 21
154.984384839736
  0
LINE
  5
5C2
100
AcDbEntity
  8
0-0
100
AcDbLine
  6
CONTINUOUS
370
50
 10
300.276239228668
 20
151.453744551072
 11
300.276239228668
 21
150.953104262407
  0
LINE
  5
5C3
100
AcDbEntity
  8
0-0
100
AcDbLine
  6
CONTINUOUS
370
50
 10
300.276239228668
 20
118.515025128401
 11
300.276239228668
 21
119.015665417065
  0
LINE
  5
5C4
100
AcDbEntity
  8
0-0
100
AcDbLine
  6
CONTINUOUS
370
50
 10
300.276239228668
 20
118.505200119908
 11
291.776239228668
 21
114.984384839736
  0
LINE
  5
5C5
100
AcDbEntity
  8
0-0
100
AcDbLine
  6
CONTINUOUS
370
50
 10
300.276239228668
 20
210.007391833893
 11
300.276239228667
 21
228.007391833893
  0
LINE
  5
5C6
100
AcDbEntity
  8
0-0
100
AcDbLine
  6
CONTINUOUS
370
50
 10
291.776239228668
 20
210.007391833893
 11
291.776239228668
 21
219.257391833893
  0
LINE
  5
5C7
100
AcDbEntity
  8
0-0
100
AcDbLine
  6
CONTINUOUS
370
50
 10
291.776239228668
 20
226.757391833893
 11
291.776239228668
 21
228.007391833893
  0
LINE
  5
5C8
100
AcDbEntity
  8
0-0
100
AcDbLine
  6
CONTINUOUS
370
50
 10
265.776239228668
 20
226.757391833893
 11
272.776239228668
 21
226.757391833893
  0
LINE
  5
5C9
100
AcDbEntity
  8
0-0
100
AcDbLine
  6
CONTINUOUS
370
50
 10
281.776239228668
 20
226.757391833893
 11
291.776239228668
 21
226.757391833893
  0
LINE
  5
5CA
100
AcDbEntity
  8
0-0
100
AcDbLine
  6
CONTINUOUS
370
50
 10
265.776239228668
 20
223.007391833893
 11
271.026239228668
 21
223.007391833893
  0
LINE
  5
5CB
100
AcDbEntity
  8
0-0
100
AcDbLine
  6
CONTINUOUS
370
50
 10
283.526239228668
 20
223.007391833893
 11
299.672685838075
 21
223.007391833893
  0
LINE
  5
5CC
100
AcDbEntity
  8
0-0
100
AcDbLine
  6
CONTINUOUS
370
50
 10
265.776239228668
 20
219.257391833893
 11
271.026239228668
 21
219.257391833893
  0
LINE
  5
5CD
100
AcDbEntity
  8
0-0
100
AcDbLine
  6
CONTINUOUS
370
50
 10
283.526239228668
 20
219.257391833893
 11
291.776239228668
 21
219.257391833893
  0
LINE
  5
5CE
100
AcDbEntity
  8
0-0
100
AcDbLine
  6
CONTINUOUS
370
50
 10
272.776239228668
 20
154.984384839736
 11
272.776239228668
 21
149.184384839736
  0
LINE
  5
5CF
100
AcDbEntity
  8
0-0
100
AcDbLine
  6
CONTINUOUS
370
50
 10
281.776239228668
 20
154.984384839736
 11
281.776239228668
 21
149.184384839736
  0
LINE
  5
5D0
100
AcDbEntity
  8
0-0
100
AcDbLine
  6
CONTINUOUS
370
50
 10
272.776239228668
 20
120.784384839736
 11
272.776239228668
 21
114.984384839736
  0
LINE
  5
5D1
100
AcDbEntity
  8
0-0
100
AcDbLine
  6
CONTINUOUS
370
50
 10
281.776239228668
 20
120.784384839736
 11
281.776239228668
 21
114.984384839736
  0
LINE
  5
5D2
100
AcDbEntity
  8
0-0
100
AcDbLine
  6
CONTINUOUS
370
50
 10
272.776239228668
 20
228.007391833893
 11
272.776239228668
 21
226.757391833893
  0
LINE
  5
5D3
100
AcDbEntity
  8
0-0
100
AcDbLine
  6
CONTINUOUS
370
50
 10
281.776239228668
 20
228.007391833893
 11
281.776239228668
 21
226.757391833893
  0
LINE
  5
5D4
100
AcDbEntity
  8
0-0
100
AcDbLine
  6
CONTINUOUS
370
50
 10
272.776239228668
 20
114.984384839736
 11
265.776239228668
 21
114.984384839736
  0
LINE
  5
5D5
100
AcDbEntity
  8
0-0
100
AcDbLine
  6
CONTINUOUS
370
50
 10
291.776239228668
 20
114.984384839736
 11
281.776239228668
 21
114.984384839736
  0
LINE
  5
5D6
100
AcDbEntity
  8
0-0
100
AcDbLine
  6
CONTINUOUS
370
50
 10
272.776239228668
 20
154.984384839736
 11
265.776239228668
 21
154.984384839736
  0
LINE
  5
5D7
100
AcDbEntity
  8
0-0
100
AcDbLine
  6
CONTINUOUS
370
50
 10
291.776239228668
 20
154.984384839736
 11
281.776239228668
 21
154.984384839736
  0
LINE
  5
5D8
100
AcDbEntity
  8
0-0
100
AcDbLine
  6
CONTINUOUS
370
50
 10
281.776239228668
 20
120.784384839736
 11
272.776239228668
 21
120.784384839736
  0
LINE
  5
5D9
100
AcDbEntity
  8
0-0
100
AcDbLine
  6
CONTINUOUS
370
50
 10
281.776239228668
 20
149.184384839736
 11
272.776239228668
 21
149.184384839736
  0
LINE
  5
5DA
100
AcDbEntity
  8
0-0
100
AcDbLine
  6
CONTINUOUS
370
30
 10
299.600259431203
 20
223.007391833893
 11
291.776239228668
 21
219.257391833893
  0
LINE
  5
5DB
100
AcDbEntity
  8
0-0
100
AcDbLine
  6
CONTINUOUS
370
30
 10
299.600259431203
 20
223.007391833893
 11
291.776239228668
 21
226.757391833893
  0
LINE
  5
5DC
100
AcDbEntity
  8
0-0
100
AcDbLine
  6
CONTINUOUS
370
50
 10
300.276239228668
 20
210.007391833893
 11
282.526239228668
 21
210.007391833893
  0
LINE
  5
5DD
100
AcDbEntity
  8
0-0
100
AcDbLine
  6
CONTINUOUS
370
50
 10
272.026239228668
 20
210.007391833893
 11
265.776239228668
 21
210.007391833893
  0
LINE
  5
5DE
100
AcDbEntity
  8
0-0
100
AcDbLine
  6
CONTINUOUS
370
50
 10
271.026239228668
 20
103.584384839736
 11
283.526239228668
 21
103.584384839736
  0
LINE
  5
5DF
100
AcDbEntity
  8
0-0
100
AcDbLine
  6
CONTINUOUS
370
50
 10
272.776239228668
 20
119.584384839736
 11
281.776239228668
 21
119.584384839736
  0
LINE
  5
5E0
100
AcDbEntity
  8
0-0
100
AcDbLine
  6
CONTINUOUS
370
50
 10
272.776239228668
 20
114.984384839736
 11
272.776239228668
 21
119.584384839736
  0
LINE
  5
5E1
100
AcDbEntity
  8
0-0
100
AcDbLine
  6
CONTINUOUS
370
50
 10
281.776239228668
 20
114.984384839736
 11
281.776239228668
 21
119.584384839736
  0
LINE
  5
5E2
100
AcDbEntity
  8
0-0
100
AcDbLine
  6
CONTINUOUS
370
50
 10
281.776239228668
 20
114.984384839736
 11
283.526239228668
 21
114.984384839736
  0
LINE
  5
5E3
100
AcDbEntity
  8
0-0
100
AcDbLine
  6
CONTINUOUS
370
50
 10
271.026239228668
 20
114.984384839736
 11
272.776239228668
 21
114.984384839736
  0
LINE
  5
5E4
100
AcDbEntity
  8
0-0
100
AcDbLine
  6
CONTINUOUS
370
50
 10
271.026239228668
 20
103.584384839736
 11
271.026239228668
 21
114.984384839736
  0
LINE
  5
5E5
100
AcDbEntity
  8
0-0
100
AcDbLine
  6
CONTINUOUS
370
50
 10
273.026239228668
 20
103.584384839736
 11
273.026239228668
 21
119.584384839736
  0
LINE
  5
5E6
100
AcDbEntity
  8
0-0
100
AcDbLine
  6
CONTINUOUS
370
50
 10
281.526239228668
 20
103.584384839736
 11
281.526239228668
 21
119.584384839736
  0
LINE
  5
5E7
100
AcDbEntity
  8
0-0
100
AcDbLine
  6
CONTINUOUS
370
50
 10
283.526239228668
 20
103.584384839736
 11
283.526239228668
 21
114.984384839736
  0
CIRCLE
  5
5E8
100
AcDbEntity
  8
0-0
100
AcDbCircle
  6
DIVIDE
370
13
 10
277.276239228668
 20
215.007391833893
 40
2.5
  0
LINE
  5
5E9
100
AcDbEntity
  8
0-0
100
AcDbLine
  6
DIVIDE
370
13
 10
267.276239228668
 20
208.757391833893
 11
281.276239228668
 21
208.757391833893
  0
LINE
  5
5EA
100
AcDbEntity
  8
0-0
100
AcDbLine
  6
DIVIDE
370
13
 10
281.276239228668
 20
221.257391833893
 11
267.276239228668
 21
221.257391833893
  0
LINE
  5
5EB
100
AcDbEntity
  8
0-0
100
AcDbLine
  6
DIVIDE
370
13
 10
283.276239228668
 20
210.757391833893
 11
283.276239228668
 21
219.257391833893
  0
LINE
  5
5EC
100
AcDbEntity
  8
0-0
100
AcDbLine
  6
DIVIDE
370
13
 10
265.276239228668
 20
210.757391833893
 11
265.276239228668
 21
219.257391833893
  0
LINE
  5
5ED
100
AcDbEntity
  8
0-0
100
AcDbLine
  6
DIVIDE
370
13
 10
281.276239228668
 20
221.257391833893
 11
283.276239228668
 21
219.257391833893
  0
LINE
  5
5EE
100
AcDbEntity
  8
0-0
100
AcDbLine
  6
DIVIDE
370
13
 10
267.276239228668
 20
221.257391833893
 11
265.276239228668
 21
219.257391833893
  0
LINE
  5
5EF
100
AcDbEntity
  8
0-0
100
AcDbLine
  6
DIVIDE
370
13
 10
265.276239228668
 20
210.757391833893
 11
267.276239228668
 21
208.757391833893
  0
LINE
  5
5F0
100
AcDbEntity
  8
0-0
100
AcDbLine
  6
DIVIDE
370
13
 10
281.276239228668
 20
208.757391833893
 11
283.276239228668
 21
210.757391833893
  0
LINE
  5
5F1
100
AcDbEntity
  8
0-0
100
AcDbLine
  6
DIVIDE
370
13
 10
267.276239228668
 20
221.257391833893
 11
265.276239228668
 21
219.257391833893
  0
LINE
  5
5F2
100
AcDbEntity
  8
0-0
100
AcDbLine
  6
DIVIDE
370
13
 10
281.276239228668
 20
221.257391833893
 11
283.276239228668
 21
219.257391833893
  0
LINE
  5
5F3
100
AcDbEntity
  8
0-0
100
AcDbLine
  6
DIVIDE
370
13
 10
283.276239228668
 20
210.757391833893
 11
281.276239228668
 21
208.757391833893
  0
LINE
  5
5F4
100
AcDbEntity
  8
0-0
100
AcDbLine
  6
DIVIDE
370
13
 10
267.276239228668
 20
208.757391833893
 11
265.276239228668
 21
210.757391833893
  0
LINE
  5
5F5
100
AcDbEntity
  8
0-0
100
AcDbLine
  6
DIVIDE
370
13
 10
271.026239228668
 20
172.384384839736
 11
283.526239228668
 21
172.384384839736
  0
LINE
  5
5F6
100
AcDbEntity
  8
0-0
100
AcDbLine
  6
DIVIDE
370
13
 10
272.776239228668
 20
156.384384839736
 11
281.776239228668
 21
156.384384839736
  0
LINE
  5
5F7
100
AcDbEntity
  8
0-0
100
AcDbLine
  6
DIVIDE
370
13
 10
272.776239228668
 20
160.984384839736
 11
272.776239228668
 21
156.384384839736
  0
LINE
  5
5F8
100
AcDbEntity
  8
0-0
100
AcDbLine
  6
DIVIDE
370
13
 10
281.776239228668
 20
160.984384839736
 11
281.776239228668
 21
156.384384839736
  0
LINE
  5
5F9
100
AcDbEntity
  8
0-0
100
AcDbLine
  6
DIVIDE
370
13
 10
281.776239228668
 20
160.984384839736
 11
283.526239228668
 21
160.984384839736
  0
LINE
  5
5FA
100
AcDbEntity
  8
0-0
100
AcDbLine
  6
DIVIDE
370
13
 10
271.026239228668
 20
160.984384839736
 11
272.776239228668
 21
160.984384839736
  0
LINE
  5
5FB
100
AcDbEntity
  8
0-0
100
AcDbLine
  6
DIVIDE
370
13
 10
271.026239228668
 20
172.384384839736
 11
271.026239228668
 21
160.984384839736
  0
LINE
  5
5FC
100
AcDbEntity
  8
0-0
100
AcDbLine
  6
DIVIDE
370
13
 10
283.526239228668
 20
172.384384839736
 11
283.526239228668
 21
160.984384839736
  0
LINE
  5
5FD
100
AcDbEntity
  8
0-0
100
AcDbLine
  6
DIVIDE
370
13
 10
271.026239228668
 20
97.5843848397358
 11
283.526239228668
 21
97.5843848397358
  0
LINE
  5
5FE
100
AcDbEntity
  8
0-0
100
AcDbLine
  6
DIVIDE
370
13
 10
272.776239228668
 20
113.584384839736
 11
281.776239228668
 21
113.584384839736
  0
LINE
  5
5FF
100
AcDbEntity
  8
0-0
100
AcDbLine
  6
DIVIDE
370
13
 10
272.776239228668
 20
108.984384839736
 11
272.776239228668
 21
113.584384839736
  0
LINE
  5
600
100
AcDbEntity
  8
0-0
100
AcDbLine
  6
DIVIDE
370
13
 10
281.776239228668
 20
108.984384839736
 11
281.776239228668
 21
113.584384839736
  0
LINE
  5
601
100
AcDbEntity
  8
0-0
100
AcDbLine
  6
DIVIDE
370
13
 10
281.776239228668
 20
108.984384839736
 11
283.526239228668
 21
108.984384839736
  0
LINE
  5
602
100
AcDbEntity
  8
0-0
100
AcDbLine
  6
DIVIDE
370
13
 10
271.026239228668
 20
108.984384839736
 11
272.776239228668
 21
108.984384839736
  0
LINE
  5
603
100
AcDbEntity
  8
0-0
100
AcDbLine
  6
DIVIDE
370
13
 10
271.026239228668
 20
97.5843848397358
 11
271.026239228668
 21
108.984384839736
  0
LINE
  5
604
100
AcDbEntity
  8
0-0
100
AcDbLine
  6
DIVIDE
370
13
 10
283.526239228668
 20
97.5843848397358
 11
283.526239228668
 21
108.984384839736
  0
LINE
  5
605
100
AcDbEntity
  8
0-0
100
AcDbLine
  6
CONTINUOUS
370
13
 10
262.026239228668
 20
237.857391833894
 11
240.361038120407
 21
237.857391833894
  0
LINE
  5
606
100
AcDbEntity
  8
0-0
100
AcDbLine
  6
CONTINUOUS
370
50
 10
181.536700442946
 20
154.984384839736
 11
181.536700442946
 21
114.984384839736
  0
LINE
  5
607
100
AcDbEntity
  8
0-0
100
AcDbLine
  6
CONTINUOUS
370
50
 10
186.536700442946
 20
118.284384839736
 11
183.236700442946
 21
114.984384839736
  0
LINE
  5
608
100
AcDbEntity
  8
0-0
100
AcDbLine
  6
CONTINUOUS
370
50
 10
186.536700442946
 20
151.684384839736
 11
189.836700442946
 21
154.984384839736
  0
LINE
  5
609
100
AcDbEntity
  8
0-0
100
AcDbLine
  6
CONTINUOUS
370
50
 10
186.536700442946
 20
151.684384839736
 11
183.236700442946
 21
154.984384839736
  0
LINE
  5
60A
100
AcDbEntity
  8
0-0
100
AcDbLine
  6
CONTINUOUS
370
50
 10
186.536700442946
 20
118.284384839736
 11
189.836700442946
 21
114.984384839736
  0
LINE
  5
60B
100
AcDbEntity
  8
0-0
100
AcDbLine
  6
CONTINUOUS
370
50
 10
197.536700442946
 20
114.984384839736
 11
189.836700442946
 21
114.984384839736
  0
LINE
  5
60C
100
AcDbEntity
  8
0-0
100
AcDbLine
  6
CONTINUOUS
370
50
 10
183.236700442946
 20
114.984384839736
 11
181.536700442946
 21
114.984384839736
  0
LINE
  5
60D
100
AcDbEntity
  8
0-0
100
AcDbLine
  6
CONTINUOUS
370
50
 10
183.236700442946
 20
154.984384839736
 11
181.536700442946
 21
154.984384839736
  0
LINE
  5
60E
100
AcDbEntity
  8
0-0
100
AcDbLine
  6
CONTINUOUS
370
50
 10
197.536700442946
 20
154.984384839736
 11
189.836700442946
 21
154.984384839736
  0
LINE
  5
60F
100
AcDbEntity
  8
0-0
100
AcDbLine
  6
CONTINUOUS
370
50
 10
199.536700442946
 20
116.984384839736
 11
199.536700442946
 21
152.984384839736
  0
ARC
  5
610
100
AcDbEntity
  8
0-0
100
AcDbCircle
  6
CONTINUOUS
370
50
 10
197.536700442946
 20
152.984384839736
 40
2
100
AcDbArc
 50
0
 51
90
  0
ARC
  5
611
100
AcDbEntity
  8
0-0
100
AcDbCircle
  6
CONTINUOUS
370
50
 10
197.536700442946
 20
116.984384839736
 40
2
100
AcDbArc
 50
-90
 51
0
  0
LINE
  5
612
100
AcDbEntity
  8
0-0
100
AcDbLine
  6
CONTINUOUS
370
50
 10
200.536700442946
 20
166.384384839736
 11
182.536700442946
 21
166.384384839736
  0
CIRCLE
  5
613
100
AcDbEntity
  8
0-0
100
AcDbCircle
  6
CONTINUOUS
370
50
 10
194.536700442946
 20
159.884384839736
 40
1.1
  0
LINE
  5
614
100
AcDbEntity
  8
0-0
100
AcDbLine
  6
CONTINUOUS
370
50
 10
200.536700442946
 20
150.384384839736
 11
199.536864394375
 21
150.384384839736
  0
LINE
  5
615
100
AcDbEntity
  8
0-0
100
AcDbLine
  6
CONTINUOUS
370
50
 10
200.536700442946
 20
154.984384839736
 11
182.536700442946
 21
154.984384839736
  0
LINE
  5
616
100
AcDbEntity
  8
0-0
100
AcDbLine
  6
CONTINUOUS
370
50
 10
184.536700442946
 20
166.384384839736
 11
184.536700442946
 21
154.984384839736
  0
LINE
  5
617
100
AcDbEntity
  8
0-0
100
AcDbLine
  6
CONTINUOUS
370
50
 10
182.536700442946
 20
166.384384839736
 11
182.536700442946
 21
154.984384839736
  0
LINE
  5
618
100
AcDbEntity
  8
0-0
100
AcDbLine
  6
CONTINUOUS
370
50
 10
198.536700442946
 20
166.384384839736
 11
198.536700442946
 21
154.984384839736
  0
LINE
  5
619
100
AcDbEntity
  8
0-0
100
AcDbLine
  6
CONTINUOUS
370
50
 10
200.536700442946
 20
166.384384839736
 11
200.536700442946
 21
150.384384839736
  0
LINE
  5
61A
100
AcDbEntity
  8
0-0
100
AcDbLine
  6
CONTINUOUS
370
50
 10
200.536700442946
 20
103.584384839736
 11
182.536700442946
 21
103.584384839736
  0
CIRCLE
  5
61B
100
AcDbEntity
  8
0-0
100
AcDbCircle
  6
CONTINUOUS
370
50
 10
194.536700442946
 20
110.084384839736
 40
1.1
  0
LINE
  5
61C
100
AcDbEntity
  8
0-0
100
AcDbLine
  6
CONTINUOUS
370
50
 10
200.536700442946
 20
119.584384839736
 11
199.537829207767
 21
119.584384839736
  0
LINE
  5
61D
100
AcDbEntity
  8
0-0
100
AcDbLine
  6
CONTINUOUS
370
50
 10
200.536700442946
 20
114.984384839736
 11
182.536700442946
 21
114.984384839736
  0
LINE
  5
61E
100
AcDbEntity
  8
0-0
100
AcDbLine
  6
CONTINUOUS
370
50
 10
184.536700442946
 20
103.584384839736
 11
184.536700442946
 21
114.984384839736
  0
LINE
  5
61F
100
AcDbEntity
  8
0-0
100
AcDbLine
  6
CONTINUOUS
370
50
 10
182.536700442946
 20
103.584384839736
 11
182.536700442946
 21
114.984384839736
  0
LINE
  5
620
100
AcDbEntity
  8
0-0
100
AcDbLine
  6
CONTINUOUS
370
50
 10
198.536700442946
 20
103.584384839736
 11
198.536700442946
 21
114.984384839736
  0
LINE
  5
621
100
AcDbEntity
  8
0-0
100
AcDbLine
  6
CONTINUOUS
370
50
 10
200.536700442946
 20
103.584384839736
 11
200.536700442946
 21
119.584384839736
  0
LINE
  5
622
100
AcDbEntity
  8
0-0
100
AcDbLine
  6
DIVIDE
370
13
 10
200.536700442946
 20
97.5843848397358
 11
182.536700442946
 21
97.5843848397358
  0
LINE
  5
623
100
AcDbEntity
  8
0-0
100
AcDbLine
  6
DIVIDE
370
13
 10
200.536700442946
 20
108.984384839736
 11
182.536700442946
 21
108.984384839736
  0
LINE
  5
624
100
AcDbEntity
  8
0-0
100
AcDbLine
  6
DIVIDE
370
13
 10
182.536700442946
 20
97.5843848397358
 11
182.536700442946
 21
113.584384839736
  0
LINE
  5
625
100
AcDbEntity
  8
0-0
100
AcDbLine
  6
DIVIDE
370
13
 10
200.536700442946
 20
97.5843848397358
 11
200.536700442946
 21
113.584384839736
  0
LINE
  5
626
100
AcDbEntity
  8
0-0
100
AcDbLine
  6
DIVIDE
370
13
 10
200.536700442946
 20
172.384384839736
 11
182.536700442946
 21
172.384384839736
  0
LINE
  5
627
100
AcDbEntity
  8
0-0
100
AcDbLine
  6
DIVIDE
370
13
 10
200.536700442946
 20
160.984384839736
 11
182.536700442946
 21
160.984384839736
  0
LINE
  5
628
100
AcDbEntity
  8
0-0
100
AcDbLine
  6
DIVIDE
370
13
 10
182.536700442946
 20
172.384384839736
 11
182.536700442946
 21
156.384384839736
  0
LINE
  5
629
100
AcDbEntity
  8
0-0
100
AcDbLine
  6
DIVIDE
370
13
 10
200.536700442946
 20
172.384384839736
 11
200.536700442946
 21
156.384384839736
  0
LINE
  5
62A
100
AcDbEntity
  8
0-0
100
AcDbLine
  6
DIVIDE
370
13
 10
182.536700442946
 20
156.384384839736
 11
200.536700442946
 21
156.384384839736
  0
LINE
  5
62B
100
AcDbEntity
  8
0-0
100
AcDbLine
  6
DIVIDE
370
13
 10
199.036700442946
 20
160.984384839736
 11
200.786700442946
 21
160.984384839736
  0
LINE
  5
62C
100
AcDbEntity
  8
0-0
100
AcDbLine
  6
DIVIDE
370
13
 10
188.286700442946
 20
160.984384839736
 11
190.036700442946
 21
160.984384839736
  0
LINE
  5
62D
100
AcDbEntity
  8
0-0
100
AcDbLine
  6
DIVIDE
370
13
 10
182.536700442946
 20
113.584384839736
 11
200.536700442946
 21
113.584384839736
  0
LINE
  5
62E
100
AcDbEntity
  8
0-0
100
AcDbLine
  6
DIVIDE
370
13
 10
199.036700442946
 20
108.984384839736
 11
200.786700442946
 21
108.984384839736
  0
LINE
  5
62F
100
AcDbEntity
  8
0-0
100
AcDbLine
  6
DIVIDE
370
13
 10
188.286700442946
 20
108.984384839736
 11
190.036700442946
 21
108.984384839736
  0
LINE
  5
630
100
AcDbEntity
  8
0-0
100
AcDbLine
  6
DIVIDE
370
13
 10
198.536700442946
 20
172.384384839736
 11
198.536700442946
 21
160.984384839736
  0
LINE
  5
631
100
AcDbEntity
  8
0-0
100
AcDbLine
  6
DIVIDE
370
13
 10
184.536700442946
 20
172.384384839736
 11
184.536700442946
 21
160.984384839736
  0
LINE
  5
632
100
AcDbEntity
  8
0-0
100
AcDbLine
  6
DIVIDE
370
13
 10
184.536700442946
 20
97.5843848397358
 11
184.536700442946
 21
108.984384839736
  0
LINE
  5
633
100
AcDbEntity
  8
0-0
100
AcDbLine
  6
DIVIDE
370
13
 10
198.536700442946
 20
97.5843848397358
 11
198.536700442946
 21
108.984384839736
  0
ENDSEC
  0
SECTION
  2
OBJECTS
  0
DICTIONARY
  5
634
100
AcDbDictionary
  3
ACAD_GROUP
350
635
  3
ACAD_MLINESTYLE
350
636
  0
DICTIONARY
  5
635
102
{ACAD_REACTORS
330
634
102
}
100
AcDbDictionary
  0
DICTIONARY
  5
636
102
{ACAD_REACTORS
330
634
102
}
100
AcDbDictionary
  3
STANDARD
350
637
  0
MLINESTYLE
  5
637
102
{ACAD_REACTORS
330
636
102
}
100
AcDbMlineStyle
  2
Standard
 70
     0
  3

 62
     0
 51
90.0
 52
90.0
 71
     2
 49
0.5
 62
   256
  6
ByLayer
 49
-0.5
 62
   256
  6
ByLayer
  0
ENDSEC
  0
EOF
