999
Outputted By AR_CAD Ver.1.7.0
  0
SECTION
  2
HEADER
  9
$ACADVER
  1
AC1014
  9
$DWGCODEPAGE
  3
ANSI_932
  9
$EXTMIN
 10
0
 20
0
  9
$EXTMAX
 10
297
 20
210
  9
$INSBASE
 10
0.0
 20
0.0
 30
0.0
  9
$HANDLING
 70
     1
  9
$HANDSEED
  5
482
  9
$LTSCALE
 40
1
  0
ENDSEC
  0
SECTION
  2
TABLES
  0
TABLE
  2
VPORT
  5
1
100
AcDbSymbolTable
 70
     1
  0
VPORT
  5
30
100
AcDbSymbolTableRecord
100
AcDbViewportTableRecord
  2
*ACTIVE
 70
     0
 10
0.0
 20
0.0
 11
1.0
 21
1.0
 12
210.0
 22
148.5
 13
0.0
 23
0.0
 14
10.0
 24
10.0
 15
10.0
 25
10.0
 16
0.0
 26
0.0
 36
1.0
 17
0.0
 27
0.0
 37
0.0
 40
302.94
 41
1.333333
 42
50.0
 43
0.0
 44
0.0
 50
0.0
 51
0.0
 71
     0
 72
   100
 73
     1
 74
     1
 75
     0
 76
     0
 77
     0
 78
     0
  0
ENDTAB
  0
TABLE
  2
LTYPE
  5
2
100
AcDbSymbolTable
 70
     73
  0
LTYPE
  5
31
100
AcDbSymbolTableRecord
100
AcDbLinetypeTableRecord
  2
BYBLOCK
 70
    64
 3

 72
    65
 73
    0
 40
    0
  0
LTYPE
  5
32
100
AcDbSymbolTableRecord
100
AcDbLinetypeTableRecord
  2
BYLAYER
 70
    64
 3

 72
    65
 73
    0
 40
    0
  0
LTYPE
  5
33
100
AcDbSymbolTableRecord
100
AcDbLinetypeTableRecord
  2
CONTINUOUS
 70
    64
 3
CONTINUOUS
 72
    65
 73
    0
 40
    0
  0
LTYPE
  5
34
100
AcDbSymbolTableRecord
100
AcDbLinetypeTableRecord
  2
DASHED
 70
    64
 3

 72
    65
 73
    2
 40
    0.75
 49
    0.5
 74
    0
 49
    -0.25
 74
    0
  0
LTYPE
  5
35
100
AcDbSymbolTableRecord
100
AcDbLinetypeTableRecord
  2
DOT
 70
    64
 3

 72
    65
 73
    2
 40
    0.5
 49
    0.25
 74
    0
 49
    -0.25
 74
    0
  0
LTYPE
  5
36
100
AcDbSymbolTableRecord
100
AcDbLinetypeTableRecord
  2
DASHDOT
 70
    64
 3

 72
    65
 73
    4
 40
    3.5
 49
    1.84147386461011
 74
    0
 49
    -0.552842045129963
 74
    0
 49
    0.552842045129963
 74
    0
 49
    -0.552842045129963
 74
    0
  0
LTYPE
  5
37
100
AcDbSymbolTableRecord
100
AcDbLinetypeTableRecord
  2
DIVIDE
 70
    64
 3

 72
    65
 73
    6
 40
    3.5
 49
    1.4
 74
    0
 49
    -0.42
 74
    0
 49
    0.42
 74
    0
 49
    -0.42
 74
    0
 49
    0.42
 74
    0
 49
    -0.42
 74
    0
  0
LTYPE
  5
38
100
AcDbSymbolTableRecord
100
AcDbLinetypeTableRecord
  2
HIDDEN
 70
    64
 3

 72
    65
 73
    2
 40
    4
 49
    2
 74
    0
 49
    -2
 74
    0
  0
LTYPE
  5
39
100
AcDbSymbolTableRecord
100
AcDbLinetypeTableRecord
  2
CENTER
 70
    64
 3

 72
    65
 73
    4
 40
    2
 49
    1.25
 74
    0
 49
    -0.25
 74
    0
 49
    0.25
 74
    0
 49
    -0.25
 74
    0
  0
LTYPE
  5
3A
100
AcDbSymbolTableRecord
100
AcDbLinetypeTableRecord
  2
PHANTOM
 70
    64
 3

 72
    65
 73
    6
 40
    2.5
 49
    1.25
 74
    0
 49
    -0.25
 74
    0
 49
    0.25
 74
    0
 49
    -0.25
 74
    0
 49
    0.25
 74
    0
 49
    -0.25
 74
    0
  0
LTYPE
  5
3B
100
AcDbSymbolTableRecord
100
AcDbLinetypeTableRecord
  2

 70
    64
 3

 72
    65
 73
    6
 40
    1.75
 49
    0.5
 74
    0
 49
    -0.25
 74
    0
 49
    0.5
 74
    0
 49
    -0.25
 74
    0
 49
    0
 74
    0
 49
    -0.25
 74
    0
  0
LTYPE
  5
3C
100
AcDbSymbolTableRecord
100
AcDbLinetypeTableRecord
  2

 70
    64
 3

 72
    65
 73
    2
 40
    4
 49
    3
 74
    0
 49
    -1
 74
    0
  0
LTYPE
  5
3D
100
AcDbSymbolTableRecord
100
AcDbLinetypeTableRecord
  2

 70
    64
 3

 72
    65
 73
    3
 40
    4.5
 49
    1.5
 74
    0
 49
    -1.5
 74
    0
 49
    1.5
 74
    0
  0
LTYPE
  5
3E
100
AcDbSymbolTableRecord
100
AcDbLinetypeTableRecord
  2

 70
    64
 3

 72
    65
 73
    5
 40
    30
 49
    12
 74
    0
 49
    -1.5
 74
    0
 49
    3
 74
    0
 49
    -1.5
 74
    0
 49
    12
 74
    0
  0
LTYPE
  5
3F
100
AcDbSymbolTableRecord
100
AcDbLinetypeTableRecord
  2

 70
    64
 3

 72
    65
 73
    2
 40
    0.157
 49
    0.098
 74
    0
 49
    -0.059
 74
    0
  0
LTYPE
  5
40
100
AcDbSymbolTableRecord
100
AcDbLinetypeTableRecord
  2

 70
    64
 3

 72
    65
 73
    2
 40
    0.393
 49
    0.236
 74
    0
 49
    -0.157
 74
    0
  0
LTYPE
  5
41
100
AcDbSymbolTableRecord
100
AcDbLinetypeTableRecord
  2

 70
    64
 3

 72
    65
 73
    2
 40
    0.787
 49
    0.472
 74
    0
 49
    -0.315
 74
    0
  0
LTYPE
  5
42
100
AcDbSymbolTableRecord
100
AcDbLinetypeTableRecord
  2

 70
    64
 3

 72
    65
 73
    4
 40
    0.216
 49
    0.118
 74
    0
 49
    -0.039
 74
    0
 49
    0.02
 74
    0
 49
    -0.039
 74
    0
  0
LTYPE
  5
43
100
AcDbSymbolTableRecord
100
AcDbLinetypeTableRecord
  2

 70
    64
 3

 72
    65
 73
    4
 40
    0.433
 49
    0.236
 74
    0
 49
    -0.079
 74
    0
 49
    0.039
 74
    0
 49
    -0.079
 74
    0
  0
LTYPE
  5
44
100
AcDbSymbolTableRecord
100
AcDbLinetypeTableRecord
  2

 70
    64
 3

 72
    65
 73
    4
 40
    0.906
 49
    0.591
 74
    0
 49
    -0.118
 74
    0
 49
    0.079
 74
    0
 49
    -0.118
 74
    0
  0
LTYPE
  5
45
100
AcDbSymbolTableRecord
100
AcDbLinetypeTableRecord
  2

 70
    64
 3

 72
    65
 73
    6
 40
    0.551
 49
    0.236
 74
    0
 49
    -0.079
 74
    0
 49
    0.039
 74
    0
 49
    -0.079
 74
    0
 49
    0.039
 74
    0
 49
    -0.079
 74
    0
  0
LTYPE
  5
46
100
AcDbSymbolTableRecord
100
AcDbLinetypeTableRecord
  2

 70
    64
 3

 72
    65
 73
    6
 40
    0.875
 49
    0.25
 74
    0
 49
    -0.125
 74
    0
 49
    0.25
 74
    0
 49
    -0.125
 74
    0
 49
    0
 74
    0
 49
    -0.125
 74
    0
  0
LTYPE
  5
47
100
AcDbSymbolTableRecord
100
AcDbLinetypeTableRecord
  2

 70
    64
 3

 72
    65
 73
    6
 40
    3.5
 49
    1
 74
    0
 49
    -0.5
 74
    0
 49
    1
 74
    0
 49
    -0.5
 74
    0
 49
    0
 74
    0
 49
    -0.5
 74
    0
  0
LTYPE
  5
48
100
AcDbSymbolTableRecord
100
AcDbLinetypeTableRecord
  2

 70
    64
 3

 72
    65
 73
    4
 40
    1.125
 49
    0.75
 74
    0
 49
    -0.125
 74
    0
 49
    0.125
 74
    0
 49
    -0.125
 74
    0
  0
LTYPE
  5
49
100
AcDbSymbolTableRecord
100
AcDbLinetypeTableRecord
  2

 70
    64
 3

 72
    65
 73
    4
 40
    4
 49
    2.5
 74
    0
 49
    -0.5
 74
    0
 49
    0.5
 74
    0
 49
    -0.5
 74
    0
  0
LTYPE
  5
4A
100
AcDbSymbolTableRecord
100
AcDbLinetypeTableRecord
  2

 70
    64
 3

 72
    65
 73
    4
 40
    0.5
 49
    0.25
 74
    0
 49
    -0.125
 74
    0
 49
    0
 74
    0
 49
    -0.125
 74
    0
  0
LTYPE
  5
4B
100
AcDbSymbolTableRecord
100
AcDbLinetypeTableRecord
  2

 70
    64
 3

 72
    65
 73
    4
 40
    2
 49
    1
 74
    0
 49
    -0.5
 74
    0
 49
    0
 74
    0
 49
    -0.5
 74
    0
  0
LTYPE
  5
4C
100
AcDbSymbolTableRecord
100
AcDbLinetypeTableRecord
  2

 70
    64
 3

 72
    65
 73
    2
 40
    0.375
 49
    0.25
 74
    0
 49
    -0.125
 74
    0
  0
LTYPE
  5
4D
100
AcDbSymbolTableRecord
100
AcDbLinetypeTableRecord
  2

 70
    64
 3

 72
    65
 73
    2
 40
    1.5
 49
    1
 74
    0
 49
    -0.5
 74
    0
  0
LTYPE
  5
4E
100
AcDbSymbolTableRecord
100
AcDbLinetypeTableRecord
  2

 70
    64
 3

 72
    65
 73
    6
 40
    0.625
 49
    0.25
 74
    0
 49
    -0.125
 74
    0
 49
    0
 74
    0
 49
    -0.125
 74
    0
 49
    0
 74
    0
 49
    -0.125
 74
    0
  0
LTYPE
  5
4F
100
AcDbSymbolTableRecord
100
AcDbLinetypeTableRecord
  2

 70
    64
 3

 72
    65
 73
    6
 40
    2.5
 49
    1
 74
    0
 49
    -0.5
 74
    0
 49
    0
 74
    0
 49
    -0.5
 74
    0
 49
    0
 74
    0
 49
    -0.5
 74
    0
  0
LTYPE
  5
50
100
AcDbSymbolTableRecord
100
AcDbLinetypeTableRecord
  2

 70
    64
 3

 72
    65
 73
    2
 40
    0.125
 49
    0
 74
    0
 49
    -0.125
 74
    0
  0
LTYPE
  5
51
100
AcDbSymbolTableRecord
100
AcDbLinetypeTableRecord
  2

 70
    64
 3

 72
    65
 73
    2
 40
    0.5
 49
    0
 74
    0
 49
    -0.5
 74
    0
  0
LTYPE
  5
52
100
AcDbSymbolTableRecord
100
AcDbLinetypeTableRecord
  2

 70
    64
 3

 72
    65
 73
    2
 40
    0.188
 49
    0.126
 74
    0
 49
    -0.062
 74
    0
  0
LTYPE
  5
53
100
AcDbSymbolTableRecord
100
AcDbLinetypeTableRecord
  2

 70
    64
 3

 72
    65
 73
    2
 40
    0.75
 49
    0.5
 74
    0
 49
    -0.25
 74
    0
  0
LTYPE
  5
54
100
AcDbSymbolTableRecord
100
AcDbLinetypeTableRecord
  2

 70
    64
 3

 72
    65
 73
    6
 40
    1.25
 49
    0.625
 74
    0
 49
    -0.125
 74
    0
 49
    0.125
 74
    0
 49
    -0.125
 74
    0
 49
    0.125
 74
    0
 49
    -0.125
 74
    0
  0
LTYPE
  5
55
100
AcDbSymbolTableRecord
100
AcDbLinetypeTableRecord
  2

 70
    64
 3

 72
    65
 73
    6
 40
    5
 49
    2.5
 74
    0
 49
    -0.5
 74
    0
 49
    0.5
 74
    0
 49
    -0.5
 74
    0
 49
    0.5
 74
    0
 49
    -0.5
 74
    0
  0
LTYPE
  5
56
100
AcDbSymbolTableRecord
100
AcDbLinetypeTableRecord
  2

 70
    64
 3

 72
    65
 73
    5
 40
    2.5
 49
    0.5
 74
    0
 49
    -0.5
 74
    0
 49
    0.5
 74
    0
 49
    -0.5
 74
    0
 49
    0.5
 74
    0
  0
LTYPE
  5
57
100
AcDbSymbolTableRecord
100
AcDbLinetypeTableRecord
  2

 70
    64
 3

 72
    65
 73
    0
 40
    0
  0
LTYPE
  5
58
100
AcDbSymbolTableRecord
100
AcDbLinetypeTableRecord
  2

 70
    64
 3

 72
    65
 73
    0
 40
    0
  0
LTYPE
  5
59
100
AcDbSymbolTableRecord
100
AcDbLinetypeTableRecord
  2

 70
    64
 3

 72
    65
 73
    0
 40
    0
  0
LTYPE
  5
5A
100
AcDbSymbolTableRecord
100
AcDbLinetypeTableRecord
  2

 70
    64
 3

 72
    65
 73
    2
 40
    0.375
 49
    0.25
 74
    0
 49
    -0.125
 74
    0
  0
LTYPE
  5
5B
100
AcDbSymbolTableRecord
100
AcDbLinetypeTableRecord
  2

 70
    64
 3

 72
    65
 73
    2
 40
    0.5
 49
    0.375
 74
    0
 49
    -0.125
 74
    0
  0
LTYPE
  5
5C
100
AcDbSymbolTableRecord
100
AcDbLinetypeTableRecord
  2

 70
    64
 3

 72
    65
 73
    4
 40
    2
 49
    1.25
 74
    0
 49
    -0.25
 74
    0
 49
    0.25
 74
    0
 49
    -0.25
 74
    0
  0
LTYPE
  5
5D
100
AcDbSymbolTableRecord
100
AcDbLinetypeTableRecord
  2

 70
    64
 3

 72
    65
 73
    6
 40
    2.5
 49
    1.25
 74
    0
 49
    -0.25
 74
    0
 49
    0.25
 74
    0
 49
    -0.25
 74
    0
 49
    0.25
 74
    0
 49
    -0.25
 74
    0
  0
LTYPE
  5
5E
100
AcDbSymbolTableRecord
100
AcDbLinetypeTableRecord
  2

 70
    64
 3

 72
    65
 73
    4
 40
    1
 49
    0.5
 74
    0
 49
    -0.25
 74
    0
 49
    0
 74
    0
 49
    -0.25
 74
    0
  0
LTYPE
  5
5F
100
AcDbSymbolTableRecord
100
AcDbLinetypeTableRecord
  2

 70
    64
 3

 72
    65
 73
    0
 40
    0
  0
LTYPE
  5
60
100
AcDbSymbolTableRecord
100
AcDbLinetypeTableRecord
  2

 70
    64
 3

 72
    65
 73
    2
 40
    0.075
 49
    0.04
 74
    0
 49
    -0.035
 74
    0
  0
LTYPE
  5
61
100
AcDbSymbolTableRecord
100
AcDbLinetypeTableRecord
  2

 70
    64
 3

 72
    65
 73
    2
 40
    0.15
 49
    0.11
 74
    0
 49
    -0.04
 74
    0
  0
LTYPE
  5
62
100
AcDbSymbolTableRecord
100
AcDbLinetypeTableRecord
  2

 70
    64
 3

 72
    65
 73
    2
 40
    0.2
 49
    0.15
 74
    0
 49
    -0.05
 74
    0
  0
LTYPE
  5
63
100
AcDbSymbolTableRecord
100
AcDbLinetypeTableRecord
  2

 70
    64
 3

 72
    65
 73
    2
 40
    0.36
 49
    0.28
 74
    0
 49
    -0.08
 74
    0
  0
LTYPE
  5
64
100
AcDbSymbolTableRecord
100
AcDbLinetypeTableRecord
  2

 70
    64
 3

 72
    65
 73
    2
 40
    0.47
 49
    0.39
 74
    0
 49
    -0.08
 74
    0
  0
LTYPE
  5
65
100
AcDbSymbolTableRecord
100
AcDbLinetypeTableRecord
  2

 70
    64
 3

 72
    65
 73
    2
 40
    0.9
 49
    0.81
 74
    0
 49
    -0.09
 74
    0
  0
LTYPE
  5
66
100
AcDbSymbolTableRecord
100
AcDbLinetypeTableRecord
  2

 70
    64
 3

 72
    65
 73
    6
 40
    1
 49
    0.6
 74
    0
 49
    -0.08
 74
    0
 49
    0.08
 74
    0
 49
    -0.08
 74
    0
 49
    0.08
 74
    0
 49
    -0.08
 74
    0
  0
LTYPE
  5
67
100
AcDbSymbolTableRecord
100
AcDbLinetypeTableRecord
  2

 70
    64
 3

 72
    65
 73
    6
 40
    1.08
 49
    0.6
 74
    0
 49
    -0.08
 74
    0
 49
    0.12
 74
    0
 49
    -0.08
 74
    0
 49
    0.12
 74
    0
 49
    -0.08
 74
    0
  0
LTYPE
  5
68
100
AcDbSymbolTableRecord
100
AcDbLinetypeTableRecord
  2

 70
    64
 3

 72
    65
 73
    6
 40
    2
 49
    1.44
 74
    0
 49
    -0.08
 74
    0
 49
    0.16
 74
    0
 49
    -0.08
 74
    0
 49
    0.16
 74
    0
 49
    -0.08
 74
    0
  0
LTYPE
  5
69
100
AcDbSymbolTableRecord
100
AcDbLinetypeTableRecord
  2

 70
    64
 3

 72
    65
 73
    4
 40
    0.7
 49
    0.45
 74
    0
 49
    -0.06
 74
    0
 49
    0.13
 74
    0
 49
    -0.06
 74
    0
  0
LTYPE
  5
6A
100
AcDbSymbolTableRecord
100
AcDbLinetypeTableRecord
  2

 70
    64
 3

 72
    65
 73
    4
 40
    1.2
 49
    0.97741935483871
 74
    0
 49
    -0.0580645161290322
 74
    0
 49
    0.106451612903226
 74
    0
 49
    -0.0580645161290322
 74
    0
  0
LTYPE
  5
6B
100
AcDbSymbolTableRecord
100
AcDbLinetypeTableRecord
  2

 70
    64
 3

 72
    65
 73
    4
 40
    1.2
 49
    0.98
 74
    0
 49
    -0.06
 74
    0
 49
    0.1
 74
    0
 49
    -0.06
 74
    0
  0
LTYPE
  5
6C
100
AcDbSymbolTableRecord
100
AcDbLinetypeTableRecord
  2

 70
    64
 3

 72
    65
 73
    4
 40
    2.2
 49
    1.93
 74
    0
 49
    -0.07
 74
    0
 49
    0.13
 74
    0
 49
    -0.07
 74
    0
  0
LTYPE
  5
6D
100
AcDbSymbolTableRecord
100
AcDbLinetypeTableRecord
  2

 70
    64
 3

 72
    65
 73
    4
 40
    2.2
 49
    1.88
 74
    0
 49
    -0.07
 74
    0
 49
    0.18
 74
    0
 49
    -0.07
 74
    0
  0
LTYPE
  5
6E
100
AcDbSymbolTableRecord
100
AcDbLinetypeTableRecord
  2

 70
    64
 3

 72
    65
 73
    4
 40
    2.7
 49
    0.25
 74
    0
 49
    -0.2
 74
    0
 49
    0.25
 74
    0
 49
    -2
 74
    0
  0
LTYPE
  5
6F
100
AcDbSymbolTableRecord
100
AcDbLinetypeTableRecord
  2

 70
    64
 3

 72
    65
 73
    4
 40
    3.71
 49
    0.423070175438596
 74
    0
 49
    -0.260350877192982
 74
    0
 49
    0.423070175438596
 74
    0
 49
    -2.60350877192982
 74
    0
  0
LTYPE
  5
70
100
AcDbSymbolTableRecord
100
AcDbLinetypeTableRecord
  2

 70
    64
 3

 72
    65
 73
    2
 40
    0.25
 49
    0
 74
    0
 49
    -0.25
 74
    0
  0
LTYPE
  5
71
100
AcDbSymbolTableRecord
100
AcDbLinetypeTableRecord
  2

 70
    64
 3

 72
    65
 73
    6
 40
    2
 49
    1.05882352941176
 74
    0
 49
    -0.588235294117647
 74
    0
 49
    0.117647058823529
 74
    0
 49
    -0.0588235294117647
 74
    0
 49
    0.117647058823529
 74
    0
 49
    -0.0588235294117647
 74
    0
  0
LTYPE
  5
72
100
AcDbSymbolTableRecord
100
AcDbLinetypeTableRecord
  2

 70
    64
 3

 72
    65
 73
    0
 40
    0
  0
LTYPE
  5
73
100
AcDbSymbolTableRecord
100
AcDbLinetypeTableRecord
  2

 70
    64
 3

 72
    65
 73
    0
 40
    0
  0
LTYPE
  5
74
100
AcDbSymbolTableRecord
100
AcDbLinetypeTableRecord
  2

 70
    64
 3

 72
    65
 73
    2
 40
    16
 49
    8
 74
    0
 49
    -8
 74
    0
  0
LTYPE
  5
75
100
AcDbSymbolTableRecord
100
AcDbLinetypeTableRecord
  2

 70
    64
 3

 72
    65
 73
    2
 40
    32
 49
    16
 74
    0
 49
    -16
 74
    0
  0
LTYPE
  5
76
100
AcDbSymbolTableRecord
100
AcDbLinetypeTableRecord
  2

 70
    64
 3

 72
    65
 73
    4
 40
    64
 49
    32
 74
    0
 49
    -8
 74
    0
 49
    16
 74
    0
 49
    -8
 74
    0
  0
LTYPE
  5
77
100
AcDbSymbolTableRecord
100
AcDbLinetypeTableRecord
  2

 70
    64
 3

 72
    65
 73
    6
 40
    64
 49
    24
 74
    0
 49
    -8
 74
    0
 49
    8
 74
    0
 49
    -8
 74
    0
 49
    8
 74
    0
 49
    -8
 74
    0
  0
LTYPE
  5
78
100
AcDbSymbolTableRecord
100
AcDbLinetypeTableRecord
  2

 70
    64
 3

 72
    65
 73
    4
 40
    10.5
 49
    6
 74
    0
 49
    -1.5
 74
    0
 49
    1.5
 74
    0
 49
    -1.5
 74
    0
  0
LTYPE
  5
79
100
AcDbSymbolTableRecord
100
AcDbLinetypeTableRecord
  2

 70
    64
 3

 72
    65
 73
    2
 40
    3.5
 49
    0.5
 74
    0
 49
    -3
 74
    0
  0
LTYPE
  5
7A
100
AcDbSymbolTableRecord
100
AcDbLinetypeTableRecord
  2

 70
    64
 3

 72
    65
 73
    4
 40
    2
 49
    1.25
 74
    0
 49
    -0.25
 74
    0
 49
    0.25
 74
    0
 49
    -0.25
 74
    0
  0
ENDTAB
  0
TABLE
  2
LAYER
  5
3
100
AcDbSymbolTable
 70
   257
  0
LAYER
  5
7B
100
AcDbSymbolTableRecord
100
AcDbLayerTableRecord
  2
0-0
 70
    0
 62
250
  6
CONTINUOUS
  0
LAYER
  5
7C
100
AcDbSymbolTableRecord
100
AcDbLayerTableRecord
  2
0-1
 70
    0
 62
3
  6
CONTINUOUS
  0
LAYER
  5
7D
100
AcDbSymbolTableRecord
100
AcDbLayerTableRecord
  2
0-2
 70
    0
 62
9
  6
CONTINUOUS
  0
LAYER
  5
7E
100
AcDbSymbolTableRecord
100
AcDbLayerTableRecord
  2
0-3
 70
    0
 62
250
  6
CONTINUOUS
  0
LAYER
  5
7F
100
AcDbSymbolTableRecord
100
AcDbLayerTableRecord
  2
0-4
 70
    0
 62
6
  6
CONTINUOUS
  0
LAYER
  5
80
100
AcDbSymbolTableRecord
100
AcDbLayerTableRecord
  2
0-5
 70
    0
 62
1
  6
CONTINUOUS
  0
LAYER
  5
81
100
AcDbSymbolTableRecord
100
AcDbLayerTableRecord
  2
0-6
 70
    0
 62
7
  6
CONTINUOUS
  0
LAYER
  5
82
100
AcDbSymbolTableRecord
100
AcDbLayerTableRecord
  2
0-7
 70
    0
 62
51
  6
CONTINUOUS
  0
LAYER
  5
83
100
AcDbSymbolTableRecord
100
AcDbLayerTableRecord
  2
0-8
 70
    0
 62
61
  6
CONTINUOUS
  0
LAYER
  5
84
100
AcDbSymbolTableRecord
100
AcDbLayerTableRecord
  2
0-9
 70
    0
 62
111
  6
CONTINUOUS
  0
LAYER
  5
85
100
AcDbSymbolTableRecord
100
AcDbLayerTableRecord
  2
0-a
 70
    0
 62
91
  6
CONTINUOUS
  0
LAYER
  5
86
100
AcDbSymbolTableRecord
100
AcDbLayerTableRecord
  2
0-b
 70
    0
 62
131
  6
CONTINUOUS
  0
LAYER
  5
87
100
AcDbSymbolTableRecord
100
AcDbLayerTableRecord
  2
0-c
 70
    0
 62
161
  6
CONTINUOUS
  0
LAYER
  5
88
100
AcDbSymbolTableRecord
100
AcDbLayerTableRecord
  2
0-d
 70
    0
 62
5
  6
CONTINUOUS
  0
LAYER
  5
89
100
AcDbSymbolTableRecord
100
AcDbLayerTableRecord
  2
0-e
 70
    0
 62
7
  6
CONTINUOUS
  0
LAYER
  5
8A
100
AcDbSymbolTableRecord
100
AcDbLayerTableRecord
  2
0-f
 70
    0
 62
11
  6
CONTINUOUS
  0
LAYER
  5
8B
100
AcDbSymbolTableRecord
100
AcDbLayerTableRecord
  2
1-0
 70
    0
 62
250
  6
CONTINUOUS
  0
LAYER
  5
8C
100
AcDbSymbolTableRecord
100
AcDbLayerTableRecord
  2
1-1
 70
    0
 62
70
  6
CONTINUOUS
  0
LAYER
  5
8D
100
AcDbSymbolTableRecord
100
AcDbLayerTableRecord
  2
1-2
 70
    0
 62
211
  6
CONTINUOUS
  0
LAYER
  5
8E
100
AcDbSymbolTableRecord
100
AcDbLayerTableRecord
  2
1-3
 70
    0
 62
137
  6
CONTINUOUS
  0
LAYER
  5
8F
100
AcDbSymbolTableRecord
100
AcDbLayerTableRecord
  2
1-4
 70
    0
 62
4
  6
CONTINUOUS
  0
LAYER
  5
90
100
AcDbSymbolTableRecord
100
AcDbLayerTableRecord
  2
1-5
 70
    0
 62
131
  6
CONTINUOUS
  0
LAYER
  5
91
100
AcDbSymbolTableRecord
100
AcDbLayerTableRecord
  2
1-6
 70
    0
 62
4
  6
CONTINUOUS
  0
LAYER
  5
92
100
AcDbSymbolTableRecord
100
AcDbLayerTableRecord
  2
1-7
 70
    0
 62
4
  6
CONTINUOUS
  0
LAYER
  5
93
100
AcDbSymbolTableRecord
100
AcDbLayerTableRecord
  2
1-8
 70
    0
 62
250
  6
CONTINUOUS
  0
LAYER
  5
94
100
AcDbSymbolTableRecord
100
AcDbLayerTableRecord
  2
1-9
 70
    0
 62
250
  6
CONTINUOUS
  0
LAYER
  5
95
100
AcDbSymbolTableRecord
100
AcDbLayerTableRecord
  2
1-a
 70
    0
 62
250
  6
CONTINUOUS
  0
LAYER
  5
96
100
AcDbSymbolTableRecord
100
AcDbLayerTableRecord
  2
1-b
 70
    0
 62
250
  6
CONTINUOUS
  0
LAYER
  5
97
100
AcDbSymbolTableRecord
100
AcDbLayerTableRecord
  2
1-c
 70
    0
 62
250
  6
CONTINUOUS
  0
LAYER
  5
98
100
AcDbSymbolTableRecord
100
AcDbLayerTableRecord
  2
1-d
 70
    0
 62
250
  6
CONTINUOUS
  0
LAYER
  5
99
100
AcDbSymbolTableRecord
100
AcDbLayerTableRecord
  2
1-e
 70
    0
 62
250
  6
CONTINUOUS
  0
LAYER
  5
9A
100
AcDbSymbolTableRecord
100
AcDbLayerTableRecord
  2
1-f
 70
    0
 62
250
  6
CONTINUOUS
  0
LAYER
  5
9B
100
AcDbSymbolTableRecord
100
AcDbLayerTableRecord
  2
2-0
 70
    0
 62
250
  6
CONTINUOUS
  0
LAYER
  5
9C
100
AcDbSymbolTableRecord
100
AcDbLayerTableRecord
  2
2-1
 70
    0
 62
250
  6
CONTINUOUS
  0
LAYER
  5
9D
100
AcDbSymbolTableRecord
100
AcDbLayerTableRecord
  2
2-2
 70
    0
 62
250
  6
CONTINUOUS
  0
LAYER
  5
9E
100
AcDbSymbolTableRecord
100
AcDbLayerTableRecord
  2
2-3
 70
    0
 62
250
  6
CONTINUOUS
  0
LAYER
  5
9F
100
AcDbSymbolTableRecord
100
AcDbLayerTableRecord
  2
2-4
 70
    0
 62
250
  6
CONTINUOUS
  0
LAYER
  5
A0
100
AcDbSymbolTableRecord
100
AcDbLayerTableRecord
  2
2-5
 70
    0
 62
250
  6
CONTINUOUS
  0
LAYER
  5
A1
100
AcDbSymbolTableRecord
100
AcDbLayerTableRecord
  2
2-6
 70
    0
 62
250
  6
CONTINUOUS
  0
LAYER
  5
A2
100
AcDbSymbolTableRecord
100
AcDbLayerTableRecord
  2
2-7
 70
    0
 62
250
  6
CONTINUOUS
  0
LAYER
  5
A3
100
AcDbSymbolTableRecord
100
AcDbLayerTableRecord
  2
2-8
 70
    0
 62
250
  6
CONTINUOUS
  0
LAYER
  5
A4
100
AcDbSymbolTableRecord
100
AcDbLayerTableRecord
  2
2-9
 70
    0
 62
250
  6
CONTINUOUS
  0
LAYER
  5
A5
100
AcDbSymbolTableRecord
100
AcDbLayerTableRecord
  2
2-a
 70
    0
 62
250
  6
CONTINUOUS
  0
LAYER
  5
A6
100
AcDbSymbolTableRecord
100
AcDbLayerTableRecord
  2
2-b
 70
    0
 62
250
  6
CONTINUOUS
  0
LAYER
  5
A7
100
AcDbSymbolTableRecord
100
AcDbLayerTableRecord
  2
2-c
 70
    0
 62
250
  6
CONTINUOUS
  0
LAYER
  5
A8
100
AcDbSymbolTableRecord
100
AcDbLayerTableRecord
  2
2-d
 70
    0
 62
250
  6
CONTINUOUS
  0
LAYER
  5
A9
100
AcDbSymbolTableRecord
100
AcDbLayerTableRecord
  2
2-e
 70
    0
 62
250
  6
CONTINUOUS
  0
LAYER
  5
AA
100
AcDbSymbolTableRecord
100
AcDbLayerTableRecord
  2
2-f
 70
    0
 62
250
  6
CONTINUOUS
  0
LAYER
  5
AB
100
AcDbSymbolTableRecord
100
AcDbLayerTableRecord
  2
3-0
 70
    0
 62
250
  6
CONTINUOUS
  0
LAYER
  5
AC
100
AcDbSymbolTableRecord
100
AcDbLayerTableRecord
  2
3-1
 70
    0
 62
250
  6
CONTINUOUS
  0
LAYER
  5
AD
100
AcDbSymbolTableRecord
100
AcDbLayerTableRecord
  2
3-2
 70
    0
 62
250
  6
CONTINUOUS
  0
LAYER
  5
AE
100
AcDbSymbolTableRecord
100
AcDbLayerTableRecord
  2
3-3
 70
    0
 62
250
  6
CONTINUOUS
  0
LAYER
  5
AF
100
AcDbSymbolTableRecord
100
AcDbLayerTableRecord
  2
3-4
 70
    0
 62
250
  6
CONTINUOUS
  0
LAYER
  5
B0
100
AcDbSymbolTableRecord
100
AcDbLayerTableRecord
  2
3-5
 70
    0
 62
250
  6
CONTINUOUS
  0
LAYER
  5
B1
100
AcDbSymbolTableRecord
100
AcDbLayerTableRecord
  2
3-6
 70
    0
 62
250
  6
CONTINUOUS
  0
LAYER
  5
B2
100
AcDbSymbolTableRecord
100
AcDbLayerTableRecord
  2
3-7
 70
    0
 62
250
  6
CONTINUOUS
  0
LAYER
  5
B3
100
AcDbSymbolTableRecord
100
AcDbLayerTableRecord
  2
3-8
 70
    0
 62
250
  6
CONTINUOUS
  0
LAYER
  5
B4
100
AcDbSymbolTableRecord
100
AcDbLayerTableRecord
  2
3-9
 70
    0
 62
250
  6
CONTINUOUS
  0
LAYER
  5
B5
100
AcDbSymbolTableRecord
100
AcDbLayerTableRecord
  2
3-a
 70
    0
 62
250
  6
CONTINUOUS
  0
LAYER
  5
B6
100
AcDbSymbolTableRecord
100
AcDbLayerTableRecord
  2
3-b
 70
    0
 62
250
  6
CONTINUOUS
  0
LAYER
  5
B7
100
AcDbSymbolTableRecord
100
AcDbLayerTableRecord
  2
3-c
 70
    0
 62
250
  6
CONTINUOUS
  0
LAYER
  5
B8
100
AcDbSymbolTableRecord
100
AcDbLayerTableRecord
  2
3-d
 70
    0
 62
250
  6
CONTINUOUS
  0
LAYER
  5
B9
100
AcDbSymbolTableRecord
100
AcDbLayerTableRecord
  2
3-e
 70
    0
 62
250
  6
CONTINUOUS
  0
LAYER
  5
BA
100
AcDbSymbolTableRecord
100
AcDbLayerTableRecord
  2
3-f
 70
    0
 62
250
  6
CONTINUOUS
  0
LAYER
  5
BB
100
AcDbSymbolTableRecord
100
AcDbLayerTableRecord
  2
4-0
 70
    0
 62
250
  6
CONTINUOUS
  0
LAYER
  5
BC
100
AcDbSymbolTableRecord
100
AcDbLayerTableRecord
  2
4-1
 70
    0
 62
250
  6
CONTINUOUS
  0
LAYER
  5
BD
100
AcDbSymbolTableRecord
100
AcDbLayerTableRecord
  2
4-2
 70
    0
 62
250
  6
CONTINUOUS
  0
LAYER
  5
BE
100
AcDbSymbolTableRecord
100
AcDbLayerTableRecord
  2
4-3
 70
    0
 62
250
  6
CONTINUOUS
  0
LAYER
  5
BF
100
AcDbSymbolTableRecord
100
AcDbLayerTableRecord
  2
4-4
 70
    0
 62
250
  6
CONTINUOUS
  0
LAYER
  5
C0
100
AcDbSymbolTableRecord
100
AcDbLayerTableRecord
  2
4-5
 70
    0
 62
250
  6
CONTINUOUS
  0
LAYER
  5
C1
100
AcDbSymbolTableRecord
100
AcDbLayerTableRecord
  2
4-6
 70
    0
 62
250
  6
CONTINUOUS
  0
LAYER
  5
C2
100
AcDbSymbolTableRecord
100
AcDbLayerTableRecord
  2
4-7
 70
    0
 62
250
  6
CONTINUOUS
  0
LAYER
  5
C3
100
AcDbSymbolTableRecord
100
AcDbLayerTableRecord
  2
4-8
 70
    0
 62
250
  6
CONTINUOUS
  0
LAYER
  5
C4
100
AcDbSymbolTableRecord
100
AcDbLayerTableRecord
  2
4-9
 70
    0
 62
250
  6
CONTINUOUS
  0
LAYER
  5
C5
100
AcDbSymbolTableRecord
100
AcDbLayerTableRecord
  2
4-a
 70
    0
 62
250
  6
CONTINUOUS
  0
LAYER
  5
C6
100
AcDbSymbolTableRecord
100
AcDbLayerTableRecord
  2
4-b
 70
    0
 62
250
  6
CONTINUOUS
  0
LAYER
  5
C7
100
AcDbSymbolTableRecord
100
AcDbLayerTableRecord
  2
4-c
 70
    0
 62
250
  6
CONTINUOUS
  0
LAYER
  5
C8
100
AcDbSymbolTableRecord
100
AcDbLayerTableRecord
  2
4-d
 70
    0
 62
250
  6
CONTINUOUS
  0
LAYER
  5
C9
100
AcDbSymbolTableRecord
100
AcDbLayerTableRecord
  2
4-e
 70
    0
 62
250
  6
CONTINUOUS
  0
LAYER
  5
CA
100
AcDbSymbolTableRecord
100
AcDbLayerTableRecord
  2
4-f
 70
    0
 62
250
  6
CONTINUOUS
  0
LAYER
  5
CB
100
AcDbSymbolTableRecord
100
AcDbLayerTableRecord
  2
5-0
 70
    0
 62
250
  6
CONTINUOUS
  0
LAYER
  5
CC
100
AcDbSymbolTableRecord
100
AcDbLayerTableRecord
  2
5-1
 70
    0
 62
250
  6
CONTINUOUS
  0
LAYER
  5
CD
100
AcDbSymbolTableRecord
100
AcDbLayerTableRecord
  2
5-2
 70
    0
 62
250
  6
CONTINUOUS
  0
LAYER
  5
CE
100
AcDbSymbolTableRecord
100
AcDbLayerTableRecord
  2
5-3
 70
    0
 62
250
  6
CONTINUOUS
  0
LAYER
  5
CF
100
AcDbSymbolTableRecord
100
AcDbLayerTableRecord
  2
5-4
 70
    0
 62
250
  6
CONTINUOUS
  0
LAYER
  5
D0
100
AcDbSymbolTableRecord
100
AcDbLayerTableRecord
  2
5-5
 70
    0
 62
250
  6
CONTINUOUS
  0
LAYER
  5
D1
100
AcDbSymbolTableRecord
100
AcDbLayerTableRecord
  2
5-6
 70
    0
 62
250
  6
CONTINUOUS
  0
LAYER
  5
D2
100
AcDbSymbolTableRecord
100
AcDbLayerTableRecord
  2
5-7
 70
    0
 62
250
  6
CONTINUOUS
  0
LAYER
  5
D3
100
AcDbSymbolTableRecord
100
AcDbLayerTableRecord
  2
5-8
 70
    0
 62
250
  6
CONTINUOUS
  0
LAYER
  5
D4
100
AcDbSymbolTableRecord
100
AcDbLayerTableRecord
  2
5-9
 70
    0
 62
250
  6
CONTINUOUS
  0
LAYER
  5
D5
100
AcDbSymbolTableRecord
100
AcDbLayerTableRecord
  2
5-a
 70
    0
 62
250
  6
CONTINUOUS
  0
LAYER
  5
D6
100
AcDbSymbolTableRecord
100
AcDbLayerTableRecord
  2
5-b
 70
    0
 62
250
  6
CONTINUOUS
  0
LAYER
  5
D7
100
AcDbSymbolTableRecord
100
AcDbLayerTableRecord
  2
5-c
 70
    0
 62
250
  6
CONTINUOUS
  0
LAYER
  5
D8
100
AcDbSymbolTableRecord
100
AcDbLayerTableRecord
  2
5-d
 70
    0
 62
250
  6
CONTINUOUS
  0
LAYER
  5
D9
100
AcDbSymbolTableRecord
100
AcDbLayerTableRecord
  2
5-e
 70
    0
 62
250
  6
CONTINUOUS
  0
LAYER
  5
DA
100
AcDbSymbolTableRecord
100
AcDbLayerTableRecord
  2
5-f
 70
    0
 62
250
  6
CONTINUOUS
  0
LAYER
  5
DB
100
AcDbSymbolTableRecord
100
AcDbLayerTableRecord
  2
6-0
 70
    0
 62
250
  6
CONTINUOUS
  0
LAYER
  5
DC
100
AcDbSymbolTableRecord
100
AcDbLayerTableRecord
  2
6-1
 70
    0
 62
250
  6
CONTINUOUS
  0
LAYER
  5
DD
100
AcDbSymbolTableRecord
100
AcDbLayerTableRecord
  2
6-2
 70
    0
 62
250
  6
CONTINUOUS
  0
LAYER
  5
DE
100
AcDbSymbolTableRecord
100
AcDbLayerTableRecord
  2
6-3
 70
    0
 62
250
  6
CONTINUOUS
  0
LAYER
  5
DF
100
AcDbSymbolTableRecord
100
AcDbLayerTableRecord
  2
6-4
 70
    0
 62
250
  6
CONTINUOUS
  0
LAYER
  5
E0
100
AcDbSymbolTableRecord
100
AcDbLayerTableRecord
  2
6-5
 70
    0
 62
250
  6
CONTINUOUS
  0
LAYER
  5
E1
100
AcDbSymbolTableRecord
100
AcDbLayerTableRecord
  2
6-6
 70
    0
 62
250
  6
CONTINUOUS
  0
LAYER
  5
E2
100
AcDbSymbolTableRecord
100
AcDbLayerTableRecord
  2
6-7
 70
    0
 62
250
  6
CONTINUOUS
  0
LAYER
  5
E3
100
AcDbSymbolTableRecord
100
AcDbLayerTableRecord
  2
6-8
 70
    0
 62
250
  6
CONTINUOUS
  0
LAYER
  5
E4
100
AcDbSymbolTableRecord
100
AcDbLayerTableRecord
  2
6-9
 70
    0
 62
250
  6
CONTINUOUS
  0
LAYER
  5
E5
100
AcDbSymbolTableRecord
100
AcDbLayerTableRecord
  2
6-a
 70
    0
 62
250
  6
CONTINUOUS
  0
LAYER
  5
E6
100
AcDbSymbolTableRecord
100
AcDbLayerTableRecord
  2
6-b
 70
    0
 62
250
  6
CONTINUOUS
  0
LAYER
  5
E7
100
AcDbSymbolTableRecord
100
AcDbLayerTableRecord
  2
6-c
 70
    0
 62
250
  6
CONTINUOUS
  0
LAYER
  5
E8
100
AcDbSymbolTableRecord
100
AcDbLayerTableRecord
  2
6-d
 70
    0
 62
250
  6
CONTINUOUS
  0
LAYER
  5
E9
100
AcDbSymbolTableRecord
100
AcDbLayerTableRecord
  2
6-e
 70
    0
 62
250
  6
CONTINUOUS
  0
LAYER
  5
EA
100
AcDbSymbolTableRecord
100
AcDbLayerTableRecord
  2
6-f
 70
    0
 62
250
  6
CONTINUOUS
  0
LAYER
  5
EB
100
AcDbSymbolTableRecord
100
AcDbLayerTableRecord
  2
7-0
 70
    0
 62
250
  6
CONTINUOUS
  0
LAYER
  5
EC
100
AcDbSymbolTableRecord
100
AcDbLayerTableRecord
  2
7-1
 70
    0
 62
250
  6
CONTINUOUS
  0
LAYER
  5
ED
100
AcDbSymbolTableRecord
100
AcDbLayerTableRecord
  2
7-2
 70
    0
 62
250
  6
CONTINUOUS
  0
LAYER
  5
EE
100
AcDbSymbolTableRecord
100
AcDbLayerTableRecord
  2
7-3
 70
    0
 62
250
  6
CONTINUOUS
  0
LAYER
  5
EF
100
AcDbSymbolTableRecord
100
AcDbLayerTableRecord
  2
7-4
 70
    0
 62
250
  6
CONTINUOUS
  0
LAYER
  5
F0
100
AcDbSymbolTableRecord
100
AcDbLayerTableRecord
  2
7-5
 70
    0
 62
250
  6
CONTINUOUS
  0
LAYER
  5
F1
100
AcDbSymbolTableRecord
100
AcDbLayerTableRecord
  2
7-6
 70
    0
 62
250
  6
CONTINUOUS
  0
LAYER
  5
F2
100
AcDbSymbolTableRecord
100
AcDbLayerTableRecord
  2
7-7
 70
    0
 62
250
  6
CONTINUOUS
  0
LAYER
  5
F3
100
AcDbSymbolTableRecord
100
AcDbLayerTableRecord
  2
7-8
 70
    0
 62
250
  6
CONTINUOUS
  0
LAYER
  5
F4
100
AcDbSymbolTableRecord
100
AcDbLayerTableRecord
  2
7-9
 70
    0
 62
250
  6
CONTINUOUS
  0
LAYER
  5
F5
100
AcDbSymbolTableRecord
100
AcDbLayerTableRecord
  2
7-a
 70
    0
 62
250
  6
CONTINUOUS
  0
LAYER
  5
F6
100
AcDbSymbolTableRecord
100
AcDbLayerTableRecord
  2
7-b
 70
    0
 62
250
  6
CONTINUOUS
  0
LAYER
  5
F7
100
AcDbSymbolTableRecord
100
AcDbLayerTableRecord
  2
7-c
 70
    0
 62
250
  6
CONTINUOUS
  0
LAYER
  5
F8
100
AcDbSymbolTableRecord
100
AcDbLayerTableRecord
  2
7-d
 70
    0
 62
250
  6
CONTINUOUS
  0
LAYER
  5
F9
100
AcDbSymbolTableRecord
100
AcDbLayerTableRecord
  2
7-e
 70
    0
 62
250
  6
CONTINUOUS
  0
LAYER
  5
FA
100
AcDbSymbolTableRecord
100
AcDbLayerTableRecord
  2
7-f
 70
    0
 62
250
  6
CONTINUOUS
  0
LAYER
  5
FB
100
AcDbSymbolTableRecord
100
AcDbLayerTableRecord
  2
8-0
 70
    0
 62
250
  6
CONTINUOUS
  0
LAYER
  5
FC
100
AcDbSymbolTableRecord
100
AcDbLayerTableRecord
  2
8-1
 70
    0
 62
250
  6
CONTINUOUS
  0
LAYER
  5
FD
100
AcDbSymbolTableRecord
100
AcDbLayerTableRecord
  2
8-2
 70
    0
 62
250
  6
CONTINUOUS
  0
LAYER
  5
FE
100
AcDbSymbolTableRecord
100
AcDbLayerTableRecord
  2
8-3
 70
    0
 62
250
  6
CONTINUOUS
  0
LAYER
  5
FF
100
AcDbSymbolTableRecord
100
AcDbLayerTableRecord
  2
8-4
 70
    0
 62
250
  6
CONTINUOUS
  0
LAYER
  5
100
100
AcDbSymbolTableRecord
100
AcDbLayerTableRecord
  2
8-5
 70
    0
 62
250
  6
CONTINUOUS
  0
LAYER
  5
101
100
AcDbSymbolTableRecord
100
AcDbLayerTableRecord
  2
8-6
 70
    0
 62
250
  6
CONTINUOUS
  0
LAYER
  5
102
100
AcDbSymbolTableRecord
100
AcDbLayerTableRecord
  2
8-7
 70
    0
 62
250
  6
CONTINUOUS
  0
LAYER
  5
103
100
AcDbSymbolTableRecord
100
AcDbLayerTableRecord
  2
8-8
 70
    0
 62
250
  6
CONTINUOUS
  0
LAYER
  5
104
100
AcDbSymbolTableRecord
100
AcDbLayerTableRecord
  2
8-9
 70
    0
 62
250
  6
CONTINUOUS
  0
LAYER
  5
105
100
AcDbSymbolTableRecord
100
AcDbLayerTableRecord
  2
8-a
 70
    0
 62
250
  6
CONTINUOUS
  0
LAYER
  5
106
100
AcDbSymbolTableRecord
100
AcDbLayerTableRecord
  2
8-b
 70
    0
 62
250
  6
CONTINUOUS
  0
LAYER
  5
107
100
AcDbSymbolTableRecord
100
AcDbLayerTableRecord
  2
8-c
 70
    0
 62
250
  6
CONTINUOUS
  0
LAYER
  5
108
100
AcDbSymbolTableRecord
100
AcDbLayerTableRecord
  2
8-d
 70
    0
 62
250
  6
CONTINUOUS
  0
LAYER
  5
109
100
AcDbSymbolTableRecord
100
AcDbLayerTableRecord
  2
8-e
 70
    0
 62
250
  6
CONTINUOUS
  0
LAYER
  5
10A
100
AcDbSymbolTableRecord
100
AcDbLayerTableRecord
  2
8-f
 70
    0
 62
250
  6
CONTINUOUS
  0
LAYER
  5
10B
100
AcDbSymbolTableRecord
100
AcDbLayerTableRecord
  2
9-0
 70
    0
 62
250
  6
CONTINUOUS
  0
LAYER
  5
10C
100
AcDbSymbolTableRecord
100
AcDbLayerTableRecord
  2
9-1
 70
    0
 62
250
  6
CONTINUOUS
  0
LAYER
  5
10D
100
AcDbSymbolTableRecord
100
AcDbLayerTableRecord
  2
9-2
 70
    0
 62
250
  6
CONTINUOUS
  0
LAYER
  5
10E
100
AcDbSymbolTableRecord
100
AcDbLayerTableRecord
  2
9-3
 70
    0
 62
250
  6
CONTINUOUS
  0
LAYER
  5
10F
100
AcDbSymbolTableRecord
100
AcDbLayerTableRecord
  2
9-4
 70
    0
 62
250
  6
CONTINUOUS
  0
LAYER
  5
110
100
AcDbSymbolTableRecord
100
AcDbLayerTableRecord
  2
9-5
 70
    0
 62
250
  6
CONTINUOUS
  0
LAYER
  5
111
100
AcDbSymbolTableRecord
100
AcDbLayerTableRecord
  2
9-6
 70
    0
 62
250
  6
CONTINUOUS
  0
LAYER
  5
112
100
AcDbSymbolTableRecord
100
AcDbLayerTableRecord
  2
9-7
 70
    0
 62
250
  6
CONTINUOUS
  0
LAYER
  5
113
100
AcDbSymbolTableRecord
100
AcDbLayerTableRecord
  2
9-8
 70
    0
 62
250
  6
CONTINUOUS
  0
LAYER
  5
114
100
AcDbSymbolTableRecord
100
AcDbLayerTableRecord
  2
9-9
 70
    0
 62
250
  6
CONTINUOUS
  0
LAYER
  5
115
100
AcDbSymbolTableRecord
100
AcDbLayerTableRecord
  2
9-a
 70
    0
 62
250
  6
CONTINUOUS
  0
LAYER
  5
116
100
AcDbSymbolTableRecord
100
AcDbLayerTableRecord
  2
9-b
 70
    0
 62
250
  6
CONTINUOUS
  0
LAYER
  5
117
100
AcDbSymbolTableRecord
100
AcDbLayerTableRecord
  2
9-c
 70
    0
 62
250
  6
CONTINUOUS
  0
LAYER
  5
118
100
AcDbSymbolTableRecord
100
AcDbLayerTableRecord
  2
9-d
 70
    0
 62
250
  6
CONTINUOUS
  0
LAYER
  5
119
100
AcDbSymbolTableRecord
100
AcDbLayerTableRecord
  2
9-e
 70
    0
 62
250
  6
CONTINUOUS
  0
LAYER
  5
11A
100
AcDbSymbolTableRecord
100
AcDbLayerTableRecord
  2
9-f
 70
    0
 62
250
  6
CONTINUOUS
  0
LAYER
  5
11B
100
AcDbSymbolTableRecord
100
AcDbLayerTableRecord
  2
a-0
 70
    0
 62
250
  6
CONTINUOUS
  0
LAYER
  5
11C
100
AcDbSymbolTableRecord
100
AcDbLayerTableRecord
  2
a-1
 70
    0
 62
250
  6
CONTINUOUS
  0
LAYER
  5
11D
100
AcDbSymbolTableRecord
100
AcDbLayerTableRecord
  2
a-2
 70
    0
 62
250
  6
CONTINUOUS
  0
LAYER
  5
11E
100
AcDbSymbolTableRecord
100
AcDbLayerTableRecord
  2
a-3
 70
    0
 62
250
  6
CONTINUOUS
  0
LAYER
  5
11F
100
AcDbSymbolTableRecord
100
AcDbLayerTableRecord
  2
a-4
 70
    0
 62
250
  6
CONTINUOUS
  0
LAYER
  5
120
100
AcDbSymbolTableRecord
100
AcDbLayerTableRecord
  2
a-5
 70
    0
 62
250
  6
CONTINUOUS
  0
LAYER
  5
121
100
AcDbSymbolTableRecord
100
AcDbLayerTableRecord
  2
a-6
 70
    0
 62
250
  6
CONTINUOUS
  0
LAYER
  5
122
100
AcDbSymbolTableRecord
100
AcDbLayerTableRecord
  2
a-7
 70
    0
 62
250
  6
CONTINUOUS
  0
LAYER
  5
123
100
AcDbSymbolTableRecord
100
AcDbLayerTableRecord
  2
a-8
 70
    0
 62
250
  6
CONTINUOUS
  0
LAYER
  5
124
100
AcDbSymbolTableRecord
100
AcDbLayerTableRecord
  2
a-9
 70
    0
 62
250
  6
CONTINUOUS
  0
LAYER
  5
125
100
AcDbSymbolTableRecord
100
AcDbLayerTableRecord
  2
a-a
 70
    0
 62
250
  6
CONTINUOUS
  0
LAYER
  5
126
100
AcDbSymbolTableRecord
100
AcDbLayerTableRecord
  2
a-b
 70
    0
 62
250
  6
CONTINUOUS
  0
LAYER
  5
127
100
AcDbSymbolTableRecord
100
AcDbLayerTableRecord
  2
a-c
 70
    0
 62
250
  6
CONTINUOUS
  0
LAYER
  5
128
100
AcDbSymbolTableRecord
100
AcDbLayerTableRecord
  2
a-d
 70
    0
 62
250
  6
CONTINUOUS
  0
LAYER
  5
129
100
AcDbSymbolTableRecord
100
AcDbLayerTableRecord
  2
a-e
 70
    0
 62
250
  6
CONTINUOUS
  0
LAYER
  5
12A
100
AcDbSymbolTableRecord
100
AcDbLayerTableRecord
  2
a-f
 70
    0
 62
250
  6
CONTINUOUS
  0
LAYER
  5
12B
100
AcDbSymbolTableRecord
100
AcDbLayerTableRecord
  2
b-0
 70
    0
 62
250
  6
CONTINUOUS
  0
LAYER
  5
12C
100
AcDbSymbolTableRecord
100
AcDbLayerTableRecord
  2
b-1
 70
    0
 62
250
  6
CONTINUOUS
  0
LAYER
  5
12D
100
AcDbSymbolTableRecord
100
AcDbLayerTableRecord
  2
b-2
 70
    0
 62
250
  6
CONTINUOUS
  0
LAYER
  5
12E
100
AcDbSymbolTableRecord
100
AcDbLayerTableRecord
  2
b-3
 70
    0
 62
250
  6
CONTINUOUS
  0
LAYER
  5
12F
100
AcDbSymbolTableRecord
100
AcDbLayerTableRecord
  2
b-4
 70
    0
 62
250
  6
CONTINUOUS
  0
LAYER
  5
130
100
AcDbSymbolTableRecord
100
AcDbLayerTableRecord
  2
b-5
 70
    0
 62
250
  6
CONTINUOUS
  0
LAYER
  5
131
100
AcDbSymbolTableRecord
100
AcDbLayerTableRecord
  2
b-6
 70
    0
 62
250
  6
CONTINUOUS
  0
LAYER
  5
132
100
AcDbSymbolTableRecord
100
AcDbLayerTableRecord
  2
b-7
 70
    0
 62
250
  6
CONTINUOUS
  0
LAYER
  5
133
100
AcDbSymbolTableRecord
100
AcDbLayerTableRecord
  2
b-8
 70
    0
 62
250
  6
CONTINUOUS
  0
LAYER
  5
134
100
AcDbSymbolTableRecord
100
AcDbLayerTableRecord
  2
b-9
 70
    0
 62
250
  6
CONTINUOUS
  0
LAYER
  5
135
100
AcDbSymbolTableRecord
100
AcDbLayerTableRecord
  2
b-a
 70
    0
 62
250
  6
CONTINUOUS
  0
LAYER
  5
136
100
AcDbSymbolTableRecord
100
AcDbLayerTableRecord
  2
b-b
 70
    0
 62
250
  6
CONTINUOUS
  0
LAYER
  5
137
100
AcDbSymbolTableRecord
100
AcDbLayerTableRecord
  2
b-c
 70
    0
 62
250
  6
CONTINUOUS
  0
LAYER
  5
138
100
AcDbSymbolTableRecord
100
AcDbLayerTableRecord
  2
b-d
 70
    0
 62
250
  6
CONTINUOUS
  0
LAYER
  5
139
100
AcDbSymbolTableRecord
100
AcDbLayerTableRecord
  2
b-e
 70
    0
 62
250
  6
CONTINUOUS
  0
LAYER
  5
13A
100
AcDbSymbolTableRecord
100
AcDbLayerTableRecord
  2
b-f
 70
    0
 62
250
  6
CONTINUOUS
  0
LAYER
  5
13B
100
AcDbSymbolTableRecord
100
AcDbLayerTableRecord
  2
c-0
 70
    0
 62
250
  6
CONTINUOUS
  0
LAYER
  5
13C
100
AcDbSymbolTableRecord
100
AcDbLayerTableRecord
  2
c-1
 70
    0
 62
250
  6
CONTINUOUS
  0
LAYER
  5
13D
100
AcDbSymbolTableRecord
100
AcDbLayerTableRecord
  2
c-2
 70
    0
 62
250
  6
CONTINUOUS
  0
LAYER
  5
13E
100
AcDbSymbolTableRecord
100
AcDbLayerTableRecord
  2
c-3
 70
    0
 62
250
  6
CONTINUOUS
  0
LAYER
  5
13F
100
AcDbSymbolTableRecord
100
AcDbLayerTableRecord
  2
c-4
 70
    0
 62
250
  6
CONTINUOUS
  0
LAYER
  5
140
100
AcDbSymbolTableRecord
100
AcDbLayerTableRecord
  2
c-5
 70
    0
 62
250
  6
CONTINUOUS
  0
LAYER
  5
141
100
AcDbSymbolTableRecord
100
AcDbLayerTableRecord
  2
c-6
 70
    0
 62
250
  6
CONTINUOUS
  0
LAYER
  5
142
100
AcDbSymbolTableRecord
100
AcDbLayerTableRecord
  2
c-7
 70
    0
 62
250
  6
CONTINUOUS
  0
LAYER
  5
143
100
AcDbSymbolTableRecord
100
AcDbLayerTableRecord
  2
c-8
 70
    0
 62
250
  6
CONTINUOUS
  0
LAYER
  5
144
100
AcDbSymbolTableRecord
100
AcDbLayerTableRecord
  2
c-9
 70
    0
 62
250
  6
CONTINUOUS
  0
LAYER
  5
145
100
AcDbSymbolTableRecord
100
AcDbLayerTableRecord
  2
c-a
 70
    0
 62
250
  6
CONTINUOUS
  0
LAYER
  5
146
100
AcDbSymbolTableRecord
100
AcDbLayerTableRecord
  2
c-b
 70
    0
 62
250
  6
CONTINUOUS
  0
LAYER
  5
147
100
AcDbSymbolTableRecord
100
AcDbLayerTableRecord
  2
c-c
 70
    0
 62
250
  6
CONTINUOUS
  0
LAYER
  5
148
100
AcDbSymbolTableRecord
100
AcDbLayerTableRecord
  2
c-d
 70
    0
 62
250
  6
CONTINUOUS
  0
LAYER
  5
149
100
AcDbSymbolTableRecord
100
AcDbLayerTableRecord
  2
c-e
 70
    0
 62
250
  6
CONTINUOUS
  0
LAYER
  5
14A
100
AcDbSymbolTableRecord
100
AcDbLayerTableRecord
  2
c-f
 70
    0
 62
250
  6
CONTINUOUS
  0
LAYER
  5
14B
100
AcDbSymbolTableRecord
100
AcDbLayerTableRecord
  2
d-0
 70
    0
 62
250
  6
CONTINUOUS
  0
LAYER
  5
14C
100
AcDbSymbolTableRecord
100
AcDbLayerTableRecord
  2
d-1
 70
    0
 62
250
  6
CONTINUOUS
  0
LAYER
  5
14D
100
AcDbSymbolTableRecord
100
AcDbLayerTableRecord
  2
d-2
 70
    0
 62
250
  6
CONTINUOUS
  0
LAYER
  5
14E
100
AcDbSymbolTableRecord
100
AcDbLayerTableRecord
  2
d-3
 70
    0
 62
250
  6
CONTINUOUS
  0
LAYER
  5
14F
100
AcDbSymbolTableRecord
100
AcDbLayerTableRecord
  2
d-4
 70
    0
 62
250
  6
CONTINUOUS
  0
LAYER
  5
150
100
AcDbSymbolTableRecord
100
AcDbLayerTableRecord
  2
d-5
 70
    0
 62
250
  6
CONTINUOUS
  0
LAYER
  5
151
100
AcDbSymbolTableRecord
100
AcDbLayerTableRecord
  2
d-6
 70
    0
 62
250
  6
CONTINUOUS
  0
LAYER
  5
152
100
AcDbSymbolTableRecord
100
AcDbLayerTableRecord
  2
d-7
 70
    0
 62
250
  6
CONTINUOUS
  0
LAYER
  5
153
100
AcDbSymbolTableRecord
100
AcDbLayerTableRecord
  2
d-8
 70
    0
 62
250
  6
CONTINUOUS
  0
LAYER
  5
154
100
AcDbSymbolTableRecord
100
AcDbLayerTableRecord
  2
d-9
 70
    0
 62
250
  6
CONTINUOUS
  0
LAYER
  5
155
100
AcDbSymbolTableRecord
100
AcDbLayerTableRecord
  2
d-a
 70
    0
 62
250
  6
CONTINUOUS
  0
LAYER
  5
156
100
AcDbSymbolTableRecord
100
AcDbLayerTableRecord
  2
d-b
 70
    0
 62
250
  6
CONTINUOUS
  0
LAYER
  5
157
100
AcDbSymbolTableRecord
100
AcDbLayerTableRecord
  2
d-c
 70
    0
 62
250
  6
CONTINUOUS
  0
LAYER
  5
158
100
AcDbSymbolTableRecord
100
AcDbLayerTableRecord
  2
d-d
 70
    0
 62
250
  6
CONTINUOUS
  0
LAYER
  5
159
100
AcDbSymbolTableRecord
100
AcDbLayerTableRecord
  2
d-e
 70
    0
 62
250
  6
CONTINUOUS
  0
LAYER
  5
15A
100
AcDbSymbolTableRecord
100
AcDbLayerTableRecord
  2
d-f
 70
    0
 62
250
  6
CONTINUOUS
  0
LAYER
  5
15B
100
AcDbSymbolTableRecord
100
AcDbLayerTableRecord
  2
e-0
 70
    0
 62
250
  6
CONTINUOUS
  0
LAYER
  5
15C
100
AcDbSymbolTableRecord
100
AcDbLayerTableRecord
  2
e-1
 70
    0
 62
250
  6
CONTINUOUS
  0
LAYER
  5
15D
100
AcDbSymbolTableRecord
100
AcDbLayerTableRecord
  2
e-2
 70
    0
 62
250
  6
CONTINUOUS
  0
LAYER
  5
15E
100
AcDbSymbolTableRecord
100
AcDbLayerTableRecord
  2
e-3
 70
    0
 62
250
  6
CONTINUOUS
  0
LAYER
  5
15F
100
AcDbSymbolTableRecord
100
AcDbLayerTableRecord
  2
e-4
 70
    0
 62
250
  6
CONTINUOUS
  0
LAYER
  5
160
100
AcDbSymbolTableRecord
100
AcDbLayerTableRecord
  2
e-5
 70
    0
 62
250
  6
CONTINUOUS
  0
LAYER
  5
161
100
AcDbSymbolTableRecord
100
AcDbLayerTableRecord
  2
e-6
 70
    0
 62
250
  6
CONTINUOUS
  0
LAYER
  5
162
100
AcDbSymbolTableRecord
100
AcDbLayerTableRecord
  2
e-7
 70
    0
 62
250
  6
CONTINUOUS
  0
LAYER
  5
163
100
AcDbSymbolTableRecord
100
AcDbLayerTableRecord
  2
e-8
 70
    0
 62
250
  6
CONTINUOUS
  0
LAYER
  5
164
100
AcDbSymbolTableRecord
100
AcDbLayerTableRecord
  2
e-9
 70
    0
 62
250
  6
CONTINUOUS
  0
LAYER
  5
165
100
AcDbSymbolTableRecord
100
AcDbLayerTableRecord
  2
e-a
 70
    0
 62
250
  6
CONTINUOUS
  0
LAYER
  5
166
100
AcDbSymbolTableRecord
100
AcDbLayerTableRecord
  2
e-b
 70
    0
 62
250
  6
CONTINUOUS
  0
LAYER
  5
167
100
AcDbSymbolTableRecord
100
AcDbLayerTableRecord
  2
e-c
 70
    0
 62
250
  6
CONTINUOUS
  0
LAYER
  5
168
100
AcDbSymbolTableRecord
100
AcDbLayerTableRecord
  2
e-d
 70
    0
 62
250
  6
CONTINUOUS
  0
LAYER
  5
169
100
AcDbSymbolTableRecord
100
AcDbLayerTableRecord
  2
e-e
 70
    0
 62
250
  6
CONTINUOUS
  0
LAYER
  5
16A
100
AcDbSymbolTableRecord
100
AcDbLayerTableRecord
  2
e-f
 70
    0
 62
250
  6
CONTINUOUS
  0
LAYER
  5
16B
100
AcDbSymbolTableRecord
100
AcDbLayerTableRecord
  2
f-0
 70
    0
 62
250
  6
CONTINUOUS
  0
LAYER
  5
16C
100
AcDbSymbolTableRecord
100
AcDbLayerTableRecord
  2
f-1
 70
    0
 62
250
  6
CONTINUOUS
  0
LAYER
  5
16D
100
AcDbSymbolTableRecord
100
AcDbLayerTableRecord
  2
f-2
 70
    0
 62
250
  6
CONTINUOUS
  0
LAYER
  5
16E
100
AcDbSymbolTableRecord
100
AcDbLayerTableRecord
  2
f-3
 70
    0
 62
250
  6
CONTINUOUS
  0
LAYER
  5
16F
100
AcDbSymbolTableRecord
100
AcDbLayerTableRecord
  2
f-4
 70
    0
 62
250
  6
CONTINUOUS
  0
LAYER
  5
170
100
AcDbSymbolTableRecord
100
AcDbLayerTableRecord
  2
f-5
 70
    0
 62
250
  6
CONTINUOUS
  0
LAYER
  5
171
100
AcDbSymbolTableRecord
100
AcDbLayerTableRecord
  2
f-6
 70
    0
 62
250
  6
CONTINUOUS
  0
LAYER
  5
172
100
AcDbSymbolTableRecord
100
AcDbLayerTableRecord
  2
f-7
 70
    0
 62
250
  6
CONTINUOUS
  0
LAYER
  5
173
100
AcDbSymbolTableRecord
100
AcDbLayerTableRecord
  2
f-8
 70
    0
 62
250
  6
CONTINUOUS
  0
LAYER
  5
174
100
AcDbSymbolTableRecord
100
AcDbLayerTableRecord
  2
f-9
 70
    0
 62
250
  6
CONTINUOUS
  0
LAYER
  5
175
100
AcDbSymbolTableRecord
100
AcDbLayerTableRecord
  2
f-a
 70
    0
 62
250
  6
CONTINUOUS
  0
LAYER
  5
176
100
AcDbSymbolTableRecord
100
AcDbLayerTableRecord
  2
f-b
 70
    0
 62
250
  6
CONTINUOUS
  0
LAYER
  5
177
100
AcDbSymbolTableRecord
100
AcDbLayerTableRecord
  2
f-c
 70
    0
 62
250
  6
CONTINUOUS
  0
LAYER
  5
178
100
AcDbSymbolTableRecord
100
AcDbLayerTableRecord
  2
f-d
 70
    0
 62
250
  6
CONTINUOUS
  0
LAYER
  5
179
100
AcDbSymbolTableRecord
100
AcDbLayerTableRecord
  2
f-e
 70
    0
 62
250
  6
CONTINUOUS
  0
LAYER
  5
17A
100
AcDbSymbolTableRecord
100
AcDbLayerTableRecord
  2
f-f
 70
    0
 62
250
  6
CONTINUOUS
  0
LAYER
  5
17B
100
AcDbSymbolTableRecord
100
AcDbLayerTableRecord
  2
0
 70
   64
 62
    7
  6
CONTINUOUS
  0
ENDTAB
  0
TABLE
  2
STYLE
  5
4
100
AcDbSymbolTable
 70
     1
  0
STYLE
  5
17C
100
AcDbSymbolTableRecord
100
AcDbTextStyleTableRecord
  2
Standard
 70
     0
 40
0.0
 41
1.0
 50
0.0
 71
     0
 42
3.2
  3
TXT
  4
BIGFONT
  0
STYLE
  5
17D
100
AcDbSymbolTableRecord
100
AcDbTextStyleTableRecord
  2
Font_0
 70
     0
 40
0.0
 41
1.0
 50
0.0
 71
     0
 42
3.2
  3
MS Gothic.ttf
  4

1001
ACAD
1000
MS Gothic
1071
  32817
  0
ENDTAB
  0
TABLE
  2
VIEW
  5
5
100
AcDbSymbolTable
 70
     0
  0
ENDTAB
  0
TABLE
  2
UCS
  5
6
100
AcDbSymbolTable
 70
     0
  0
ENDTAB
  0
TABLE
  2
APPID
  5
7
100
AcDbSymbolTable
 70
     1
  0
APPID
  5
17E
100
AcDbSymbolTableRecord
100
AcDbRegAppTableRecord
  2
ACAD
 70
     0
  0
ENDTAB
  0
TABLE
  2
DIMSTYLE
  5
8
100
AcDbSymbolTable
 70
     1
  0
DIMSTYLE
105
2A
100
AcDbSymbolTableRecord
100
AcDbDimStyleTableRecord
  2
STANDARD
 70
     0
  3

  4

  5

  6

  7

 40
1.0
 41
2.5
 42
2.0
 43
7.0
 44
1.25
 45
0.0
 46
0.0
 47
0.0
 48
0.0
 71
     0
 72
     0
 73
     0
 74
     0
 75
     0
 76
     0
 77
     1
 78
     0
140
2.5
141
2.5
142
0.0
143
0.0394
144
1.0
145
0.0
146
1.0
147
1.0
170
     0
171
     2
172
     0
173
     0
174
     1
175
     0
176
     0
177
     0
178
     0
270
     2
271
     2
272
     4
273
     2
274
     2
275
     0
280
     0
281
     0
282
     0
283
     1
284
     0
285
     0
286
     0
287
     3
288
     0
  0
ENDTAB
  0
TABLE
  2
BLOCK_RECORD
  5
9
100
AcDbSymbolTable
 70
     0
  0
BLOCK_RECORD
  5
17F
100
AcDbSymbolTableRecord
100
AcDbBlockTableRecord
  2
*MODEL_SPACE
  0
BLOCK_RECORD
  5
180
100
AcDbSymbolTableRecord
100
AcDbBlockTableRecord
  2
*PAPER_SPACE
  0
ENDTAB
  0
ENDSEC
  0
SECTION
  2
BLOCKS
  0
BLOCK
  5
182
100
AcDbEntity
  8
0
100
AcDbBlockBegin
2
*MODEL_SPACE
 70
     0
 10
0.0
 20
0.0
 30
0.0
  3
*MODEL_SPACE
  1

  0
ENDBLK
  5
183
100
AcDbEntity
  8
0-0
100
AcDbBlockEnd
  0
BLOCK
  5
184
100
AcDbEntity
 67
     1
  8
0-0
100
AcDbBlockBegin
  2
*PAPER_SPACE
 70
     0
 10
0.0
 20
0.0
 30
0.0
  3
*PAPER_SPACE
  1

  0
ENDBLK
  5
185
100
AcDbEntity
 67
     1
  8
0-0
100
AcDbBlockEnd
  0
ENDSEC
  0
SECTION
  2
ENTITIES
  0
LINE
  5
186
100
AcDbEntity
  8
0-0
100
AcDbLine
  6
CONTINUOUS
 62
7
370
30
 10
12.500006
 20
285.39137
 11
12.500006
 21
12.391351
  0
LINE
  5
187
100
AcDbEntity
  8
0-0
100
AcDbLine
  6
CONTINUOUS
 62
7
370
30
 10
407.499996
 20
285.39137
 11
407.499996
 21
12.391351
  0
LINE
  5
188
100
AcDbEntity
  8
0-0
100
AcDbLine
  6
CONTINUOUS
 62
7
370
30
 10
12.500006
 20
12.391351
 11
407.499996
 21
12.391351
  0
LINE
  5
189
100
AcDbEntity
  8
0-0
100
AcDbLine
  6
CONTINUOUS
 62
7
370
30
 10
12.500006
 20
285.39137
 11
407.499996
 21
285.39137
  0
LINE
  5
18A
100
AcDbEntity
  8
0-0
100
AcDbLine
  6
CONTINUOUS
 62
7
370
30
 10
203.499996
 20
50.391351
 11
203.499996
 21
12.391351
  0
LINE
  5
18B
100
AcDbEntity
  8
0-0
100
AcDbLine
  6
CONTINUOUS
 62
7
370
30
 10
203.499996
 20
30.391351
 11
407.499996
 21
30.391351
  0
LINE
  5
18C
100
AcDbEntity
  8
0-0
100
AcDbLine
  6
CONTINUOUS
 62
7
370
30
 10
203.499996
 20
35.391351
 11
407.499996
 21
35.391351
  0
LINE
  5
18D
100
AcDbEntity
  8
0-0
100
AcDbLine
  6
CONTINUOUS
 62
7
370
30
 10
212.499996
 20
50.391351
 11
212.499996
 21
30.391351
  0
LINE
  5
18E
100
AcDbEntity
  8
0-0
100
AcDbLine
  6
CONTINUOUS
 62
7
370
30
 10
237.499996
 20
50.391351
 11
237.499996
 21
30.391351
  0
LINE
  5
18F
100
AcDbEntity
  8
0-0
100
AcDbLine
  6
CONTINUOUS
 62
7
370
30
 10
280.499996
 20
50.391351
 11
280.499996
 21
30.391351
  0
LINE
  5
190
100
AcDbEntity
  8
0-0
100
AcDbLine
  6
CONTINUOUS
 62
7
370
30
 10
217.499996
 20
30.391351
 11
217.499996
 21
12.391351
  0
LINE
  5
191
100
AcDbEntity
  8
0-0
100
AcDbLine
  6
CONTINUOUS
 62
7
370
30
 10
231.499996
 20
30.391351
 11
231.499996
 21
12.391351
  0
LINE
  5
192
100
AcDbEntity
  8
0-0
100
AcDbLine
  6
CONTINUOUS
 62
7
370
30
 10
245.499996
 20
30.391351
 11
245.499996
 21
12.391351
  0
LINE
  5
193
100
AcDbEntity
  8
0-0
100
AcDbLine
  6
CONTINUOUS
 62
7
370
30
 10
259.499996
 20
30.391351
 11
259.499996
 21
12.391351
  0
LINE
  5
194
100
AcDbEntity
  8
0-0
100
AcDbLine
  6
CONTINUOUS
 62
7
370
30
 10
273.499996
 20
30.391351
 11
273.499996
 21
12.391351
  0
LINE
  5
195
100
AcDbEntity
  8
0-0
100
AcDbLine
  6
CONTINUOUS
 62
7
370
30
 10
347.499996
 20
30.391351
 11
347.499996
 21
12.391351
  0
LINE
  5
196
100
AcDbEntity
  8
0-0
100
AcDbLine
  6
CONTINUOUS
 62
7
370
30
 10
342.235395
 20
14.391351
 11
278.338895
 21
14.391351
  0
TEXT
  5
197
100
AcDbEntity
  8
0-0
 62
7
100
AcDbText
  6
BYLAYER
 62
7
 10
249.166662
 20
30.89135
 40
4
  1
記事
  7
Font_0
100
AcDbText
  0
LINE
  5
198
100
AcDbEntity
  8
0-0
100
AcDbLine
  6
CONTINUOUS
 62
7
370
30
 10
207.999996
 20
50.044371
 11
205.690596
 21
46.044371
  0
LINE
  5
199
100
AcDbEntity
  8
0-0
100
AcDbLine
  6
CONTINUOUS
 62
7
370
30
 10
205.690596
 20
46.044371
 11
210.309395
 21
46.044371
  0
LINE
  5
19A
100
AcDbEntity
  8
0-0
100
AcDbLine
  6
CONTINUOUS
 62
7
370
30
 10
207.999996
 20
50.044371
 11
210.309396
 21
46.044371
  0
LINE
  5
19B
100
AcDbEntity
  8
0-0
100
AcDbLine
  6
CONTINUOUS
 62
7
370
30
 10
207.999995
 20
45.044371
 11
205.690595
 21
41.044411
  0
LINE
  5
19C
100
AcDbEntity
  8
0-0
100
AcDbLine
  6
CONTINUOUS
 62
7
370
30
 10
205.690596
 20
41.04441
 11
210.309395
 21
41.04441
  0
LINE
  5
19D
100
AcDbEntity
  8
0-0
100
AcDbLine
  6
CONTINUOUS
 62
7
370
30
 10
207.999996
 20
45.044371
 11
210.309395
 21
41.044411
  0
LINE
  5
19E
100
AcDbEntity
  8
0-0
100
AcDbLine
  6
CONTINUOUS
 62
7
370
30
 10
207.999996
 20
40.044411
 11
205.690596
 21
36.044411
  0
POINT
  5
19F
100
AcDbEntity
  8
0-0
100
AcDbPoint
 62
7
 10
288.499996
 20
16.656241
  0
TEXT
  5
1A0
100
AcDbEntity
  8
0-0
 62
7
100
AcDbText
  6
BYLAYER
 62
7
 10
206.892096
 20
26.159181
 40
3
  1
尺度
  7
Font_0
100
AcDbText
  0
LINE
  5
1A1
100
AcDbEntity
  8
0-0
100
AcDbLine
  6
CONTINUOUS
 62
7
370
30
 10
207.3879
 20
15.0843086930788
 11
214.035495
 21
21.7319606930788
  0
POINT
  5
1A2
100
AcDbEntity
  8
0-0
100
AcDbPoint
 62
7
 10
224.499996
 20
19.391351
  0
POINT
  5
1A3
100
AcDbEntity
  8
0-0
100
AcDbPoint
 62
7
 10
252.499996
 20
19.391351
  0
POINT
  5
1A4
100
AcDbEntity
  8
0-0
100
AcDbPoint
 62
7
 10
266.499996
 20
19.391351
  0
LINE
  5
1A5
100
AcDbEntity
  8
0-0
100
AcDbLine
  6
CONTINUOUS
 62
7
370
30
 10
203.499996
 20
40.391351
 11
407.499996
 21
40.391351
  0
LINE
  5
1A6
100
AcDbEntity
  8
0-0
100
AcDbLine
  6
CONTINUOUS
 62
7
370
30
 10
203.499996
 20
45.391351
 11
407.499996
 21
45.391351
  0
LINE
  5
1A7
100
AcDbEntity
  8
0-0
100
AcDbLine
  6
CONTINUOUS
 62
7
370
30
 10
203.499996
 20
50.391351
 11
407.499996
 21
50.391351
  0
POINT
  5
1A8
100
AcDbEntity
  8
0-0
100
AcDbPoint
 62
7
 10
238.499996
 20
19.391351
  0
LINE
  5
1A9
100
AcDbEntity
  8
0-0
100
AcDbLine
  6
CONTINUOUS
 62
7
370
30
 10
290.499996
 20
50.391351
 11
290.499996
 21
30.391351
  0
LINE
  5
1AA
100
AcDbEntity
  8
0-0
100
AcDbLine
  6
CONTINUOUS
 62
7
370
30
 10
335.499996
 20
50.391351
 11
335.499996
 21
30.391351
  0
LINE
  5
1AB
100
AcDbEntity
  8
0-0
100
AcDbLine
  6
CONTINUOUS
 62
7
370
30
 10
365.499996
 20
50.391351
 11
365.499996
 21
30.391351
  0
LINE
  5
1AC
100
AcDbEntity
  8
0-0
100
AcDbLine
  6
CONTINUOUS
 62
7
370
30
 10
375.499996
 20
50.391351
 11
375.499996
 21
30.391351
  0
TEXT
  5
1AD
100
AcDbEntity
  8
0-0
 62
7
100
AcDbText
  6
BYLAYER
 62
7
 10
281.766662
 20
31.34135
 40
3.1
  1
品番
  7
Font_0
 11
281.766662
 21
34.44135
100
AcDbText
 73
3
  0
TEXT
  5
1AE
100
AcDbEntity
  8
0-0
 62
7
100
AcDbText
  6
BYLAYER
 62
7
 10
299.424995
 20
31.34135
 40
3.1
  1
部品名
  7
Font_0
 11
299.424995
 21
34.44135
100
AcDbText
 73
3
  0
TEXT
  5
1AF
100
AcDbEntity
  8
0-0
 62
7
100
AcDbText
  6
BYLAYER
 62
7
 10
343.433329
 20
31.34135
 40
3.1
  1
材質
  7
Font_0
 11
343.433329
 21
34.44135
100
AcDbText
 73
3
  0
TEXT
  5
1B0
100
AcDbEntity
  8
0-0
 62
7
100
AcDbText
  6
BYLAYER
 62
7
 10
368.949995
 20
31.34135
 40
3.1
  1
数
  7
Font_0
 11
368.949995
 21
34.44135
100
AcDbText
 73
3
  0
TEXT
  5
1B1
100
AcDbEntity
  8
0-0
 62
7
100
AcDbText
  6
BYLAYER
 62
7
 10
384.099995
 20
31.34135
 40
3.1
  1
備考
  7
Font_0
 11
384.099995
 21
34.44135
100
AcDbText
 73
3
  0
TEXT
  5
1B2
100
AcDbEntity
  8
0-0
 62
7
100
AcDbText
  6
BYLAYER
 62
7
 10
248.166662
 20
26.391351
 40
3
  1
検図
  7
Font_0
100
AcDbText
  0
TEXT
  5
1B3
100
AcDbEntity
  8
0-0
 62
5
100
AcDbText
  6
CONTINUOUS
 62
5
 10
284.128634676853
 20
35.5293164888174
 40
4
  1
1
  7
Font_0
 11
284.128634676853
 21
39.5293164888174
100
AcDbText
 73
3
  0
TEXT
  5
1B4
100
AcDbEntity
  8
0-0
 62
5
100
AcDbText
  6
CONTINUOUS
 62
5
 10
284.128633676853
 20
40.5293164888174
 40
4
  1
2
  7
Font_0
 11
284.128633676853
 21
44.5293164888174
100
AcDbText
 73
3
  0
TEXT
  5
1B5
100
AcDbEntity
  8
0-0
 62
5
100
AcDbText
  6
CONTINUOUS
 62
5
 10
284.128633676853
 20
45.5293164888174
 40
4
  1
3
  7
Font_0
 11
284.128633676853
 21
49.5293164888174
100
AcDbText
 73
3
  0
MTEXT
  5
1B6
100
AcDbEntity
  8
0-0
100
AcDbMText
 10
180
 20
10
 40
6
 41
  0.0
  1
{\fMS Gothic|b1;MinatoConcept,Inc.}
  7
Font_0
  0
MTEXT
  5
1B7
100
AcDbEntity
  8
0-0
100
AcDbMText
 10
18.0427428222653
 20
131.480984572703
 40
6
 41
  0.0
  1
\Lパネルカット寸法
  7
Font_0
  0
TEXT
  5
1B8
100
AcDbEntity
  8
0-0
100
AcDbText
  6
CONTINUOUS
 10
288.423560864708
 20
24.2895829992316
 40
4
  1
パネルマウント型
  7
Font_0
 11
288.423560864708
 21
28.2895829992316
100
AcDbText
 73
3
  0
TEXT
  5
1B9
100
AcDbEntity
  8
0-0
100
AcDbText
  6
CONTINUOUS
 10
288.504646942409
 20
14.5864056176379
 40
6
  1
ＭＣＲＰ２０４Ｐ
  7
Font_0
 11
288.504646942409
 21
20.5864056176379
100
AcDbText
 73
3
  0
TEXT
  5
1BA
100
AcDbEntity
  8
0-0
100
AcDbText
  6
CONTINUOUS
 10
290.499996
 20
35.5682753166465
 40
4
  1
２相ステッピングモータ
  7
Font_0
 11
290.499996
 21
39.5682753166465
100
AcDbText
 73
3
  0
TEXT
  5
1BB
100
AcDbEntity
  8
0-0
100
AcDbText
  6
CONTINUOUS
 10
369.267875327942
 20
35.4100809556544
 40
4
  1
1
  7
Font_0
 11
369.267875327942
 21
39.4100809556544
100
AcDbText
 73
3
  0
TEXT
  5
1BC
100
AcDbEntity
  8
0-0
100
AcDbText
  6
CONTINUOUS
 10
369.186789250241
 20
40.4374177731172
 40
4
  1
1
  7
Font_0
 11
369.186789250241
 21
44.4374177731172
100
AcDbText
 73
3
  0
TEXT
  5
1BD
100
AcDbEntity
  8
0-0
100
AcDbText
  6
CONTINUOUS
 10
369.10570317254
 20
45.383668512879
 40
4
  1
4
  7
Font_0
 11
369.10570317254
 21
49.383668512879
100
AcDbText
 73
3
  0
TEXT
  5
1BE
100
AcDbEntity
  8
0-0
100
AcDbText
  6
CONTINUOUS
 10
290.959468510065
 20
40.7664376395467
 40
4
  1
カップリング
  7
Font_0
 11
290.959468510065
 21
44.7664376395467
100
AcDbText
 73
3
  0
TEXT
  5
1BF
100
AcDbEntity
  8
0-0
100
AcDbText
  6
CONTINUOUS
 10
291.33284002608
 20
45.7096721090763
 40
4
  1
スペーサー
  7
Font_0
 11
291.33284002608
 21
49.7096721090763
100
AcDbText
 73
3
  0
TEXT
  5
1C0
100
AcDbEntity
  8
0-0
100
AcDbText
  6
CONTINUOUS
 10
206.395141375886
 20
17.0463660444977
 40
5
  1
1
  7
Font_0
 11
206.395141375886
 21
22.0463660444977
100
AcDbText
 73
3
  0
TEXT
  5
1C1
100
AcDbEntity
  8
0-0
100
AcDbText
  6
CONTINUOUS
 10
212.550927302134
 20
14.3788588097904
 40
5
  1
1
  7
Font_0
 11
212.550927302134
 21
19.3788588097904
100
AcDbText
 73
3
  0
LINE
  5
1C2
100
AcDbEntity
  8
0-0
100
AcDbLine
  6
CONTINUOUS
370
50
 10
172.602438305971
 20
232.028438943644
 11
172.602438305971
 21
223.028438943644
  0
LINE
  5
1C3
100
AcDbEntity
  8
0-0
100
AcDbLine
  6
CONTINUOUS
370
50
 10
162.602438305971
 20
232.528438943644
 11
162.602438305971
 21
164.528438943644
  0
LINE
  5
1C4
100
AcDbEntity
  8
0-0
100
AcDbLine
  6
CONTINUOUS
370
30
 10
161.402438305971
 20
169.528438943644
 11
161.402438305971
 21
229.528438943644
  0
LINE
  5
1C5
100
AcDbEntity
  8
0-0
100
AcDbLine
  6
CONTINUOUS
370
30
 10
142.886578478066
 20
192.028438943644
 11
142.886578478066
 21
208.028438943644
  0
LINE
  5
1C6
100
AcDbEntity
  8
0-0
100
AcDbLine
  6
CONTINUOUS
370
30
 10
156.886578478066
 20
208.028438943644
 11
156.886578478066
 21
204.028438943644
  0
LINE
  5
1C7
100
AcDbEntity
  8
0-0
100
AcDbLine
  6
CONTINUOUS
370
30
 10
145.886578478066
 20
193.098438943644
 11
145.886578478066
 21
206.958438943644
  0
LINE
  5
1C8
100
AcDbEntity
  8
0-0
100
AcDbLine
  6
CONTINUOUS
370
30
 10
142.386578478066
 20
207.528438943644
 11
142.386578478066
 21
192.528438943644
  0
LINE
  5
1C9
100
AcDbEntity
  8
0-0
100
AcDbLine
  6
CONTINUOUS
370
30
 10
145.386578478066
 20
193.098438943644
 11
145.386578478066
 21
206.958438943644
  0
LINE
  5
1CA
100
AcDbEntity
  8
0-0
100
AcDbLine
  6
CONTINUOUS
370
30
 10
159.886578478066
 20
192.028438943644
 11
159.886578478066
 21
208.028438943644
  0
LINE
  5
1CB
100
AcDbEntity
  8
0-0
100
AcDbLine
  6
CONTINUOUS
370
30
 10
157.386578478066
 20
208.028438943644
 11
157.386578478066
 21
204.028438943644
  0
LINE
  5
1CC
100
AcDbEntity
  8
0-0
100
AcDbLine
  6
CONTINUOUS
370
30
 10
160.386578478066
 20
192.528438943644
 11
160.386578478066
 21
207.528438943644
  0
LINE
  5
1CD
100
AcDbEntity
  8
0-0
100
AcDbLine
  6
CONTINUOUS
370
30
 10
149.386578478066
 20
208.028438943644
 11
142.886578478066
 21
208.028438943644
  0
LINE
  5
1CE
100
AcDbEntity
  8
0-0
100
AcDbLine
  6
CONTINUOUS
370
30
 10
145.386578478066
 20
206.958438943644
 11
149.886578478066
 21
206.958438943644
  0
LINE
  5
1CF
100
AcDbEntity
  8
0-0
100
AcDbLine
  6
CONTINUOUS
370
30
 10
149.886578478066
 20
208.028438943644
 11
156.886578478066
 21
208.028438943644
  0
LINE
  5
1D0
100
AcDbEntity
  8
0-0
100
AcDbLine
  6
CONTINUOUS
370
30
 10
159.886578478066
 20
208.028438943644
 11
157.386578478066
 21
208.028438943644
  0
LINE
  5
1D1
100
AcDbEntity
  8
0-0
100
AcDbLine
  6
CONTINUOUS
370
30
 10
160.386578478066
 20
207.528438943644
 11
159.886578478066
 21
208.028438943644
  0
LINE
  5
1D2
100
AcDbEntity
  8
0-0
100
AcDbLine
  6
CONTINUOUS
370
30
 10
157.386578478066
 20
207.278438943644
 11
156.886578478066
 21
207.567113943644
  0
LINE
  5
1D3
100
AcDbEntity
  8
0-0
100
AcDbLine
  6
CONTINUOUS
370
30
 10
149.886578478066
 20
206.958438943644
 11
149.886578478066
 21
208.028438943644
  0
LINE
  5
1D4
100
AcDbEntity
  8
0-0
100
AcDbLine
  6
CONTINUOUS
370
30
 10
149.386578478066
 20
206.958438943644
 11
149.386578478066
 21
208.028438943644
  0
LINE
  5
1D5
100
AcDbEntity
  8
0-0
100
AcDbLine
  6
CONTINUOUS
370
30
 10
142.886578478066
 20
208.028438943644
 11
142.386578478066
 21
207.528438943644
  0
LINE
  5
1D6
100
AcDbEntity
  8
0-0
100
AcDbLine
  6
CONTINUOUS
370
30
 10
149.886578478066
 20
193.098438943644
 11
145.386578478066
 21
193.098438943644
  0
LINE
  5
1D7
100
AcDbEntity
  8
0-0
100
AcDbLine
  6
CONTINUOUS
370
30
 10
142.886578478066
 20
192.028438943644
 11
149.386578478066
 21
192.028438943644
  0
LINE
  5
1D8
100
AcDbEntity
  8
0-0
100
AcDbLine
  6
CONTINUOUS
370
30
 10
156.886578478066
 20
196.028438943644
 11
156.886578478066
 21
192.028438943644
  0
LINE
  5
1D9
100
AcDbEntity
  8
0-0
100
AcDbLine
  6
CONTINUOUS
370
30
 10
157.386578478066
 20
196.028438943644
 11
157.386578478066
 21
192.028438943644
  0
LINE
  5
1DA
100
AcDbEntity
  8
0-0
100
AcDbLine
  6
CONTINUOUS
370
30
 10
153.086578478066
 20
196.028438943644
 11
157.386578478066
 21
196.028438943644
  0
LINE
  5
1DB
100
AcDbEntity
  8
0-0
100
AcDbLine
  6
CONTINUOUS
370
30
 10
157.386578478066
 20
204.028438943644
 11
153.086578478066
 21
204.028438943644
  0
CIRCLE
  5
1DC
100
AcDbEntity
  8
0-0
100
AcDbCircle
  6
CONTINUOUS
370
13
 10
156.886578478066
 20
200.028438943644
 40
1.25
  0
CIRCLE
  5
1DD
100
AcDbEntity
  8
0-0
100
AcDbCircle
  6
CONTINUOUS
370
13
 10
156.886578478066
 20
200.028438943644
 40
1.5
  0
LINE
  5
1DE
100
AcDbEntity
  8
0-0
100
AcDbLine
  6
CONTINUOUS
370
30
 10
160.386578478066
 20
200.028438943644
 11
160.386478478066
 21
200.028438943644
  0
LINE
  5
1DF
100
AcDbEntity
  8
0-0
100
AcDbLine
  6
CONTINUOUS
370
30
 10
157.386578478066
 20
204.778438943644
 11
156.886578478066
 21
204.489763943644
  0
LINE
  5
1E0
100
AcDbEntity
  8
0-0
100
AcDbLine
  6
CONTINUOUS
370
30
 10
160.386578478066
 20
196.278438943644
 11
160.386578478066
 21
196.278338943644
  0
LINE
  5
1E1
100
AcDbEntity
  8
0-0
100
AcDbLine
  6
CONTINUOUS
370
30
 10
157.386578478066
 20
195.278438943644
 11
156.886578478066
 21
195.567113943644
  0
LINE
  5
1E2
100
AcDbEntity
  8
0-0
100
AcDbLine
  6
CONTINUOUS
370
30
 10
153.386578478066
 20
203.828438943644
 11
153.386578478066
 21
196.228438943644
  0
LINE
  5
1E3
100
AcDbEntity
  8
0-0
100
AcDbLine
  6
CONTINUOUS
370
30
 10
152.886578478066
 20
203.828438943644
 11
152.886578478066
 21
196.228438943644
  0
LINE
  5
1E4
100
AcDbEntity
  8
0-0
100
AcDbLine
  6
CONTINUOUS
370
30
 10
153.386578478066
 20
203.828438943644
 11
153.586578478066
 21
204.028438943644
  0
ARC
  5
1E5
100
AcDbEntity
  8
0-0
100
AcDbCircle
  6
CONTINUOUS
370
30
 10
153.086578478066
 20
203.828438943644
 40
0.2
100
AcDbArc
 50
450
 51
540
  0
LINE
  5
1E6
100
AcDbEntity
  8
0-0
100
AcDbLine
  6
CONTINUOUS
370
30
 10
153.386578478066
 20
196.228438943644
 11
153.586578478066
 21
196.028438943644
  0
ARC
  5
1E7
100
AcDbEntity
  8
0-0
100
AcDbCircle
  6
CONTINUOUS
370
30
 10
153.086578478066
 20
196.228438943644
 40
0.2
100
AcDbArc
 50
180
 51
270
  0
LINE
  5
1E8
100
AcDbEntity
  8
0-0
100
AcDbLine
  6
CONTINUOUS
370
30
 10
156.886578478066
 20
192.028438943644
 11
149.886578478066
 21
192.028438943644
  0
LINE
  5
1E9
100
AcDbEntity
  8
0-0
100
AcDbLine
  6
CONTINUOUS
370
30
 10
157.386578478066
 20
192.028438943644
 11
159.886578478066
 21
192.028438943644
  0
LINE
  5
1EA
100
AcDbEntity
  8
0-0
100
AcDbLine
  6
CONTINUOUS
370
30
 10
159.886578478066
 20
192.028438943644
 11
160.386578478066
 21
192.528438943644
  0
LINE
  5
1EB
100
AcDbEntity
  8
0-0
100
AcDbLine
  6
CONTINUOUS
370
30
 10
157.386578478066
 20
192.778438943644
 11
156.886578478066
 21
192.489763943644
  0
LINE
  5
1EC
100
AcDbEntity
  8
0-0
100
AcDbLine
  6
CONTINUOUS
370
30
 10
149.886578478066
 20
193.098438943644
 11
149.886578478066
 21
192.028438943644
  0
LINE
  5
1ED
100
AcDbEntity
  8
0-0
100
AcDbLine
  6
CONTINUOUS
370
30
 10
149.386578478066
 20
192.028438943644
 11
149.386578478066
 21
193.098438943644
  0
LINE
  5
1EE
100
AcDbEntity
  8
0-0
100
AcDbLine
  6
CONTINUOUS
370
30
 10
145.386578478066
 20
201.278438943644
 11
145.886578478066
 21
201.567113943644
  0
LINE
  5
1EF
100
AcDbEntity
  8
0-0
100
AcDbLine
  6
CONTINUOUS
370
30
 10
145.386578478066
 20
198.778438943644
 11
145.886578478066
 21
198.489763943644
  0
LINE
  5
1F0
100
AcDbEntity
  8
0-0
100
AcDbLine
  6
CONTINUOUS
370
30
 10
142.886578478066
 20
192.028438943644
 11
142.386578478066
 21
192.528438943644
  0
LINE
  5
1F1
100
AcDbEntity
  8
0-0
100
AcDbLine
  6
CONTINUOUS
370
30
 10
159.102438305971
 20
172.958438943644
 11
159.102438305971
 21
179.958438943644
  0
LINE
  5
1F2
100
AcDbEntity
  8
0-0
100
AcDbLine
  6
CONTINUOUS
370
30
 10
159.102438305971
 20
227.098438943644
 11
139.102438305971
 21
227.098438943644
  0
LINE
  5
1F3
100
AcDbEntity
  8
0-0
100
AcDbLine
  6
CONTINUOUS
370
30
 10
139.102438305971
 20
220.098438943644
 11
159.102438305971
 21
220.098438943644
  0
LINE
  5
1F4
100
AcDbEntity
  8
0-0
100
AcDbLine
  6
CONTINUOUS
370
30
 10
139.102438305971
 20
179.958438943644
 11
159.102438305971
 21
179.958438943644
  0
LINE
  5
1F5
100
AcDbEntity
  8
0-0
100
AcDbLine
  6
CONTINUOUS
370
30
 10
139.102438305971
 20
172.958438943644
 11
159.102438305971
 21
172.958438943644
  0
LINE
  5
1F6
100
AcDbEntity
  8
0-0
100
AcDbLine
  6
CONTINUOUS
370
30
 10
161.402438305971
 20
170.528438943644
 11
159.102438305971
 21
170.528438943644
  0
LINE
  5
1F7
100
AcDbEntity
  8
0-0
100
AcDbLine
  6
CONTINUOUS
370
30
 10
161.402438305971
 20
169.528438943644
 11
159.102438305971
 21
169.528438943644
  0
LINE
  5
1F8
100
AcDbEntity
  8
0-0
100
AcDbLine
  6
CONTINUOUS
370
30
 10
159.102438305971
 20
189.528438943644
 11
161.391074559489
 21
189.528438943644
  0
LINE
  5
1F9
100
AcDbEntity
  8
0-0
100
AcDbLine
  6
CONTINUOUS
370
30
 10
159.102438305971
 20
209.528438943644
 11
161.397454252991
 21
209.528438943644
  0
LINE
  5
1FA
100
AcDbEntity
  8
0-0
100
AcDbLine
  6
CONTINUOUS
370
13
 10
162.602438305971
 20
157.119556894793
 11
162.602438305971
 21
244.340796254516
  0
LINE
  5
1FB
100
AcDbEntity
  8
0-0
100
AcDbLine
  6
CONTINUOUS
370
13
 10
161.402438305971
 20
158.170144214567
 11
161.402438305971
 21
245.642934979527
  0
LINE
  5
1FC
100
AcDbEntity
  8
0-0
100
AcDbLine
  6
CONTINUOUS
370
30
 10
159.102438305971
 20
169.528438943644
 11
159.102438305971
 21
192.028438943644
  0
LINE
  5
1FD
100
AcDbEntity
  8
0-0
100
AcDbLine
  6
CONTINUOUS
370
50
 10
160.386578478066
 20
202.528438943644
 11
161.402438305971
 21
202.528438943644
  0
LINE
  5
1FE
100
AcDbEntity
  8
0-0
100
AcDbLine
  6
CONTINUOUS
370
50
 10
160.386578478066
 20
197.528438943644
 11
161.402438305971
 21
197.528438943644
  0
LWPOLYLINE
  5
1FF
100
AcDbEntity
  8
0-0
100
AcDbPolyline
  6
CONTINUOUS
370
13
 90
     136
 10
159.10744922332
  20
213.185137026359
 10
159.124580638413
  20
213.185136347263
 10
159.141712314391
  20
213.185134649524
 10
159.158844120813
  20
213.185132442462
 10
159.175975927235
  20
213.1851302354
 10
159.193107603213
  20
213.18512853766
 10
159.210239018305
  20
213.185127858565
 10
159.227370042068
  20
213.185128707434
 10
159.244500544058
  20
213.185131593592
 10
159.261630393832
  20
213.185137026359
 10
159.27875954791
  20
213.18514517551
 10
159.295888310658
  20
213.185154852627
 10
159.313017073405
  20
213.185164529744
 10
159.330146227483
  20
213.185172678895
 10
159.347276164219
  20
213.185177772114
 10
159.364407274944
  20
213.185178281436
 10
159.381539950986
  20
213.185172678895
 10
159.398674583677
  20
213.185159436524
 10
159.415811564344
  20
213.185137026359
 10
159.432950979951
  20
213.185105108851
 10
159.450091699989
  20
213.185068098124
 10
159.467232289584
  20
213.185031596719
 10
159.484371313862
  20
213.185001207177
 10
159.501507337946
  20
213.184982532039
 10
159.518638926962
  20
213.184981173848
 10
159.535764646036
  20
213.185002735143
 10
159.552883060292
  20
213.185052818466
 10
159.569992734856
  20
213.185137026359
 10
159.58709336536
  20
213.18525654724
 10
159.604189169467
  20
213.185394913032
 10
159.621285495347
  20
213.185531241536
 10
159.638387691169
  20
213.185644650554
 10
159.655501105104
  20
213.185714257884
 10
159.672631085321
  20
213.18571918133
 10
159.689782979991
  20
213.18563853869
 10
159.706962137284
  20
213.185451447767
 10
159.724173905368
  20
213.185137026359
 10
159.741438328705
  20
213.184676192491
 10
159.758719393635
  20
213.184060285783
 10
159.775995698529
  20
213.18328277507
 10
159.793245841756
  20
213.182337129193
 10
159.810448421688
  20
213.181216816989
 10
159.827582036696
  20
213.179915307295
 10
159.84462528515
  20
213.17842606895
 10
159.861556765422
  20
213.176742570792
 10
159.87835507588
  20
213.174858281659
 10
159.894508893353
  20
213.172840119739
 10
159.910548575391
  20
213.170665484969
 10
159.926505395139
  20
213.16837293676
 10
159.942410625742
  20
213.166001034521
 10
159.958295540347
  20
213.163588337663
 10
159.974191412099
  20
213.161173405597
 10
159.990129514143
  20
213.158794797734
 10
160.006141119626
  20
213.156491073484
 10
160.022257501692
  20
213.154300792257
 10
160.039008505133
  20
213.152198996444
 10
160.055889262395
  20
213.150282285674
 10
160.072884904455
  20
213.148574164185
 10
160.089980562288
  20
213.147098136218
 10
160.10716136687
  20
213.14587770601
 10
160.124412449177
  20
213.144936377801
 10
160.141718940184
  20
213.14429765583
 10
160.159065970868
  20
213.143985044335
 10
160.176438672203
  20
213.144022047556
 10
160.19380194382
  20
213.144404204199
 10
160.211155357545
  20
213.145018303881
 10
160.228478277785
  20
213.14572399709
 10
160.245750068944
  20
213.146380934309
 10
160.262950095428
  20
213.146848766025
 10
160.280057721642
  20
213.146987142722
 10
160.297052311991
  20
213.146655714886
 10
160.313913230881
  20
213.145714133002
 10
160.330619842716
  20
213.144022047556
 10
160.346782723089
  20
213.141561832481
 10
160.362815683764
  20
213.138433928088
 10
160.378755791545
  20
213.13482098339
 10
160.394640113237
  20
213.130905647397
 10
160.410505715645
  20
213.126870569123
 10
160.426389665573
  20
213.122898397579
 10
160.442329029826
  20
213.119171781779
 10
160.458360875209
  20
213.115873370733
 10
160.474522268527
  20
213.113185813454
 10
160.491227016073
  20
213.111208714121
 10
160.508085937861
  20
213.109961813937
 10
160.525078654961
  20
213.109344002482
 10
160.542184788444
  20
213.109254169334
 10
160.559383959379
  20
213.109591204072
 10
160.576655788836
  20
213.110253996275
 10
160.593979897885
  20
213.11114143552
 10
160.611335907596
  20
213.112152411387
 10
160.628703439039
  20
213.113185813454
 10
160.646063097416
  20
213.114149273991
 10
160.663399424465
  20
213.114985396033
 10
160.680697946053
  20
213.115645525306
 10
160.697944188048
  20
213.116081007536
 10
160.71512367632
  20
213.116243188449
 10
160.732221936738
  20
213.116083413772
 10
160.74922449517
  20
213.115553029229
 10
160.766116877485
  20
213.114603380548
 10
160.782884609551
  20
213.113185813454
 10
160.799039502901
  20
213.111341796014
 10
160.815090148725
  20
213.109123846891
 10
160.831063467222
  20
213.106645063801
 10
160.846986378587
  20
213.10401854446
 10
160.862885803019
  20
213.101357386584
 10
160.878788660715
  20
213.098774687889
 10
160.894721871873
  20
213.096383546091
 10
160.910712356689
  20
213.094297058907
 10
160.926787035362
  20
213.092628324052
 10
160.943453523173
  20
213.091431992714
 10
160.960237365461
  20
213.090719522277
 10
160.977138062454
  20
213.090411722141
 10
160.994155114377
  20
213.090429401706
 10
161.011288021457
  20
213.090693370372
 10
161.028536283921
  20
213.091124437539
 10
161.045899401994
  20
213.091643412609
 10
161.063376875903
  20
213.09217110498
 10
161.080968205874
  20
213.092628324052
 10
161.099249389086
  20
213.092960887346
 10
161.117614622212
  20
213.093156759349
 10
161.136027041794
  20
213.093238890262
 10
161.15444978437
  20
213.093230230284
 10
161.172845986482
  20
213.093153729616
 10
161.19117878467
  20
213.093032338459
 10
161.209411315473
  20
213.092889007012
 10
161.227506715432
  20
213.092746685476
 10
161.245428121087
  20
213.092628324052
 10
161.262008769591
  20
213.092555352456
 10
161.27841590596
  20
213.092516586296
 10
161.294660518598
  20
213.092505184484
 10
161.310753595914
  20
213.092514305933
 10
161.326706126315
  20
213.092537109557
 10
161.342529098206
  20
213.092566754268
 10
161.358233499996
  20
213.092596398979
 10
161.373830320091
  20
213.092619202603
 10
161.389330546898
  20
213.092628324052
  0
LINE
  5
200
100
AcDbEntity
  8
0-0
100
AcDbLine
  6
CONTINUOUS
370
13
 10
154.472938305971
 20
225.168938943644
 11
159.702438305971
 21
225.168938943644
  0
LINE
  5
201
100
AcDbEntity
  8
0-0
100
AcDbLine
  6
CONTINUOUS
370
13
 10
154.472938305971
 20
222.027938943644
 11
159.702438305971
 21
222.027938943644
  0
LINE
  5
202
100
AcDbEntity
  8
0-0
100
AcDbLine
  6
CONTINUOUS
370
13
 10
154.902438305971
 20
225.598438943644
 11
154.402438305971
 21
225.098438943644
  0
LINE
  5
203
100
AcDbEntity
  8
0-0
100
AcDbLine
  6
CONTINUOUS
370
13
 10
154.902438305971
 20
221.598438943644
 11
154.402438305971
 21
222.098438943644
  0
LINE
  5
204
100
AcDbEntity
  8
0-0
100
AcDbLine
  6
CONTINUOUS
370
13
 10
154.902438305971
 20
221.598438943644
 11
154.902438305971
 21
225.598438943644
  0
LINE
  5
205
100
AcDbEntity
  8
0-0
100
AcDbLine
  6
CONTINUOUS
370
13
 10
161.102438305971
 20
225.598438943644
 11
154.902438305971
 21
225.598438943644
  0
LINE
  5
206
100
AcDbEntity
  8
0-0
100
AcDbLine
  6
CONTINUOUS
370
13
 10
154.902438305971
 20
221.598438943644
 11
161.102438305971
 21
221.598438943644
  0
LINE
  5
207
100
AcDbEntity
  8
0-0
100
AcDbLine
  6
CONTINUOUS
370
13
 10
162.402438305971
 20
226.598438943644
 11
162.402438305971
 21
220.598438943644
  0
LINE
  5
208
100
AcDbEntity
  8
0-0
100
AcDbLine
  6
CONTINUOUS
370
13
 10
154.402438305971
 20
222.098438943644
 11
154.402438305971
 21
225.098438943644
  0
LINE
  5
209
100
AcDbEntity
  8
0-0
100
AcDbLine
  6
CONTINUOUS
370
13
 10
159.702438305971
 20
222.027938943644
 11
160.446354305971
 21
221.598438943644
  0
LINE
  5
20A
100
AcDbEntity
  8
0-0
100
AcDbLine
  6
CONTINUOUS
370
13
 10
159.702438305971
 20
225.168938943644
 11
160.446354305971
 21
225.598438943644
  0
LINE
  5
20B
100
AcDbEntity
  8
0-0
100
AcDbLine
  6
CONTINUOUS
370
13
 10
161.102438305971
 20
225.598438943644
 11
161.102438305971
 21
221.598438943644
  0
LINE
  5
20C
100
AcDbEntity
  8
0-0
100
AcDbLine
  6
CONTINUOUS
370
13
 10
162.102438305971
 20
226.598438943644
 11
162.102438305971
 21
220.598438943644
  0
LINE
  5
20D
100
AcDbEntity
  8
0-0
100
AcDbLine
  6
CONTINUOUS
370
13
 10
161.402438305971
 20
220.198438943644
 11
160.002438305971
 21
221.598438943644
  0
LINE
  5
20E
100
AcDbEntity
  8
0-0
100
AcDbLine
  6
CONTINUOUS
370
13
 10
160.002438305971
 20
225.598438943644
 11
161.402438305971
 21
226.998438943644
  0
LINE
  5
20F
100
AcDbEntity
  8
0-0
100
AcDbLine
  6
CONTINUOUS
370
13
 10
159.702438305971
 20
225.598438943644
 11
159.702438305971
 21
221.598438943644
  0
LINE
  5
210
100
AcDbEntity
  8
0-0
100
AcDbLine
  6
CONTINUOUS
370
20
 10
147.052438305971
 20
225.248438943644
 11
154.552438305971
 21
225.248438943644
  0
LINE
  5
211
100
AcDbEntity
  8
0-0
100
AcDbLine
  6
CONTINUOUS
370
20
 10
147.052438305971
 20
221.948438943644
 11
154.552438305971
 21
221.948438943644
  0
LINE
  5
212
100
AcDbEntity
  8
0-0
100
AcDbLine
  6
CONTINUOUS
370
13
 10
162.402438305971
 20
220.598438943644
 11
162.102438305971
 21
220.598438943644
  0
LINE
  5
213
100
AcDbEntity
  8
0-0
100
AcDbLine
  6
CONTINUOUS
370
13
 10
162.402438305971
 20
226.598438943644
 11
162.102438305971
 21
226.598438943644
  0
LINE
  5
214
100
AcDbEntity
  8
0-0
100
AcDbLine
  6
CONTINUOUS
370
13
 10
146.787397867646
 20
225.498438943644
 11
154.802438305971
 21
225.498438943644
  0
LINE
  5
215
100
AcDbEntity
  8
0-0
100
AcDbLine
  6
CONTINUOUS
370
13
 10
146.802438305971
 20
221.698438943644
 11
154.802438305971
 21
221.698438943644
  0
LINE
  5
216
100
AcDbEntity
  8
0-0
100
AcDbLine
  6
CONTINUOUS
370
30
 10
159.102438305971
 20
208.028438943644
 11
159.102438305971
 21
221.098438943644
  0
LINE
  5
217
100
AcDbEntity
  8
0-0
100
AcDbLine
  6
CONTINUOUS
370
30
 10
159.102438305971
 20
225.598438943644
 11
159.102438305971
 21
230.528438943644
  0
LINE
  5
218
100
AcDbEntity
  8
0-0
100
AcDbLine
  6
CONTINUOUS
370
30
 10
159.102438305971
 20
220.098438943644
 11
159.102438305971
 21
221.598438943644
  0
LINE
  5
219
100
AcDbEntity
  8
0-0
100
AcDbLine
  6
CONTINUOUS
370
30
 10
159.102438305971
 20
225.598438943644
 11
159.102438305971
 21
227.098438943644
  0
LINE
  5
21A
100
AcDbEntity
  8
0-0
100
AcDbLine
  6
CONTINUOUS
370
13
 10
159.102438305971
 20
225.821074365928
 11
161.402438305971
 21
228.121074365928
  0
LINE
  5
21B
100
AcDbEntity
  8
0-0
100
AcDbLine
  6
CONTINUOUS
370
13
 10
159.102438305971
 20
227.942394709488
 11
161.402438305971
 21
230.242394709488
  0
LINE
  5
21C
100
AcDbEntity
  8
0-0
100
AcDbLine
  6
CONTINUOUS
370
13
 10
161.216270279698
 20
213.085663934737
 11
161.402438305971
 21
213.27183196101
  0
LINE
  5
21D
100
AcDbEntity
  8
0-0
100
AcDbLine
  6
CONTINUOUS
370
13
 10
159.227532457611
 20
213.21824645621
 11
161.402438305971
 21
215.39315230457
  0
LINE
  5
21E
100
AcDbEntity
  8
0-0
100
AcDbLine
  6
CONTINUOUS
370
13
 10
159.102438305971
 20
215.21447264813
 11
161.402438305971
 21
217.51447264813
  0
LINE
  5
21F
100
AcDbEntity
  8
0-0
100
AcDbLine
  6
CONTINUOUS
370
13
 10
159.102438305971
 20
217.335792991689
 11
161.402438305971
 21
219.635792991689
  0
LINE
  5
220
100
AcDbEntity
  8
0-0
100
AcDbLine
  6
CONTINUOUS
370
13
 10
159.102438305971
 20
219.457113335249
 11
160.623101110168
 21
220.977776139447
  0
LINE
  5
221
100
AcDbEntity
  8
0-0
100
AcDbLine
  6
DASHDOT
370
13
 10
76.4045269863408
 20
67.3179246530634
 11
121.833976870746
 21
67.3179246530634
  0
LINE
  5
222
100
AcDbEntity
  8
0-0
100
AcDbLine
  6
DASHDOT
370
13
 10
97.5563134045082
 20
31.4690312980138
 11
97.5563134045082
 21
101.689713163258
  0
LINE
  5
223
100
AcDbEntity
  8
0-0
100
AcDbLine
  6
DASHDOT
370
13
 10
111.526932819112
 20
53.3473052384596
 11
131.83510710227
 21
33.039130955302
  0
LINE
  5
224
100
AcDbEntity
  8
0-0
100
AcDbLine
  6
DASHDOT
370
13
 10
87.0615973782448
 20
56.8232086268001
 11
70.93182418612
 21
40.6934354346753
  0
CIRCLE
  5
225
100
AcDbEntity
  8
0-0
100
AcDbCircle
  6
CONTINUOUS
370
40
 10
121.126313404508
 20
90.8879246530634
 40
2.25
  0
CIRCLE
  5
226
100
AcDbEntity
  8
0-0
100
AcDbCircle
  6
CONTINUOUS
370
40
 10
73.9863134045082
 20
90.8879246530635
 40
2.25
  0
CIRCLE
  5
227
100
AcDbEntity
  8
0-0
100
AcDbCircle
  6
CONTINUOUS
370
40
 10
73.9863134045082
 20
43.7479246530634
 40
2.25
  0
CIRCLE
  5
228
100
AcDbEntity
  8
0-0
100
AcDbCircle
  6
CONTINUOUS
370
40
 10
121.126313404508
 20
43.7479246530634
 40
2.25
  0
CIRCLE
  5
229
100
AcDbEntity
  8
0-0
100
AcDbCircle
  6
CONTINUOUS
370
30
 10
73.9863134045082
 20
43.7479246530634
 40
3
  0
CIRCLE
  5
22A
100
AcDbEntity
  8
0-0
100
AcDbCircle
  6
CONTINUOUS
370
30
 10
121.126313404508
 20
43.7479246530634
 40
3
  0
CIRCLE
  5
22B
100
AcDbEntity
  8
0-0
100
AcDbCircle
  6
CONTINUOUS
370
30
 10
121.126313404508
 20
90.8879246530634
 40
3
  0
CIRCLE
  5
22C
100
AcDbEntity
  8
0-0
100
AcDbCircle
  6
CONTINUOUS
370
30
 10
73.9863134045082
 20
90.8879246530635
 40
3
  0
ARC
  5
22D
100
AcDbEntity
  8
0-0
100
AcDbCircle
  6
DASHDOT
370
13
 10
97.5563134045082
 20
67.3179246530634
 40
27.5
100
AcDbArc
 50
-156.252113169511
 51
-111.864806997735
  0
ARC
  5
22E
100
AcDbEntity
  8
0-0
100
AcDbCircle
  6
DASHDOT
370
13
 10
97.5563134045082
 20
67.3179246530634
 40
27.5
100
AcDbArc
 50
-68.1031376639487
 51
-19.9944902227798
  0
ARC
  5
22F
100
AcDbEntity
  8
0-0
100
AcDbCircle
  6
DASHDOT
370
13
 10
97.5563134045082
 20
67.3179246530634
 40
27.5
100
AcDbArc
 50
48.4321091136159
 51
127.420677301999
  0
LINE
  5
230
100
AcDbEntity
  8
0-0
100
AcDbLine
  6
DASHDOT
370
13
 10
73.9863134045082
 20
95.9114821452829
 11
73.9863134045082
 21
83.8059791078836
  0
LINE
  5
231
100
AcDbEntity
  8
0-0
100
AcDbLine
  6
DASHDOT
370
13
 10
73.9863134045082
 20
51.5261263876371
 11
73.9863134045082
 21
37.5000819702067
  0
LINE
  5
232
100
AcDbEntity
  8
0-0
100
AcDbLine
  6
DASHDOT
370
13
 10
67.1909693472026
 20
43.7479246530634
 11
81.1784224766093
 21
43.7479246530635
  0
LINE
  5
233
100
AcDbEntity
  8
0-0
100
AcDbLine
  6
DASHDOT
370
13
 10
112.788687224128
 20
43.7479246530634
 11
127.957443181066
 21
43.7479246530634
  0
LINE
  5
234
100
AcDbEntity
  8
0-0
100
AcDbLine
  6
DASHDOT
370
13
 10
121.126313404508
 20
36.7109069853391
 11
121.126313404508
 21
51.1213480491249
  0
LINE
  5
235
100
AcDbEntity
  8
0-0
100
AcDbLine
  6
DASHDOT
370
13
 10
121.126313404508
 20
83.5686133055635
 11
121.126313404508
 21
95.7632524336149
  0
LINE
  5
236
100
AcDbEntity
  8
0-0
100
AcDbLine
  6
DASHDOT
370
13
 10
126.890041027445
 20
90.8879246530634
 11
114.916069112742
 21
90.8879246530635
  0
LINE
  5
237
100
AcDbEntity
  8
0-0
100
AcDbLine
  6
DASHDOT
370
13
 10
80.9959297996219
 20
90.8879246530635
 11
68.3393049234123
 21
90.8879246530635
  0
TEXT
  5
238
100
AcDbEntity
  8
0-0
100
AcDbText
  6
CONTINUOUS
 10
73.8607889653384
 20
261.712252026941
 40
6
  1
１
  7
Font_0
 72
1
 11
76.8607889653384
 21
264.712252026941
100
AcDbText
 73
2
  0
CIRCLE
  5
239
100
AcDbEntity
  8
0-0
100
AcDbCircle
  6
CONTINUOUS
370
13
 10
76.8607889653384
 20
264.712252026941
 40
5
  0
LINE
  5
23A
100
AcDbEntity
  8
0-0
100
AcDbLine
  6
CONTINUOUS
370
13
 10
113.539815978401
 20
228.033225013878
 11
80.3910882923324
 21
261.181952699947
  0
LINE
  5
23B
100
AcDbEntity
  8
0-0
100
AcDbLine
  6
CONTINUOUS
370
13
 10
113.539815978401
 20
228.033225013878
 11
110.941739767048
 21
229.533225013878
  0
LINE
  5
23C
100
AcDbEntity
  8
0-0
100
AcDbLine
  6
CONTINUOUS
370
13
 10
113.539815978401
 20
228.033225013878
 11
112.039815978401
 21
230.631301225232
  0
TEXT
  5
23D
100
AcDbEntity
  8
0-0
100
AcDbText
  6
CONTINUOUS
 10
116.557486541014
 20
154.310695871731
 40
6
  1
2
  7
Font_0
 72
1
 11
118.057486541014
 21
157.310695871731
100
AcDbText
 73
2
  0
CIRCLE
  5
23E
100
AcDbEntity
  8
0-0
100
AcDbCircle
  6
CONTINUOUS
370
13
 10
118.057486541014
 20
157.310695871731
 40
5
  0
LINE
  5
23F
100
AcDbEntity
  8
0-0
100
AcDbLine
  6
CONTINUOUS
370
13
 10
152.775229612928
 20
192.028438943644
 11
121.593020446947
 21
160.846229777663
  0
LINE
  5
240
100
AcDbEntity
  8
0-0
100
AcDbLine
  6
CONTINUOUS
370
13
 10
152.775229612928
 20
192.028438943644
 11
151.275229612928
 21
189.430362732291
  0
LINE
  5
241
100
AcDbEntity
  8
0-0
100
AcDbLine
  6
CONTINUOUS
370
13
 10
152.775229612928
 20
192.028438943644
 11
150.177153401575
 21
190.528438943644
  0
TEXT
  5
242
100
AcDbEntity
  8
0-0
100
AcDbText
  6
CONTINUOUS
 10
135.954695234057
 20
154.310695871731
 40
6
  1
3
  7
Font_0
 72
1
 11
137.454695234057
 21
157.310695871731
100
AcDbText
 73
2
  0
CIRCLE
  5
243
100
AcDbEntity
  8
0-0
100
AcDbCircle
  6
CONTINUOUS
370
13
 10
137.454695234057
 20
157.310695871731
 40
5
  0
LINE
  5
244
100
AcDbEntity
  8
0-0
100
AcDbLine
  6
CONTINUOUS
370
13
 10
153.102438305971
 20
172.958438943644
 11
140.99022913999
 21
160.846229777663
  0
LINE
  5
245
100
AcDbEntity
  8
0-0
100
AcDbLine
  6
CONTINUOUS
370
13
 10
153.102438305971
 20
172.958438943644
 11
151.602438305971
 21
170.360362732291
  0
LINE
  5
246
100
AcDbEntity
  8
0-0
100
AcDbLine
  6
CONTINUOUS
370
13
 10
153.102438305971
 20
172.958438943644
 11
150.504362094617
 21
171.458438943644
  0
LINE
  5
247
100
AcDbEntity
  8
0-0
100
AcDbLine
  6
CONTINUOUS
370
13
 10
68.0893049234123
 20
90.8879246530635
 11
52.1130863190571
 21
90.8879246530635
  0
LINE
  5
248
100
AcDbEntity
  8
0-0
100
AcDbLine
  6
CONTINUOUS
370
13
 10
52.6130863190571
 20
90.8879246530635
 11
52.6130863190571
 21
43.7479246530634
  0
LINE
  5
249
100
AcDbEntity
  8
0-0
100
AcDbLine
  6
CONTINUOUS
370
13
 10
52.6130863190571
 20
90.8879246530635
 11
53.3895434543646
 21
87.9901471741963
  0
LINE
  5
24A
100
AcDbEntity
  8
0-0
100
AcDbLine
  6
CONTINUOUS
370
13
 10
52.6130863190571
 20
90.8879246530635
 11
51.8366291837495
 21
87.9901471741962
  0
LINE
  5
24B
100
AcDbEntity
  8
0-0
100
AcDbLine
  6
CONTINUOUS
370
13
 10
52.6130863190571
 20
43.7479246530634
 11
51.8366291837495
 21
46.6457021319307
  0
LINE
  5
24C
100
AcDbEntity
  8
0-0
100
AcDbLine
  6
CONTINUOUS
370
13
 10
52.6130863190571
 20
43.7479246530634
 11
53.3895434543646
 21
46.6457021319307
  0
TEXT
  5
24D
100
AcDbEntity
  8
0-0
100
AcDbText
  6
CONTINUOUS
 10
51.3630863190571
 20
52.5679246530635
 40
7
  1
□47.14
  7
Font_0
 50
90
 72
1
 11
44.3630863190571
 21
67.3179246530635
100
AcDbText
 73
3
  0
LINE
  5
24E
100
AcDbEntity
  8
0-0
100
AcDbLine
  6
CONTINUOUS
370
13
 10
66.9409693472026
 20
43.7479246530634
 11
52.1130863190571
 21
43.7479246530634
  0
LINE
  5
24F
100
AcDbEntity
  8
0-0
100
AcDbLine
  6
CONTINUOUS
370
13
 10
109.713314134177
 20
64.4097751969933
 11
85.4039873017536
 21
70.2249558634396
  0
LINE
  5
250
100
AcDbEntity
  8
0-0
100
AcDbLine
  6
CONTINUOUS
370
13
 10
109.713314134177
 20
64.4097751969933
 11
106.71440722852
 21
64.3287976000725
  0
LINE
  5
251
100
AcDbEntity
  8
0-0
100
AcDbLine
  6
CONTINUOUS
370
13
 10
109.713314134177
 20
64.4097751969933
 11
107.075695771833
 21
65.839099993751
  0
LINE
  5
252
100
AcDbEntity
  8
0-0
100
AcDbLine
  6
CONTINUOUS
370
13
 10
85.4039873017536
 20
70.2249558634396
 11
88.4028942074105
 21
70.3059334603605
  0
LINE
  5
253
100
AcDbEntity
  8
0-0
100
AcDbLine
  6
CONTINUOUS
370
13
 10
85.4039873017536
 20
70.2249558634396
 11
88.0416056640975
 21
68.795631066682
  0
TEXT
  5
254
100
AcDbEntity
  8
0-0
100
AcDbText
  6
CONTINUOUS
 10
62.8349662486701
 20
76.9090951595122
 40
7
  1
φ25
  7
Font_0
 50
-13.45325395595
 72
2
 11
80.024490878045
 21
79.9945842643568
100
AcDbText
 73
3
  0
POINT
  5
255
100
AcDbEntity
  8
0-0
100
AcDbPoint
 10
97.5563134045082
 20
67.3179246530634
  0
LINE
  5
256
100
AcDbEntity
  8
0-0
100
AcDbLine
  6
CONTINUOUS
370
13
 10
87.8307128207734
 20
69.6444442179195
 11
59.6264711279426
 21
76.3913509560022
  0
LINE
  5
257
100
AcDbEntity
  8
0-0
100
AcDbLine
  6
CONTINUOUS
370
13
 10
74.1937934517086
 20
52.8112826758502
 11
120.918833357308
 21
81.8245666302767
  0
LINE
  5
258
100
AcDbEntity
  8
0-0
100
AcDbLine
  6
CONTINUOUS
370
13
 10
74.1937934517086
 20
52.8112826758502
 11
76.2459970333904
 21
54.9995377933656
  0
LINE
  5
259
100
AcDbEntity
  8
0-0
100
AcDbLine
  6
CONTINUOUS
370
13
 10
74.1937934517086
 20
52.8112826758502
 11
77.0651814459402
 21
53.6802654067389
  0
LINE
  5
25A
100
AcDbEntity
  8
0-0
100
AcDbLine
  6
CONTINUOUS
370
13
 10
120.918833357308
 20
81.8245666302767
 11
118.866629775626
 21
79.6363115127613
  0
LINE
  5
25B
100
AcDbEntity
  8
0-0
100
AcDbLine
  6
CONTINUOUS
370
13
 10
120.918833357308
 20
81.8245666302767
 11
118.047445363076
 21
80.955583899388
  0
TEXT
  5
25C
100
AcDbEntity
  8
0-0
100
AcDbText
  6
CONTINUOUS
 10
131.21339081922
 20
89.3931260104533
 40
7
  1
P.C.D55
  7
Font_0
 50
31.8376563092736
 72
1
 11
140.476370289754
 21
103.384541640348
100
AcDbText
 73
3
  0
POINT
  5
25D
100
AcDbEntity
  8
0-0
100
AcDbPoint
 10
97.5563134045082
 20
67.3179246530634
  0
LINE
  5
25E
100
AcDbEntity
  8
0-0
100
AcDbLine
  6
CONTINUOUS
370
13
 10
120.918833357308
 20
81.8245666302767
 11
158.996974219248
 21
105.468675132188
  0
MTEXT
  5
25F
100
AcDbEntity
  8
0-0
100
AcDbMText
 10
41.4772792885128
 20
114.305313162005
 40
6
 41
  0.0
  1
4-φ4.5\PM4皿ｻﾞｸﾞﾘ
 71
5
  7
Font_0
  0
LINE
  5
260
100
AcDbEntity
  8
0-0
100
AcDbLine
  6
CONTINUOUS
370
13
 10
72.3953231468385
 20
92.4789149107332
 11
56.9067268422575
 21
107.967511215314
  0
LINE
  5
261
100
AcDbEntity
  8
0-0
100
AcDbLine
  6
CONTINUOUS
370
13
 10
72.3953231468385
 20
92.4789149107332
 11
69.7972469354851
 21
93.9789149107332
  0
LINE
  5
262
100
AcDbEntity
  8
0-0
100
AcDbLine
  6
CONTINUOUS
370
13
 10
72.3953231468385
 20
92.4789149107332
 11
70.8953231468385
 21
95.0769911220865
  0
LINE
  5
263
100
AcDbEntity
  8
0-0
100
AcDbLine
  6
CONTINUOUS
370
13
 10
56.9067268422575
 20
107.967511215314
 11
25.0108324663575
 21
107.967511215314
  0
LINE
  5
264
100
AcDbEntity
  8
0-0
100
AcDbLine
  6
CONTINUOUS
370
13
 10
98.8116355515799
 20
96.9922063916581
 11
109.753672796937
 21
115.944370838928
  0
LINE
  5
265
100
AcDbEntity
  8
0-0
100
AcDbLine
  6
CONTINUOUS
370
13
 10
98.8116355515799
 20
96.9922063916581
 11
99.5880926868874
 21
99.8899838705253
  0
LINE
  5
266
100
AcDbEntity
  8
0-0
100
AcDbLine
  6
CONTINUOUS
370
13
 10
98.8116355515799
 20
96.9922063916581
 11
100.932955895139
 21
99.1135267352178
  0
TEXT
  5
267
100
AcDbEntity
  8
0-0
100
AcDbText
  6
CONTINUOUS
 10
82.7536727969371
 20
115.944370838928
 40
6
  1
3-φ4.5
  7
Font_0
 72
2
 11
108.753672796937
 21
115.944370838928
100
AcDbText
  0
LINE
  5
268
100
AcDbEntity
  8
0-0
100
AcDbLine
  6
CONTINUOUS
370
13
 10
109.753672796937
 20
115.944370838928
 11
82.2582187738397
 21
115.944370838928
  0
ARC
  5
269
100
AcDbEntity
  8
0-0
100
AcDbCircle
  6
CONTINUOUS
370
13
 10
97.5563134045082
 20
67.3179246530635
 40
40.8377159502708
100
AcDbArc
 50
-135
 51
-90
  0
LINE
  5
26A
100
AcDbEntity
  8
0-0
100
AcDbLine
  6
CONTINUOUS
370
13
 10
68.6796875279016
 20
38.4412987764569
 11
71.2775280877558
 21
36.9408906901095
  0
LINE
  5
26B
100
AcDbEntity
  8
0-0
100
AcDbLine
  6
CONTINUOUS
370
13
 10
68.6796875279016
 20
38.4412987764569
 11
70.1792794045432
 21
35.8429869777094
  0
LINE
  5
26C
100
AcDbEntity
  8
0-0
100
AcDbLine
  6
CONTINUOUS
370
13
 10
97.5563134045082
 20
26.4802087027926
 11
94.6586579269913
 21
25.7032963952466
  0
LINE
  5
26D
100
AcDbEntity
  8
0-0
100
AcDbLine
  6
CONTINUOUS
370
13
 10
97.5563134045082
 20
26.4802087027926
 11
94.6584139957904
 21
27.2562106467034
  0
TEXT
  5
26E
100
AcDbEntity
  8
0-0
100
AcDbText
  6
CONTINUOUS
 10
75.015714125074
 20
33.8051116066583
 40
7
  1
45°
  7
Font_0
 50
337.5
 72
1
 11
85.0855344117199
 21
37.2108008753166
100
AcDbText
 73
3
  0
LINE
  5
26F
100
AcDbEntity
  8
0-0
100
AcDbLine
  6
CONTINUOUS
370
13
 10
70.7550474908233
 20
40.5166587393786
 11
68.3261341373083
 21
38.0877453858636
  0
LINE
  5
270
100
AcDbEntity
  8
0-0
100
AcDbLine
  6
CONTINUOUS
370
13
 10
97.5563134045082
 20
31.2190312980138
 11
97.5563134045082
 21
25.9802087027926
  0
ARC
  5
271
100
AcDbEntity
  8
0-0
100
AcDbCircle
  6
CONTINUOUS
370
13
 10
97.5563134045082
 20
67.3179246530635
 40
40.8377159502708
100
AcDbArc
 50
-90
 51
-45
  0
LINE
  5
272
100
AcDbEntity
  8
0-0
100
AcDbLine
  6
CONTINUOUS
370
13
 10
97.5563134045082
 20
26.4802087027926
 11
100.454212813226
 21
27.2562106467034
  0
LINE
  5
273
100
AcDbEntity
  8
0-0
100
AcDbLine
  6
CONTINUOUS
370
13
 10
97.5563134045082
 20
26.4802087027926
 11
100.453968882025
 21
25.7032963952466
  0
LINE
  5
274
100
AcDbEntity
  8
0-0
100
AcDbLine
  6
CONTINUOUS
370
13
 10
126.432939281115
 20
38.4412987764569
 11
124.933347404471
 21
35.8429869777106
  0
LINE
  5
275
100
AcDbEntity
  8
0-0
100
AcDbLine
  6
CONTINUOUS
370
13
 10
126.432939281115
 20
38.4412987764569
 11
123.835098721259
 21
36.9408906901115
  0
TEXT
  5
276
100
AcDbEntity
  8
0-0
100
AcDbText
  6
CONTINUOUS
 10
105.314840163762
 20
27.6821766888169
 40
7
  1
45°
  7
Font_0
 50
22.5
 72
1
 11
110.027092397296
 21
37.2108008753166
100
AcDbText
 73
3
  0
LINE
  5
277
100
AcDbEntity
  8
0-0
100
AcDbLine
  6
CONTINUOUS
370
13
 10
97.5563134045082
 20
31.2190312980138
 11
97.5563134045082
 21
25.9802087027926
  0
LINE
  5
278
100
AcDbEntity
  8
0-0
100
AcDbLine
  6
CONTINUOUS
370
13
 10
308.912945300137
 20
232.528438943644
 11
338.551063218279
 21
232.528438943644
  0
LINE
  5
279
100
AcDbEntity
  8
0-0
100
AcDbLine
  6
CONTINUOUS
370
13
 10
338.051063218279
 20
232.528438943644
 11
338.051063218279
 21
164.528438943644
  0
LINE
  5
27A
100
AcDbEntity
  8
0-0
100
AcDbLine
  6
CONTINUOUS
370
13
 10
338.051063218279
 20
232.528438943644
 11
338.827520353587
 21
229.630661464776
  0
LINE
  5
27B
100
AcDbEntity
  8
0-0
100
AcDbLine
  6
CONTINUOUS
370
13
 10
338.051063218279
 20
232.528438943644
 11
337.274606082972
 21
229.630661464776
  0
LINE
  5
27C
100
AcDbEntity
  8
0-0
100
AcDbLine
  6
CONTINUOUS
370
13
 10
338.051063218279
 20
164.528438943644
 11
337.274606082972
 21
167.426216422511
  0
LINE
  5
27D
100
AcDbEntity
  8
0-0
100
AcDbLine
  6
CONTINUOUS
370
13
 10
338.051063218279
 20
164.528438943644
 11
338.827520353587
 21
167.426216422511
  0
TEXT
  5
27E
100
AcDbEntity
  8
0-0
100
AcDbText
  6
CONTINUOUS
 10
336.801063218279
 20
194.528438943644
 40
7
  1
68
  7
Font_0
 50
90
 72
1
 11
329.801063218279
 21
198.528438943644
100
AcDbText
 73
3
  0
LINE
  5
27F
100
AcDbEntity
  8
0-0
100
AcDbLine
  6
CONTINUOUS
370
13
 10
311.912945300137
 20
164.528438943644
 11
338.551063218279
 21
164.528438943644
  0
LINE
  5
280
100
AcDbEntity
  8
0-0
100
AcDbLine
  6
CONTINUOUS
370
13
 10
246.662945300137
 20
164.278438943644
 11
246.662945300137
 21
140.508854834741
  0
LINE
  5
281
100
AcDbEntity
  8
0-0
100
AcDbLine
  6
CONTINUOUS
370
13
 10
246.662945300137
 20
141.008854834741
 11
311.662945300136
 21
141.008854834741
  0
LINE
  5
282
100
AcDbEntity
  8
0-0
100
AcDbLine
  6
CONTINUOUS
370
13
 10
246.662945300137
 20
141.008854834741
 11
249.560722779004
 21
141.785311970049
  0
LINE
  5
283
100
AcDbEntity
  8
0-0
100
AcDbLine
  6
CONTINUOUS
370
13
 10
246.662945300137
 20
141.008854834741
 11
249.560722779004
 21
140.232397699433
  0
LINE
  5
284
100
AcDbEntity
  8
0-0
100
AcDbLine
  6
CONTINUOUS
370
13
 10
311.662945300136
 20
141.008854834741
 11
308.765167821269
 21
140.232397699433
  0
LINE
  5
285
100
AcDbEntity
  8
0-0
100
AcDbLine
  6
CONTINUOUS
370
13
 10
311.662945300136
 20
141.008854834741
 11
308.765167821269
 21
141.785311970049
  0
TEXT
  5
286
100
AcDbEntity
  8
0-0
100
AcDbText
  6
CONTINUOUS
 10
275.162945300137
 20
142.258854834741
 40
7
  1
65
  7
Font_0
 72
1
 11
279.162945300137
 21
149.258854834741
100
AcDbText
 73
3
  0
LINE
  5
287
100
AcDbEntity
  8
0-0
100
AcDbLine
  6
CONTINUOUS
370
13
 10
311.662945300136
 20
164.278438943644
 11
311.662945300136
 21
140.508854834741
  0
LINE
  5
288
100
AcDbEntity
  8
0-0
100
AcDbLine
  6
CONTINUOUS
370
13
 10
162.602438305971
 20
155.935600813174
 11
162.602438305971
 21
140.508854834741
  0
LINE
  5
289
100
AcDbEntity
  8
0-0
100
AcDbLine
  6
CONTINUOUS
370
13
 10
162.602438305971
 20
141.008854834741
 11
199.101956680477
 21
141.008854834741
  0
LINE
  5
28A
100
AcDbEntity
  8
0-0
100
AcDbLine
  6
CONTINUOUS
370
13
 10
162.602438305971
 20
141.008854834741
 11
165.500215784838
 21
141.785311970049
  0
LINE
  5
28B
100
AcDbEntity
  8
0-0
100
AcDbLine
  6
CONTINUOUS
370
13
 10
162.602438305971
 20
141.008854834741
 11
165.500215784838
 21
140.232397699433
  0
LINE
  5
28C
100
AcDbEntity
  8
0-0
100
AcDbLine
  6
CONTINUOUS
370
13
 10
199.101956680477
 20
141.008854834741
 11
196.20417920161
 21
140.232397699433
  0
LINE
  5
28D
100
AcDbEntity
  8
0-0
100
AcDbLine
  6
CONTINUOUS
370
13
 10
199.101956680477
 20
141.008854834741
 11
196.20417920161
 21
141.785311970049
  0
TEXT
  5
28E
100
AcDbEntity
  8
0-0
100
AcDbText
  6
CONTINUOUS
 10
172.852197493224
 20
142.258854834741
 40
7
  1
36.5
  7
Font_0
 72
1
 11
181.352197493224
 21
149.258854834741
100
AcDbText
 73
3
  0
LINE
  5
28F
100
AcDbEntity
  8
0-0
100
AcDbLine
  6
DASHDOT
370
13
 10
279.162945300137
 20
158.719263002403
 11
279.162945300137
 21
239.758523023508
  0
LINE
  5
290
100
AcDbEntity
  8
0-0
100
AcDbLine
  6
DASHDOT
370
13
 10
314.226530438655
 20
200.028438943644
 11
242.345348542532
 21
200.028438943644
  0
LINE
  5
291
100
AcDbEntity
  8
0-0
100
AcDbLine
  6
DASHDOT
370
13
 10
204.530872036993
 20
200.028438943644
 11
73.1646921855267
 21
200.028438943644
  0
LINE
  5
292
100
AcDbEntity
  8
0-0
100
AcDbLine
  6
CONTINUOUS
370
30
 10
161.402438305971
 20
230.528438943644
 11
159.102438305971
 21
230.528438943644
  0
CIRCLE
  5
293
100
AcDbEntity
  8
0-0
100
AcDbCircle
  6
CONTINUOUS
370
40
 10
97.5563134045082
 20
94.8179246530635
 40
2.25
  0
CIRCLE
  5
294
100
AcDbEntity
  8
0-0
100
AcDbCircle
  6
CONTINUOUS
370
40
 10
78.1108769218781
 20
47.8724881704334
 40
2.25
  0
CIRCLE
  5
295
100
AcDbEntity
  8
0-0
100
AcDbCircle
  6
CONTINUOUS
370
40
 10
117.001749887138
 20
47.8724881704334
 40
2.25
  0
LINE
  5
296
100
AcDbEntity
  8
0-0
100
AcDbLine
  6
CONTINUOUS
370
13
 10
161.402438305971
 20
242.174506293009
 11
149.465496811102
 21
262.849895449098
  0
LINE
  5
297
100
AcDbEntity
  8
0-0
100
AcDbLine
  6
CONTINUOUS
370
13
 10
161.402438305971
 20
242.174506293009
 11
159.281117962411
 21
244.295826636568
  0
LINE
  5
298
100
AcDbEntity
  8
0-0
100
AcDbLine
  6
CONTINUOUS
370
13
 10
161.402438305971
 20
242.174506293009
 11
160.625981170663
 21
245.072283771876
  0
TEXT
  5
299
100
AcDbEntity
  8
0-0
100
AcDbText
  6
CONTINUOUS
 10
150.465496811102
 20
262.849895449098
 40
6
  1
取付パネル
  7
Font_0
100
AcDbText
  0
LINE
  5
29A
100
AcDbEntity
  8
0-0
100
AcDbLine
  6
CONTINUOUS
370
13
 10
149.465496811102
 20
262.849895449098
 11
184.465496811102
 21
262.849895449098
  0
LINE
  5
29B
100
AcDbEntity
  8
0-0
100
AcDbLine
  6
CONTINUOUS
370
30
 10
142.386578478066
 20
196.853438943644
 11
140.702438305971
 21
196.853438943644
  0
LINE
  5
29C
100
AcDbEntity
  8
0-0
100
AcDbLine
  6
CONTINUOUS
370
30
 10
142.386578478066
 20
203.203438943644
 11
140.702438305971
 21
203.203438943644
  0
LINE
  5
29D
100
AcDbEntity
  8
0-0
100
AcDbLine
  6
CONTINUOUS
370
30
 10
139.102438305971
 20
219.078438943644
 11
140.702438305971
 21
219.078438943644
  0
LINE
  5
29E
100
AcDbEntity
  8
0-0
100
AcDbLine
  6
CONTINUOUS
370
30
 10
140.702438305971
 20
219.078438943644
 11
140.702438305971
 21
180.978438943644
  0
LINE
  5
29F
100
AcDbEntity
  8
0-0
100
AcDbLine
  6
CONTINUOUS
370
30
 10
140.702438305971
 20
180.978438943644
 11
139.102438305971
 21
180.978438943644
  0
LINE
  5
2A0
100
AcDbEntity
  8
0-0
100
AcDbLine
  6
CONTINUOUS
370
30
 10
139.102438305971
 20
228.028438943644
 11
139.102438305971
 21
172.028438943644
  0
LINE
  5
2A1
100
AcDbEntity
  8
0-0
100
AcDbLine
  6
CONTINUOUS
370
30
 10
139.102438305971
 20
172.028438943644
 11
125.802438305971
 21
172.028438943644
  0
LINE
  5
2A2
100
AcDbEntity
  8
0-0
100
AcDbLine
  6
CONTINUOUS
370
30
 10
125.802438305971
 20
228.028438943644
 11
139.102438305971
 21
228.028438943644
  0
LINE
  5
2A3
100
AcDbEntity
  8
0-0
100
AcDbLine
  6
CONTINUOUS
370
30
 10
125.802438305971
 20
228.028438943644
 11
99.4024383059708
 21
228.028438943644
  0
LINE
  5
2A4
100
AcDbEntity
  8
0-0
100
AcDbLine
  6
CONTINUOUS
370
30
 10
85.1024383059707
 20
227.028438943644
 11
85.1024383059708
 21
171.528438943644
  0
LINE
  5
2A5
100
AcDbEntity
  8
0-0
100
AcDbLine
  6
CONTINUOUS
370
30
 10
86.1024383059707
 20
170.528438943644
 11
97.1024383059707
 21
170.528438943644
  0
LINE
  5
2A6
100
AcDbEntity
  8
0-0
100
AcDbLine
  6
CONTINUOUS
370
30
 10
99.4024383059708
 20
228.028438943644
 11
86.1024383059707
 21
228.028438943644
  0
LINE
  5
2A7
100
AcDbEntity
  8
0-0
100
AcDbLine
  6
CONTINUOUS
370
30
 10
125.802438305971
 20
172.028438943644
 11
97.1024383059708
 21
172.028438943644
  0
LINE
  5
2A8
100
AcDbEntity
  8
0-0
100
AcDbLine
  6
CONTINUOUS
370
30
 10
97.1024383059707
 20
170.528438943644
 11
97.1024383059708
 21
166.728438943644
  0
LINE
  5
2A9
100
AcDbEntity
  8
0-0
100
AcDbLine
  6
CONTINUOUS
370
30
 10
97.1024383059708
 20
166.728438943644
 11
90.2024383059706
 21
166.728438943644
  0
LINE
  5
2AA
100
AcDbEntity
  8
0-0
100
AcDbLine
  6
CONTINUOUS
370
30
 10
90.2024383059706
 20
166.728438943644
 11
90.2024383059706
 21
170.528438943644
  0
LINE
  5
2AB
100
AcDbEntity
  8
0-0
100
AcDbLine
  6
CONTINUOUS
370
30
 10
127.102438305971
 20
228.028438943644
 11
127.102438305971
 21
223.224529943644
  0
LINE
  5
2AC
100
AcDbEntity
  8
0-0
100
AcDbLine
  6
CONTINUOUS
370
30
 10
126.102438305971
 20
228.028438943644
 11
126.102438305971
 21
221.520902943644
  0
LINE
  5
2AD
100
AcDbEntity
  8
0-0
100
AcDbLine
  6
CONTINUOUS
370
30
 10
125.102438305971
 20
228.028438943644
 11
125.107054305971
 21
220.973874943644
  0
LINE
  5
2AE
100
AcDbEntity
  8
0-0
100
AcDbLine
  6
CONTINUOUS
370
30
 10
124.102438305971
 20
228.028438943644
 11
124.102438305971
 21
220.973874943644
  0
LINE
  5
2AF
100
AcDbEntity
  8
0-0
100
AcDbLine
  6
CONTINUOUS
370
30
 10
123.102438305971
 20
228.028438943644
 11
123.102438305971
 21
220.973874943644
  0
LINE
  5
2B0
100
AcDbEntity
  8
0-0
100
AcDbLine
  6
CONTINUOUS
370
30
 10
122.102438305971
 20
228.028438943644
 11
122.102438305971
 21
220.973874943644
  0
LINE
  5
2B1
100
AcDbEntity
  8
0-0
100
AcDbLine
  6
CONTINUOUS
370
30
 10
121.102438305971
 20
228.028438943644
 11
121.102438305971
 21
220.973874943644
  0
LINE
  5
2B2
100
AcDbEntity
  8
0-0
100
AcDbLine
  6
CONTINUOUS
370
30
 10
120.102438305971
 20
228.028438943644
 11
120.102438305971
 21
220.973874943644
  0
LINE
  5
2B3
100
AcDbEntity
  8
0-0
100
AcDbLine
  6
CONTINUOUS
370
30
 10
105.102438305971
 20
188.760697943644
 11
105.102438305971
 21
179.083001943644
  0
LINE
  5
2B4
100
AcDbEntity
  8
0-0
100
AcDbLine
  6
CONTINUOUS
370
30
 10
104.102438305971
 20
187.054109943644
 11
104.102438305971
 21
179.083001943644
  0
LINE
  5
2B5
100
AcDbEntity
  8
0-0
100
AcDbLine
  6
CONTINUOUS
370
30
 10
103.102438305971
 20
185.418545943644
 11
103.102438305971
 21
179.083001943644
  0
LINE
  5
2B6
100
AcDbEntity
  8
0-0
100
AcDbLine
  6
CONTINUOUS
370
30
 10
102.102438305971
 20
183.654331943644
 11
102.102438305971
 21
179.083001943644
  0
LINE
  5
2B7
100
AcDbEntity
  8
0-0
100
AcDbLine
  6
CONTINUOUS
370
30
 10
101.102438305971
 20
181.945249943644
 11
101.102438305971
 21
179.083001943644
  0
LINE
  5
2B8
100
AcDbEntity
  8
0-0
100
AcDbLine
  6
CONTINUOUS
370
30
 10
99.1024383059707
 20
178.730070943644
 11
99.1024383059707
 21
172.028438943644
  0
LINE
  5
2B9
100
AcDbEntity
  8
0-0
100
AcDbLine
  6
CONTINUOUS
370
30
 10
100.102438305971
 20
172.028438943644
 11
100.102438305971
 21
179.083001943644
  0
LINE
  5
2BA
100
AcDbEntity
  8
0-0
100
AcDbLine
  6
CONTINUOUS
370
30
 10
98.1024383059707
 20
176.814581943644
 11
98.1024383059707
 21
172.028438943644
  0
LINE
  5
2BB
100
AcDbEntity
  8
0-0
100
AcDbLine
  6
CONTINUOUS
370
30
 10
120.102438305971
 20
220.973874943644
 11
120.102438305971
 21
211.299140943644
  0
LINE
  5
2BC
100
AcDbEntity
  8
0-0
100
AcDbLine
  6
CONTINUOUS
370
30
 10
121.102438305971
 20
220.973874943644
 11
121.102438305971
 21
213.002767943644
  0
LINE
  5
2BD
100
AcDbEntity
  8
0-0
100
AcDbLine
  6
CONTINUOUS
370
30
 10
122.102438305971
 20
220.973874943644
 11
122.102438305971
 21
214.706394943644
  0
LINE
  5
2BE
100
AcDbEntity
  8
0-0
100
AcDbLine
  6
CONTINUOUS
370
30
 10
123.102438305971
 20
220.973874943644
 11
123.102438305971
 21
216.410021943644
  0
LINE
  5
2BF
100
AcDbEntity
  8
0-0
100
AcDbLine
  6
CONTINUOUS
370
30
 10
124.102438305971
 20
220.973874943644
 11
124.102438305971
 21
218.113648943644
  0
LINE
  5
2C0
100
AcDbEntity
  8
0-0
100
AcDbLine
  6
CONTINUOUS
370
30
 10
101.102438305971
 20
179.083001943644
 11
101.102438305971
 21
172.030459943644
  0
LINE
  5
2C1
100
AcDbEntity
  8
0-0
100
AcDbLine
  6
CONTINUOUS
370
30
 10
102.102438305971
 20
179.083001943644
 11
102.102438305971
 21
172.035914943644
  0
LINE
  5
2C2
100
AcDbEntity
  8
0-0
100
AcDbLine
  6
CONTINUOUS
370
30
 10
103.102438305971
 20
179.083001943644
 11
103.102438305971
 21
172.096501943644
  0
LINE
  5
2C3
100
AcDbEntity
  8
0-0
100
AcDbLine
  6
CONTINUOUS
370
30
 10
104.102438305971
 20
179.083001943644
 11
104.102438305971
 21
172.028438943644
  0
LINE
  5
2C4
100
AcDbEntity
  8
0-0
100
AcDbLine
  6
CONTINUOUS
370
30
 10
105.102438305971
 20
179.083001943644
 11
105.102438305971
 21
172.031399943644
  0
LINE
  5
2C5
100
AcDbEntity
  8
0-0
100
AcDbLine
  6
CONTINUOUS
370
30
 10
129.102438305971
 20
228.028438943644
 11
129.102438305971
 21
172.028438943644
  0
LINE
  5
2C6
100
AcDbEntity
  8
0-0
100
AcDbLine
  6
CONTINUOUS
370
30
 10
97.1024383059708
 20
228.028438943644
 11
97.1024383059707
 21
170.528438943644
  0
LINE
  5
2C7
100
AcDbEntity
  8
0-0
100
AcDbLine
  6
CONTINUOUS
370
30
 10
134.102438305971
 20
228.028438943644
 11
134.102438305971
 21
218.598438943644
  0
LINE
  5
2C8
100
AcDbEntity
  8
0-0
100
AcDbLine
  6
CONTINUOUS
370
30
 10
134.102438305971
 20
218.598438943644
 11
97.1024383059707
 21
218.598438943644
  0
LINE
  5
2C9
100
AcDbEntity
  8
0-0
100
AcDbLine
  6
CONTINUOUS
370
30
 10
134.102438305971
 20
172.028438943644
 11
134.102438305971
 21
181.458438943644
  0
LINE
  5
2CA
100
AcDbEntity
  8
0-0
100
AcDbLine
  6
CONTINUOUS
370
30
 10
134.102438305971
 20
181.458438943644
 11
97.1024383059707
 21
181.458438943644
  0
LINE
  5
2CB
100
AcDbEntity
  8
0-0
100
AcDbLine
  6
CONTINUOUS
370
30
 10
97.1024383059707
 20
218.598438943644
 11
85.1024383059707
 21
218.598438943644
  0
LINE
  5
2CC
100
AcDbEntity
  8
0-0
100
AcDbLine
  6
CONTINUOUS
370
30
 10
97.1024383059707
 20
181.458438943644
 11
85.1024383059707
 21
181.458438943644
  0
ARC
  5
2CD
100
AcDbEntity
  8
0-0
100
AcDbCircle
  6
CONTINUOUS
370
30
 10
86.1024383059707
 20
227.028438943644
 40
1
100
AcDbArc
 50
90
 51
180
  0
ARC
  5
2CE
100
AcDbEntity
  8
0-0
100
AcDbCircle
  6
CONTINUOUS
370
30
 10
86.1024383059707
 20
171.528438943644
 40
1
100
AcDbArc
 50
180
 51
-90
  0
LINE
  5
2CF
100
AcDbEntity
  8
0-0
100
AcDbLine
  6
CONTINUOUS
370
13
 10
139.102438305971
 20
225.248438943643
 11
139.102438305971
 21
227.098438943644
  0
LINE
  5
2D0
100
AcDbEntity
  8
0-0
100
AcDbLine
  6
CONTINUOUS
370
13
 10
139.102438305971
 20
172.958438943644
 11
139.102438305971
 21
179.958438943644
  0
LINE
  5
2D1
100
AcDbEntity
  8
0-0
100
AcDbLine
  6
CONTINUOUS
370
13
 10
139.102438305971
 20
220.098438943644
 11
139.102438305971
 21
225.248438943643
  0
LINE
  5
2D2
100
AcDbEntity
  8
0-0
100
AcDbLine
  6
CONTINUOUS
 62
7
370
30
 10
207.999996
 20
40.044411
 11
205.690596
 21
36.044411
  0
LINE
  5
2D3
100
AcDbEntity
  8
0-0
100
AcDbLine
  6
CONTINUOUS
 62
7
370
30
 10
205.690596
 20
36.044411
 11
210.309395
 21
36.044411
  0
LINE
  5
2D4
100
AcDbEntity
  8
0-0
100
AcDbLine
  6
CONTINUOUS
 62
7
370
30
 10
207.999996
 20
40.044411
 11
210.309396
 21
36.044411
  0
LINE
  5
2D5
100
AcDbEntity
  8
0-0
100
AcDbLine
  6
CONTINUOUS
370
13
 10
161.402438305971
 20
156.188098550088
 11
161.402438305971
 21
140.508854834741
  0
LINE
  5
2D6
100
AcDbEntity
  8
0-0
100
AcDbLine
  6
CONTINUOUS
370
13
 10
161.402438305971
 20
141.008854834741
 11
85.1024383059707
 21
141.008854834741
  0
LINE
  5
2D7
100
AcDbEntity
  8
0-0
100
AcDbLine
  6
CONTINUOUS
370
13
 10
161.402438305971
 20
141.008854834741
 11
158.504660827104
 21
140.232397699433
  0
LINE
  5
2D8
100
AcDbEntity
  8
0-0
100
AcDbLine
  6
CONTINUOUS
370
13
 10
161.402438305971
 20
141.008854834741
 11
158.504660827104
 21
141.785311970049
  0
LINE
  5
2D9
100
AcDbEntity
  8
0-0
100
AcDbLine
  6
CONTINUOUS
370
13
 10
85.1024383059707
 20
141.008854834741
 11
88.0002157848379
 21
141.785311970049
  0
LINE
  5
2DA
100
AcDbEntity
  8
0-0
100
AcDbLine
  6
CONTINUOUS
370
13
 10
85.1024383059707
 20
141.008854834741
 11
88.0002157848379
 21
140.232397699433
  0
TEXT
  5
2DB
100
AcDbEntity
  8
0-0
100
AcDbText
  6
CONTINUOUS
 10
114.752438305971
 20
141.258854834741
 40
7
  1
76.3
  7
Font_0
 72
1
 11
123.252438305971
 21
141.258854834741
100
AcDbText
  0
LINE
  5
2DC
100
AcDbEntity
  8
0-0
100
AcDbLine
  6
CONTINUOUS
370
13
 10
85.1024383059707
 20
169.77376646915
 11
85.1024383059707
 21
140.508854834741
  0
LINE
  5
2DD
100
AcDbEntity
  8
0-0
100
AcDbLine
  6
CONTINUOUS
370
13
 10
161.102438305971
 20
225.598438943644
 11
162.602438305971
 21
227.098438943644
  0
LINE
  5
2DE
100
AcDbEntity
  8
0-0
100
AcDbLine
  6
CONTINUOUS
370
13
 10
161.102438305971
 20
221.598438943644
 11
162.602438305971
 21
220.098438943644
  0
ARC
  5
2DF
100
AcDbEntity
  8
0-0
100
AcDbCircle
  6
BYLAYER
370
13
 10
131.096325581724
 20
221.491428190051
 40
1.3
100
AcDbArc
 50
195.880850008281
 51
265
  0
LINE
  5
2E0
100
AcDbEntity
  8
0-0
100
AcDbLine
  6
BYLAYER
370
13
 10
132.102438305971
 20
220.098438943644
 11
132.102438305971
 21
227.098438943644
  0
LINE
  5
2E1
100
AcDbEntity
  8
0-0
100
AcDbLine
  6
BYLAYER
370
13
 10
132.102438305971
 20
220.098438943644
 11
130.983023116152
 21
220.196375082532
  0
LINE
  5
2E2
100
AcDbEntity
  8
0-0
100
AcDbLine
  6
BYLAYER
370
13
 10
139.102438305971
 20
225.219438943644
 11
147.081438305971
 21
225.219438943644
  0
LINE
  5
2E3
100
AcDbEntity
  8
0-0
100
AcDbLine
  6
BYLAYER
370
13
 10
139.102438305971
 20
225.598438943644
 11
146.702438305971
 21
225.598438943644
  0
LINE
  5
2E4
100
AcDbEntity
  8
0-0
100
AcDbLine
  6
BYLAYER
370
13
 10
139.102438305971
 20
221.977438943644
 11
147.081438305971
 21
221.977438943644
  0
LINE
  5
2E5
100
AcDbEntity
  8
0-0
100
AcDbLine
  6
BYLAYER
370
13
 10
139.102438305971
 20
221.598438943644
 11
146.702438305971
 21
221.598438943644
  0
LINE
  5
2E6
100
AcDbEntity
  8
0-0
100
AcDbLine
  6
BYLAYER
370
13
 10
146.702438305971
 20
221.598438943644
 11
146.702438305971
 21
225.598438943644
  0
LINE
  5
2E7
100
AcDbEntity
  8
0-0
100
AcDbLine
  6
BYLAYER
370
13
 10
147.102438305971
 20
221.998438943644
 11
147.102438305971
 21
225.198438943644
  0
LINE
  5
2E8
100
AcDbEntity
  8
0-0
100
AcDbLine
  6
BYLAYER
370
13
 10
146.702438305971
 20
221.598438943644
 11
147.102438305971
 21
221.998438943644
  0
LINE
  5
2E9
100
AcDbEntity
  8
0-0
100
AcDbLine
  6
BYLAYER
370
13
 10
146.702438305971
 20
225.598438943644
 11
147.102438305971
 21
225.198438943644
  0
LINE
  5
2EA
100
AcDbEntity
  8
0-0
100
AcDbLine
  6
BYLAYER
370
13
 10
132.102438305971
 20
227.098438943644
 11
130.983023116152
 21
227.000502804756
  0
ARC
  5
2EB
100
AcDbEntity
  8
0-0
100
AcDbCircle
  6
BYLAYER
370
13
 10
138.502438305971
 20
223.598438943644
 40
9
100
AcDbArc
 50
164.119149991719
 51
195.880850008281
  0
ARC
  5
2EC
100
AcDbEntity
  8
0-0
100
AcDbCircle
  6
BYLAYER
370
13
 10
131.096325581724
 20
225.705449697237
 40
1.3
100
AcDbArc
 50
94.9999999999997
 51
164.119149991719
  0
LINE
  5
2ED
100
AcDbEntity
  8
0-0
100
AcDbLine
  6
BYLAYER
370
13
 10
132.102438305971
 20
227.398438943644
 11
132.102438305971
 21
219.798438943644
  0
LINE
  5
2EE
100
AcDbEntity
  8
0-0
100
AcDbLine
  6
BYLAYER
370
13
 10
133.102438305971
 20
227.398438943644
 11
133.102438305971
 21
219.798438943644
  0
LINE
  5
2EF
100
AcDbEntity
  8
0-0
100
AcDbLine
  6
BYLAYER
370
13
 10
132.102438305971
 20
219.798438943644
 11
133.102438305971
 21
219.798438943644
  0
LINE
  5
2F0
100
AcDbEntity
  8
0-0
100
AcDbLine
  6
BYLAYER
370
13
 10
132.102438305971
 20
227.398438943644
 11
133.102438305971
 21
227.398438943644
  0
LINE
  5
2F1
100
AcDbEntity
  8
0-0
100
AcDbLine
  6
BYLAYER
370
13
 10
132.102438305971
 20
223.304464347428
 11
133.102438305971
 21
223.57241353986
  0
LINE
  5
2F2
100
AcDbEntity
  8
0-0
100
AcDbLine
  6
BYLAYER
370
13
 10
132.102438305971
 20
223.624464347428
 11
133.102438305971
 21
223.89241353986
  0
LINE
  5
2F3
100
AcDbEntity
  8
0-0
100
AcDbLine
  6
BYLAYER
370
13
 10
133.102438305971
 20
227.398438943644
 11
133.102438305971
 21
219.798438943644
  0
LINE
  5
2F4
100
AcDbEntity
  8
0-0
100
AcDbLine
  6
BYLAYER
370
13
 10
134.102438305971
 20
227.398438943644
 11
134.102438305971
 21
219.798438943644
  0
LINE
  5
2F5
100
AcDbEntity
  8
0-0
100
AcDbLine
  6
BYLAYER
370
13
 10
133.102438305971
 20
219.798438943644
 11
134.102438305971
 21
219.798438943644
  0
LINE
  5
2F6
100
AcDbEntity
  8
0-0
100
AcDbLine
  6
BYLAYER
370
13
 10
133.102438305971
 20
227.398438943644
 11
134.102438305971
 21
227.398438943644
  0
LINE
  5
2F7
100
AcDbEntity
  8
0-0
100
AcDbLine
  6
BYLAYER
370
13
 10
133.102438305971
 20
223.304464347428
 11
134.102438305971
 21
223.57241353986
  0
LINE
  5
2F8
100
AcDbEntity
  8
0-0
100
AcDbLine
  6
BYLAYER
370
13
 10
133.102438305971
 20
223.624464347428
 11
134.102438305971
 21
223.89241353986
  0
ARC
  5
2F9
100
AcDbEntity
  8
0-0
100
AcDbCircle
  6
BYLAYER
370
13
 10
131.096325581724
 20
174.351428190051
 40
1.3
100
AcDbArc
 50
195.880850008281
 51
265
  0
LINE
  5
2FA
100
AcDbEntity
  8
0-0
100
AcDbLine
  6
BYLAYER
370
13
 10
132.102438305971
 20
172.958438943644
 11
132.102438305971
 21
179.958438943644
  0
LINE
  5
2FB
100
AcDbEntity
  8
0-0
100
AcDbLine
  6
BYLAYER
370
13
 10
132.102438305971
 20
172.958438943644
 11
130.983023116152
 21
173.056375082532
  0
LINE
  5
2FC
100
AcDbEntity
  8
0-0
100
AcDbLine
  6
BYLAYER
370
13
 10
132.102438305971
 20
179.958438943644
 11
130.983023116152
 21
179.860502804756
  0
ARC
  5
2FD
100
AcDbEntity
  8
0-0
100
AcDbCircle
  6
BYLAYER
370
13
 10
138.502438305971
 20
176.458438943644
 40
9
100
AcDbArc
 50
164.119149991719
 51
195.880850008281
  0
ARC
  5
2FE
100
AcDbEntity
  8
0-0
100
AcDbCircle
  6
BYLAYER
370
13
 10
131.096325581724
 20
178.565449697237
 40
1.3
100
AcDbArc
 50
94.9999999999997
 51
164.119149991719
  0
LINE
  5
2FF
100
AcDbEntity
  8
0-0
100
AcDbLine
  6
BYLAYER
370
13
 10
132.102438305971
 20
180.258438943644
 11
132.102438305971
 21
172.658438943644
  0
LINE
  5
300
100
AcDbEntity
  8
0-0
100
AcDbLine
  6
BYLAYER
370
13
 10
133.102438305971
 20
180.258438943644
 11
133.102438305971
 21
172.658438943644
  0
LINE
  5
301
100
AcDbEntity
  8
0-0
100
AcDbLine
  6
BYLAYER
370
13
 10
132.102438305971
 20
172.658438943644
 11
133.102438305971
 21
172.658438943644
  0
LINE
  5
302
100
AcDbEntity
  8
0-0
100
AcDbLine
  6
BYLAYER
370
13
 10
132.102438305971
 20
180.258438943644
 11
133.102438305971
 21
180.258438943644
  0
LINE
  5
303
100
AcDbEntity
  8
0-0
100
AcDbLine
  6
BYLAYER
370
13
 10
132.102438305971
 20
176.164464347428
 11
133.102438305971
 21
176.43241353986
  0
LINE
  5
304
100
AcDbEntity
  8
0-0
100
AcDbLine
  6
BYLAYER
370
13
 10
132.102438305971
 20
176.484464347429
 11
133.102438305971
 21
176.75241353986
  0
LINE
  5
305
100
AcDbEntity
  8
0-0
100
AcDbLine
  6
BYLAYER
370
13
 10
133.102438305971
 20
180.258438943644
 11
133.102438305971
 21
172.658438943644
  0
LINE
  5
306
100
AcDbEntity
  8
0-0
100
AcDbLine
  6
BYLAYER
370
13
 10
134.102438305971
 20
180.258438943644
 11
134.102438305971
 21
172.658438943644
  0
LINE
  5
307
100
AcDbEntity
  8
0-0
100
AcDbLine
  6
BYLAYER
370
13
 10
133.102438305971
 20
172.658438943644
 11
134.102438305971
 21
172.658438943644
  0
LINE
  5
308
100
AcDbEntity
  8
0-0
100
AcDbLine
  6
BYLAYER
370
13
 10
133.102438305971
 20
180.258438943644
 11
134.102438305971
 21
180.258438943644
  0
LINE
  5
309
100
AcDbEntity
  8
0-0
100
AcDbLine
  6
BYLAYER
370
13
 10
133.102438305971
 20
176.164464347428
 11
134.102438305971
 21
176.43241353986
  0
LINE
  5
30A
100
AcDbEntity
  8
0-0
100
AcDbLine
  6
BYLAYER
370
13
 10
133.102438305971
 20
176.484464347429
 11
134.102438305971
 21
176.75241353986
  0
LINE
  5
30B
100
AcDbEntity
  8
0-0
100
AcDbLine
  6
CONTINUOUS
 62
7
370
30
 10
203.499996
 20
30.391352
 11
401.697534872275
 21
30.391352
  0
TEXT
  5
30C
100
AcDbEntity
  8
0-0
 62
7
100
AcDbText
  6
BYLAYER
 62
7
 10
217.659675651848
 20
30.891351
 40
4
  1
年月日
  7
Font_0
100
AcDbText
  0
LINE
  5
30D
100
AcDbEntity
  8
0-0
100
AcDbLine
  6
CONTINUOUS
 62
7
370
30
 10
205.690596
 20
36.044411
 11
210.309395
 21
36.044411
  0
TEXT
  5
30E
100
AcDbEntity
  8
0-0
 62
7
100
AcDbText
  6
BYLAYER
 62
7
 10
204.706892
 20
31.339627
 40
3.103449
  1
来歴
  7
Font_0
100
AcDbText
  0
TEXT
  5
30F
100
AcDbEntity
  8
0-0
 62
7
100
AcDbText
  6
BYLAYER
 62
7
 10
263.482569655512
 20
26.391352
 40
3
  1
製図
  7
Font_0
100
AcDbText
  0
TEXT
  5
310
100
AcDbEntity
  8
0-0
 62
7
100
AcDbText
  6
BYLAYER
 62
7
 10
235.598944792234
 20
26.391352
 40
3
  1
検図
  7
Font_0
100
AcDbText
  0
TEXT
  5
311
100
AcDbEntity
  8
0-0
 62
7
100
AcDbText
  6
BYLAYER
 62
7
 10
221.742173071458
 20
26.391352
 40
3
  1
承認
  7
Font_0
100
AcDbText
  0
TEXT
  5
312
100
AcDbEntity
  8
0-0
 62
7
100
AcDbText
  6
BYLAYER
 62
7
 10
278.499996
 20
25.391352
 40
3
  1
品名
  7
Font_0
100
AcDbText
  0
TEXT
  5
313
100
AcDbEntity
  8
0-0
 62
7
100
AcDbText
  6
BYLAYER
 62
7
 10
206.892096
 20
26.159182
 40
3
  1
尺度
  7
Font_0
100
AcDbText
  0
LINE
  5
314
100
AcDbEntity
  8
0-0
100
AcDbLine
  6
DOT
 62
7
370
30
 10
203.499996
 20
25.391352
 11
273.499996
 21
25.391352
  0
LINE
  5
315
100
AcDbEntity
  8
0-0
100
AcDbLine
  6
CONTINUOUS
370
13
 10
199.101956680477
 20
184.278438943644
 11
199.101956680477
 21
140.508854834741
  0
LINE
  5
316
100
AcDbEntity
  8
0-0
100
AcDbLine
  6
CONTINUOUS
370
50
 10
192.601956680477
 20
186.029789361305
 11
192.601956680477
 21
204.029789361306
  0
LINE
  5
317
100
AcDbEntity
  8
0-0
100
AcDbLine
  6
CONTINUOUS
370
50
 10
192.601956680477
 20
214.029789361305
 11
192.601956680477
 21
204.029789361306
  0
LINE
  5
318
100
AcDbEntity
  8
0-0
100
AcDbLine
  6
CONTINUOUS
370
50
 10
187.602438305971
 20
216.029789361305
 11
190.601956680477
 21
216.029789361305
  0
LINE
  5
319
100
AcDbEntity
  8
0-0
100
AcDbLine
  6
CONTINUOUS
370
50
 10
190.601956680477
 20
184.029789361305
 11
192.601956680477
 21
186.029789361305
  0
LINE
  5
31A
100
AcDbEntity
  8
0-0
100
AcDbLine
  6
CONTINUOUS
370
50
 10
190.601956680477
 20
216.029789361305
 11
192.601956680477
 21
214.029789361305
  0
LINE
  5
31B
100
AcDbEntity
  8
0-0
100
AcDbLine
  6
CONTINUOUS
370
50
 10
172.602438305971
 20
216.029789361305
 11
172.602438305971
 21
177.029789361305
  0
LINE
  5
31C
100
AcDbEntity
  8
0-0
100
AcDbLine
  6
CONTINUOUS
370
50
 10
172.602438305971
 20
223.029789361305
 11
172.602438305971
 21
216.029789361305
  0
LINE
  5
31D
100
AcDbEntity
  8
0-0
100
AcDbLine
  6
CONTINUOUS
370
50
 10
182.602438305971
 20
206.426219525029
 11
182.602438305971
 21
200.029789361305
  0
LINE
  5
31E
100
AcDbEntity
  8
0-0
100
AcDbLine
  6
CONTINUOUS
370
50
 10
199.251956680477
 20
215.528438943644
 11
199.251956680477
 21
184.528438943644
  0
LINE
  5
31F
100
AcDbEntity
  8
0-0
100
AcDbLine
  6
CONTINUOUS
370
50
 10
197.751956680477
 20
183.028438943644
 11
194.751956680477
 21
183.028438943644
  0
LINE
  5
320
100
AcDbEntity
  8
0-0
100
AcDbLine
  6
CONTINUOUS
370
50
 10
194.751956680477
 20
217.028438943644
 11
197.751956680477
 21
217.028438943644
  0
LINE
  5
321
100
AcDbEntity
  8
0-0
100
AcDbLine
  6
CONTINUOUS
370
50
 10
193.251956680477
 20
215.528438943644
 11
193.251956680477
 21
184.528438943644
  0
LINE
  5
322
100
AcDbEntity
  8
0-0
100
AcDbLine
  6
CONTINUOUS
370
50
 10
172.602438305971
 20
165.029789361305
 11
172.602438305971
 21
223.029789361305
  0
LINE
  5
323
100
AcDbEntity
  8
0-0
100
AcDbLine
  6
CONTINUOUS
370
50
 10
172.602438305971
 20
232.029789361305
 11
172.602438305971
 21
223.029789361305
  0
LINE
  5
324
100
AcDbEntity
  8
0-0
100
AcDbLine
  6
CONTINUOUS
370
50
 10
172.102438305971
 20
232.529789361305
 11
162.602438305971
 21
232.529789361305
  0
LINE
  5
325
100
AcDbEntity
  8
0-0
100
AcDbLine
  6
CONTINUOUS
370
50
 10
182.602438305971
 20
200.029789361305
 11
172.602438305971
 21
200.029789361305
  0
LINE
  5
326
100
AcDbEntity
  8
0-0
100
AcDbLine
  6
CONTINUOUS
370
50
 10
172.602438305971
 20
208.029789361305
 11
172.602438305971
 21
228.029789361305
  0
LINE
  5
327
100
AcDbEntity
  8
0-0
100
AcDbLine
  6
CONTINUOUS
370
50
 10
187.602438305971
 20
208.029789361305
 11
187.602438305971
 21
228.029789361305
  0
LINE
  5
328
100
AcDbEntity
  8
0-0
100
AcDbLine
  6
CONTINUOUS
370
50
 10
172.102438305971
 20
232.529789361305
 11
172.602438305971
 21
232.029789361305
  0
LINE
  5
329
100
AcDbEntity
  8
0-0
100
AcDbLine
  6
CONTINUOUS
370
50
 10
183.402438305971
 20
216.426219525029
 11
172.602438305971
 21
216.426219525029
  0
LINE
  5
32A
100
AcDbEntity
  8
0-0
100
AcDbLine
  6
CONTINUOUS
370
50
 10
183.402438305971
 20
206.426219525029
 11
172.602438305971
 21
206.426219525029
  0
LINE
  5
32B
100
AcDbEntity
  8
0-0
100
AcDbLine
  6
CONTINUOUS
370
50
 10
172.602438305971
 20
216.426219525029
 11
172.602438305971
 21
206.425702749268
  0
LINE
  5
32C
100
AcDbEntity
  8
0-0
100
AcDbLine
  6
CONTINUOUS
370
50
 10
184.102438305971
 20
220.529789361305
 11
172.602438305971
 21
220.529789361305
  0
LINE
  5
32D
100
AcDbEntity
  8
0-0
100
AcDbLine
  6
CONTINUOUS
370
50
 10
183.402438305971
 20
208.029789361305
 11
187.602438305971
 21
208.029789361305
  0
LINE
  5
32E
100
AcDbEntity
  8
0-0
100
AcDbLine
  6
CONTINUOUS
370
50
 10
184.602438305971
 20
216.529789361305
 11
172.602438305971
 21
216.529789361305
  0
LINE
  5
32F
100
AcDbEntity
  8
0-0
100
AcDbLine
  6
CONTINUOUS
370
50
 10
176.602438305971
 20
216.529789361305
 11
176.602438305971
 21
220.529789361305
  0
LINE
  5
330
100
AcDbEntity
  8
0-0
100
AcDbLine
  6
CONTINUOUS
370
50
 10
180.602438305971
 20
216.529789361305
 11
180.602438305971
 21
220.529789361305
  0
LINE
  5
331
100
AcDbEntity
  8
0-0
100
AcDbLine
  6
CONTINUOUS
370
50
 10
184.102438305971
 20
222.380642322391
 11
184.102438305971
 21
220.529789361305
  0
LINE
  5
332
100
AcDbEntity
  8
0-0
100
AcDbLine
  6
CONTINUOUS
370
50
 10
174.102438305971
 20
226.380642322391
 11
172.602438305971
 21
226.380642322391
  0
LINE
  5
333
100
AcDbEntity
  8
0-0
100
AcDbLine
  6
CONTINUOUS
370
50
 10
184.602438305971
 20
208.029789361305
 11
184.602438305971
 21
216.529789361305
  0
LINE
  5
334
100
AcDbEntity
  8
0-0
100
AcDbLine
  6
CONTINUOUS
370
20
 10
187.602438305971
 20
211.029789361305
 11
184.602438305971
 21
211.029789361305
  0
ARC
  5
335
100
AcDbEntity
  8
0-0
100
AcDbCircle
  6
CONTINUOUS
370
50
 10
180.102438305971
 20
222.380642322391
 40
4
100
AcDbArc
 50
360
 51
401.409622109282
  0
LINE
  5
336
100
AcDbEntity
  8
0-0
100
AcDbLine
  6
CONTINUOUS
370
50
 10
172.102438305971
 20
164.529789361305
 11
162.602438305971
 21
164.529789361305
  0
LINE
  5
337
100
AcDbEntity
  8
0-0
100
AcDbLine
  6
CONTINUOUS
370
50
 10
172.602438305971
 20
165.029789361305
 11
172.102438305971
 21
164.529789361305
  0
LINE
  5
338
100
AcDbEntity
  8
0-0
100
AcDbLine
  6
CONTINUOUS
370
50
 10
193.251956680477
 20
184.528438943644
 11
194.751956680477
 21
183.028438943644
  0
LINE
  5
339
100
AcDbEntity
  8
0-0
100
AcDbLine
  6
CONTINUOUS
370
50
 10
199.251956680477
 20
184.528438943644
 11
197.751956680477
 21
183.028438943644
  0
LINE
  5
33A
100
AcDbEntity
  8
0-0
100
AcDbLine
  6
CONTINUOUS
370
50
 10
199.251956680477
 20
215.528438943644
 11
197.751956680477
 21
217.028438943644
  0
LINE
  5
33B
100
AcDbEntity
  8
0-0
100
AcDbLine
  6
CONTINUOUS
370
50
 10
194.751956680477
 20
217.028438943644
 11
193.251956680477
 21
215.528438943644
  0
LINE
  5
33C
100
AcDbEntity
  8
0-0
100
AcDbLine
  6
CONTINUOUS
370
20
 10
194.751956680477
 20
183.028438943644
 11
194.751956680477
 21
217.028438943644
  0
LINE
  5
33D
100
AcDbEntity
  8
0-0
100
AcDbLine
  6
CONTINUOUS
370
20
 10
197.751956680477
 20
183.028438943644
 11
197.751956680477
 21
217.028438943644
  0
LINE
  5
33E
100
AcDbEntity
  8
0-0
100
AcDbLine
  6
CONTINUOUS
370
13
 10
183.607224376205
 20
208.425735550972
 11
183.607224376205
 21
214.426171967624
  0
LINE
  5
33F
100
AcDbEntity
  8
0-0
100
AcDbLine
  6
CONTINUOUS
370
13
 10
183.607224376205
 20
208.425750306674
 11
183.607224376205
 21
214.426171967624
  0
LINE
  5
340
100
AcDbEntity
  8
0-0
100
AcDbLine
  6
CONTINUOUS
370
13
 10
184.307224376205
 20
214.075735550972
 11
184.307224376205
 21
208.775735550972
  0
LINE
  5
341
100
AcDbEntity
  8
0-0
100
AcDbLine
  6
CONTINUOUS
370
13
 10
183.957224376205
 20
208.425735550972
 11
183.607224376205
 21
208.425735550972
  0
LINE
  5
342
100
AcDbEntity
  8
0-0
100
AcDbLine
  6
CONTINUOUS
370
13
 10
183.957224376205
 20
214.425735550972
 11
183.607224376205
 21
214.425735550972
  0
ARC
  5
343
100
AcDbEntity
  8
0-0
100
AcDbCircle
  6
CONTINUOUS
370
13
 10
183.957224376205
 20
208.775735550972
 40
0.35
100
AcDbArc
 50
270
 51
360
  0
ARC
  5
344
100
AcDbEntity
  8
0-0
100
AcDbCircle
  6
CONTINUOUS
370
13
 10
183.957224376205
 20
214.075735550972
 40
0.35
100
AcDbArc
 50
360
 51
450
  0
LINE
  5
345
100
AcDbEntity
  8
0-0
100
AcDbLine
  6
CONTINUOUS
370
50
 10
183.402438305971
 20
216.426219525029
 11
183.402438305971
 21
206.425702749268
  0
LINE
  5
346
100
AcDbEntity
  8
0-0
100
AcDbLine
  6
CONTINUOUS
370
50
 10
192.601956680477
 20
197.029789361306
 11
193.251956680477
 21
197.029789361305
  0
LINE
  5
347
100
AcDbEntity
  8
0-0
100
AcDbLine
  6
CONTINUOUS
370
50
 10
192.601956680477
 20
203.029789361306
 11
193.251956680477
 21
203.029789361306
  0
ARC
  5
348
100
AcDbEntity
  8
0-0
100
AcDbCircle
  6
CONTINUOUS
370
50
 10
255.162945300137
 20
211.428438943644
 40
5
100
AcDbArc
 50
199.8363073669
 51
317.156356956403
  0
CIRCLE
  5
349
100
AcDbEntity
  8
0-0
100
AcDbCircle
  6
DIVIDE
370
13
 10
303.162945300137
 20
214.028438943644
 40
4
  0
LINE
  5
34A
100
AcDbEntity
  8
0-0
100
AcDbLine
  6
CONTINUOUS
370
13
 10
172.602438305971
 20
231.66123547612
 11
174.102438305971
 21
231.687418073513
  0
LINE
  5
34B
100
AcDbEntity
  8
0-0
100
AcDbLine
  6
CONTINUOUS
370
50
 10
308.662945300137
 20
232.528438943644
 11
311.662945300137
 21
229.528438943644
  0
LINE
  5
34C
100
AcDbEntity
  8
0-0
100
AcDbLine
  6
CONTINUOUS
370
50
 10
249.662945300137
 20
232.528438943644
 11
246.662945300137
 21
229.528438943644
  0
ARC
  5
34D
100
AcDbEntity
  8
0-0
100
AcDbCircle
  6
CONTINUOUS
370
50
 10
279.162945300137
 20
227.528438943644
 40
3.75
100
AcDbArc
 50
367.662255660768
 51
532.337744339232
  0
CIRCLE
  5
34E
100
AcDbEntity
  8
0-0
100
AcDbCircle
  6
CONTINUOUS
370
50
 10
303.162945300137
 20
214.028438943644
 40
4
  0
LINE
  5
34F
100
AcDbEntity
  8
0-0
100
AcDbLine
  6
CONTINUOUS
370
50
 10
311.662945300137
 20
229.528438943644
 11
311.662945300137
 21
164.528438943644
  0
LINE
  5
350
100
AcDbEntity
  8
0-0
100
AcDbLine
  6
CONTINUOUS
370
50
 10
246.662945300137
 20
229.528438943644
 11
246.662945300137
 21
164.528438943644
  0
LINE
  5
351
100
AcDbEntity
  8
0-0
100
AcDbLine
  6
CONTINUOUS
370
50
 10
246.662945300137
 20
164.528438943644
 11
311.662945300137
 21
164.528438943644
  0
LINE
  5
352
100
AcDbEntity
  8
0-0
100
AcDbLine
  6
CONTINUOUS
370
20
 10
308.45583851895
 20
232.028438943644
 11
311.162945300137
 21
229.321332162457
  0
LINE
  5
353
100
AcDbEntity
  8
0-0
100
AcDbLine
  6
CONTINUOUS
370
20
 10
249.870052081323
 20
232.028438943644
 11
247.162945300137
 21
229.321332162457
  0
CIRCLE
  5
354
100
AcDbEntity
  8
0-0
100
AcDbCircle
  6
CONTINUOUS
370
50
 10
279.162945300138
 20
200.028438943644
 40
16
  0
CIRCLE
  5
355
100
AcDbEntity
  8
0-0
100
AcDbCircle
  6
CONTINUOUS
370
40
 10
279.162945300137
 20
200.028438943644
 40
15
  0
CIRCLE
  5
356
100
AcDbEntity
  8
0-0
100
AcDbCircle
  6
CONTINUOUS
370
50
 10
303.162945300137
 20
214.028438943644
 40
4
  0
LINE
  5
357
100
AcDbEntity
  8
0-0
100
AcDbLine
  6
CONTINUOUS
370
50
 10
183.602438305971
 20
209.229789361305
 11
183.602438305971
 21
213.629789361305
  0
LINE
  5
358
100
AcDbEntity
  8
0-0
100
AcDbLine
  6
CONTINUOUS
370
50
 10
183.602438305971
 20
213.629789361305
 11
183.402438305971
 21
213.829789361305
  0
LINE
  5
359
100
AcDbEntity
  8
0-0
100
AcDbLine
  6
CONTINUOUS
370
50
 10
183.402438305971
 20
209.029789361305
 11
183.602438305971
 21
209.229789361305
  0
ARC
  5
35A
100
AcDbEntity
  8
0-0
100
AcDbCircle
  6
CONTINUOUS
370
50
 10
279.162945300138
 20
200.028438943644
 40
16
100
AcDbArc
 50
390.371562772876
 51
509.628437227124
  0
LINE
  5
35B
100
AcDbEntity
  8
0-0
100
AcDbLine
  6
CONTINUOUS
370
50
 10
294.000734892931
 20
208.028438943644
 11
306.162945300137
 21
208.028438943644
  0
LINE
  5
35C
100
AcDbEntity
  8
0-0
100
AcDbLine
  6
CONTINUOUS
370
50
 10
309.162945300137
 20
220.028438943644
 11
295.306538839587
 21
228.028438943644
  0
LINE
  5
35D
100
AcDbEntity
  8
0-0
100
AcDbLine
  6
CONTINUOUS
370
50
 10
249.912945300138
 20
220.461451645536
 11
263.019351760688
 21
228.028438943644
  0
LINE
  5
35E
100
AcDbEntity
  8
0-0
100
AcDbLine
  6
CONTINUOUS
370
50
 10
249.162945300138
 20
219.162413539859
 11
249.162945300137
 21
211.028438943644
  0
LINE
  5
35F
100
AcDbEntity
  8
0-0
100
AcDbLine
  6
CONTINUOUS
370
50
 10
309.162945300137
 20
211.028438943644
 11
306.162945300137
 21
208.028438943644
  0
LINE
  5
360
100
AcDbEntity
  8
0-0
100
AcDbLine
  6
CONTINUOUS
370
50
 10
249.162945300137
 20
211.028438943644
 11
252.162945300137
 21
208.028438943644
  0
LINE
  5
361
100
AcDbEntity
  8
0-0
100
AcDbLine
  6
CONTINUOUS
370
50
 10
309.162945300137
 20
211.028438943644
 11
309.162945300137
 21
220.028438943644
  0
LINE
  5
362
100
AcDbEntity
  8
0-0
100
AcDbLine
  6
CONTINUOUS
370
50
 10
263.019351760688
 20
228.028438943644
 11
295.306538839587
 21
228.028438943644
  0
LINE
  5
363
100
AcDbEntity
  8
0-0
100
AcDbLine
  6
CONTINUOUS
370
50
 10
264.325155707344
 20
208.028438943644
 11
252.162945300137
 21
208.028438943644
  0
ARC
  5
364
100
AcDbEntity
  8
0-0
100
AcDbCircle
  6
CONTINUOUS
370
50
 10
250.662945300137
 20
219.162413539859
 40
1.5
100
AcDbArc
 50
120
 51
179.999999999998
  0
ARC
  5
365
100
AcDbEntity
  8
0-0
100
AcDbCircle
  6
CONTINUOUS
370
50
 10
294.000734892931
 20
214.028438943644
 40
6
100
AcDbArc
 50
260.080811044173
 51
270
  0
ARC
  5
366
100
AcDbEntity
  8
0-0
100
AcDbCircle
  6
CONTINUOUS
370
50
 10
264.325155707344
 20
214.028438943644
 40
6
100
AcDbArc
 50
270
 51
279.919188955826
  0
LINE
  5
367
100
AcDbEntity
  8
0-0
100
AcDbLine
  6
CONTINUOUS
370
50
 10
250.662945300137
 20
221.028438943644
 11
250.662945300137
 21
236.526302988644
  0
LINE
  5
368
100
AcDbEntity
  8
0-0
100
AcDbLine
  6
CONTINUOUS
370
50
 10
259.662945300137
 20
226.090616770135
 11
259.662945300137
 21
236.526302988644
  0
ARC
  5
369
100
AcDbEntity
  8
0-0
100
AcDbCircle
  6
CONTINUOUS
370
50
 10
251.162945300137
 20
221.028438943644
 40
0.5
100
AcDbArc
 50
180
 51
194.457731776648
  0
LINE
  5
36A
100
AcDbEntity
  8
0-0
100
AcDbLine
  6
CONTINUOUS
370
50
 10
182.602438305971
 20
220.529789361305
 11
174.602438305971
 21
220.529789361305
  0
LINE
  5
36B
100
AcDbEntity
  8
0-0
100
AcDbLine
  6
CONTINUOUS
370
50
 10
174.102438305971
 20
221.029789361305
 11
174.102438305971
 21
236.527653406306
  0
LINE
  5
36C
100
AcDbEntity
  8
0-0
100
AcDbLine
  6
CONTINUOUS
370
50
 10
183.102438305971
 20
221.029789361305
 11
183.102438305971
 21
236.527653406306
  0
ARC
  5
36D
100
AcDbEntity
  8
0-0
100
AcDbCircle
  6
CONTINUOUS
370
50
 10
174.602438305971
 20
221.029789361305
 40
0.5
100
AcDbArc
 50
180
 51
270
  0
ARC
  5
36E
100
AcDbEntity
  8
0-0
100
AcDbCircle
  6
CONTINUOUS
370
50
 10
182.602438305971
 20
221.029789361305
 40
0.5
100
AcDbArc
 50
270
 51
360
  0
LINE
  5
36F
100
AcDbEntity
  8
0-0
100
AcDbLine
  6
CONTINUOUS
370
50
 10
259.85336105996
 20
236.526302988644
 11
250.472529540314
 21
236.526302988644
  0
ARC
  5
370
100
AcDbEntity
  8
0-0
100
AcDbCircle
  6
CONTINUOUS
370
50
 10
255.162945300137
 20
241.026302988644
 40
6.5
100
AcDbArc
 50
316.552288507054
 51
583.813061460403
  0
LINE
  5
371
100
AcDbEntity
  8
0-0
100
AcDbLine
  6
CONTINUOUS
370
50
 10
183.293023208879
 20
236.527653406306
 11
173.912191689233
 21
236.527653406306
  0
ARC
  5
372
100
AcDbEntity
  8
0-0
100
AcDbCircle
  6
CONTINUOUS
370
50
 10
178.602607449056
 20
241.027653406306
 40
6.5
100
AcDbArc
 50
316.552288507054
 51
583.813061460403
  0
ARC
  5
373
100
AcDbEntity
  8
0-0
100
AcDbCircle
  6
CONTINUOUS
370
50
 10
279.162945300137
 20
200.028438943644
 40
23
100
AcDbArc
 50
333.03761100252
 51
380.354406398237
  0
ARC
  5
374
100
AcDbEntity
  8
0-0
100
AcDbCircle
  6
CONTINUOUS
370
50
 10
279.162945300137
 20
200.028438943644
 40
23
100
AcDbArc
 50
162.71305472156
 51
206.962388997479
  0
ARC
  5
375
100
AcDbEntity
  8
0-0
100
AcDbCircle
  6
CONTINUOUS
370
50
 10
279.162945300137
 20
200.028438943644
 40
23
100
AcDbArc
 50
333.037611002519
 51
380.354406398237
  0
ARC
  5
376
100
AcDbEntity
  8
0-0
100
AcDbCircle
  6
CONTINUOUS
370
50
 10
279.162945300137
 20
200.028438943644
 40
23
100
AcDbArc
 50
162.71305472156
 51
206.962388997479
  0
LINE
  5
377
100
AcDbEntity
  8
0-0
100
AcDbLine
  6
CONTINUOUS
370
50
 10
249.662945300137
 20
232.528438943644
 11
250.662945300137
 21
232.528438943644
  0
LINE
  5
378
100
AcDbEntity
  8
0-0
100
AcDbLine
  6
CONTINUOUS
370
50
 10
259.662945300137
 20
232.528438943644
 11
308.662945300137
 21
232.528438943644
  0
LINE
  5
379
100
AcDbEntity
  8
0-0
100
AcDbLine
  6
CONTINUOUS
370
20
 10
249.870052081323
 20
232.028438943644
 11
250.662945300137
 21
232.028438943644
  0
LINE
  5
37A
100
AcDbEntity
  8
0-0
100
AcDbLine
  6
CONTINUOUS
370
20
 10
259.662945300137
 20
232.028438943644
 11
308.45583851895
 21
232.028438943644
  0
CIRCLE
  5
37B
100
AcDbEntity
  8
0-0
100
AcDbCircle
  6
CONTINUOUS
370
20
 10
279.162945300137
 20
200.028438943644
 40
16.0013504176615
  0
LINE
  5
37C
100
AcDbEntity
  8
0-0
100
AcDbLine
  6
CONTINUOUS
370
20
 10
247.162945300137
 20
229.321332162457
 11
247.162945300137
 21
169.278438943644
  0
LINE
  5
37D
100
AcDbEntity
  8
0-0
100
AcDbLine
  6
CONTINUOUS
370
20
 10
247.162945300137
 20
169.278438943644
 11
247.162945300137
 21
165.028438943644
  0
LINE
  5
37E
100
AcDbEntity
  8
0-0
100
AcDbLine
  6
CONTINUOUS
370
20
 10
311.162945300137
 20
229.321332162457
 11
311.162945300137
 21
169.278438943644
  0
LINE
  5
37F
100
AcDbEntity
  8
0-0
100
AcDbLine
  6
CONTINUOUS
370
20
 10
311.162945300137
 20
169.278438943644
 11
311.162945300137
 21
165.028438943644
  0
LINE
  5
380
100
AcDbEntity
  8
0-0
100
AcDbLine
  6
CONTINUOUS
370
20
 10
247.162945300137
 20
165.028438943644
 11
258.662945300137
 21
165.028438943644
  0
LINE
  5
381
100
AcDbEntity
  8
0-0
100
AcDbLine
  6
CONTINUOUS
370
20
 10
299.662945300137
 20
165.028438943644
 11
311.162945300137
 21
165.028438943644
  0
LINE
  5
382
100
AcDbEntity
  8
0-0
100
AcDbLine
  6
CONTINUOUS
370
50
 10
172.602438305971
 20
228.029789361305
 11
174.102438305971
 21
228.029789361305
  0
LINE
  5
383
100
AcDbEntity
  8
0-0
100
AcDbLine
  6
CONTINUOUS
370
50
 10
183.102438305971
 20
228.029789361305
 11
187.602438305971
 21
228.029789361305
  0
LINE
  5
384
100
AcDbEntity
  8
0-0
100
AcDbLine
  6
CONTINUOUS
370
50
 10
194.751956680477
 20
217.028438943644
 11
197.751956680477
 21
217.028438943644
  0
LINE
  5
385
100
AcDbEntity
  8
0-0
100
AcDbLine
  6
CONTINUOUS
370
50
 10
197.751956680477
 20
183.028438943644
 11
194.751956680477
 21
183.028438943644
  0
LINE
  5
386
100
AcDbEntity
  8
0-0
100
AcDbLine
  6
CONTINUOUS
370
20
 10
194.751956680477
 20
217.028438943644
 11
194.751956680477
 21
183.028438943644
  0
LINE
  5
387
100
AcDbEntity
  8
0-0
100
AcDbLine
  6
CONTINUOUS
370
20
 10
197.751956680477
 20
217.028438943644
 11
197.751956680477
 21
183.028438943644
  0
LINE
  5
388
100
AcDbEntity
  8
0-0
100
AcDbLine
  6
CONTINUOUS
370
13
 10
197.751956680477
 20
183.13816449712
 11
197.642231127001
 21
183.028438943644
  0
LINE
  5
389
100
AcDbEntity
  8
0-0
100
AcDbLine
  6
CONTINUOUS
370
13
 10
197.751956680477
 20
185.259484840679
 11
195.520910783441
 21
183.028438943644
  0
LINE
  5
38A
100
AcDbEntity
  8
0-0
100
AcDbLine
  6
CONTINUOUS
370
13
 10
197.751956680477
 20
187.380805184239
 11
194.751956680477
 21
184.380805184239
  0
LINE
  5
38B
100
AcDbEntity
  8
0-0
100
AcDbLine
  6
CONTINUOUS
370
13
 10
197.751956680477
 20
189.502125527799
 11
194.751956680477
 21
186.502125527799
  0
LINE
  5
38C
100
AcDbEntity
  8
0-0
100
AcDbLine
  6
CONTINUOUS
370
13
 10
197.751956680477
 20
191.623445871358
 11
194.751956680477
 21
188.623445871358
  0
LINE
  5
38D
100
AcDbEntity
  8
0-0
100
AcDbLine
  6
CONTINUOUS
370
13
 10
197.75108505089
 20
193.743894585331
 11
194.751956680477
 21
190.744766214918
  0
LINE
  5
38E
100
AcDbEntity
  8
0-0
100
AcDbLine
  6
CONTINUOUS
370
13
 10
197.751956680477
 20
195.866086558478
 11
194.751956680477
 21
192.866086558478
  0
LINE
  5
38F
100
AcDbEntity
  8
0-0
100
AcDbLine
  6
CONTINUOUS
370
13
 10
197.751956680477
 20
197.987406902037
 11
194.751956680477
 21
194.987406902037
  0
LINE
  5
390
100
AcDbEntity
  8
0-0
100
AcDbLine
  6
CONTINUOUS
370
13
 10
197.751956680477
 20
200.108727245597
 11
194.751956680477
 21
197.108727245597
  0
LINE
  5
391
100
AcDbEntity
  8
0-0
100
AcDbLine
  6
CONTINUOUS
370
13
 10
197.751956680477
 20
202.230047589156
 11
194.751956680477
 21
199.230047589156
  0
LINE
  5
392
100
AcDbEntity
  8
0-0
100
AcDbLine
  6
CONTINUOUS
370
13
 10
197.751956680477
 20
204.351367932716
 11
194.751956680477
 21
201.351367932716
  0
LINE
  5
393
100
AcDbEntity
  8
0-0
100
AcDbLine
  6
CONTINUOUS
370
13
 10
197.751956680477
 20
206.472688276276
 11
194.751956680477
 21
203.472688276276
  0
LINE
  5
394
100
AcDbEntity
  8
0-0
100
AcDbLine
  6
CONTINUOUS
370
13
 10
197.751956680477
 20
208.594008619835
 11
194.751956680477
 21
205.594008619835
  0
LINE
  5
395
100
AcDbEntity
  8
0-0
100
AcDbLine
  6
CONTINUOUS
370
13
 10
197.751956680477
 20
210.715328963395
 11
194.751956680477
 21
207.715328963395
  0
LINE
  5
396
100
AcDbEntity
  8
0-0
100
AcDbLine
  6
CONTINUOUS
370
13
 10
197.751956680477
 20
212.836649306955
 11
194.751956680477
 21
209.836649306955
  0
LINE
  5
397
100
AcDbEntity
  8
0-0
100
AcDbLine
  6
CONTINUOUS
370
13
 10
197.751956680477
 20
214.957969650514
 11
194.751956680477
 21
211.957969650514
  0
LINE
  5
398
100
AcDbEntity
  8
0-0
100
AcDbLine
  6
CONTINUOUS
370
13
 10
197.701105630047
 20
217.028438943644
 11
194.751956680477
 21
214.079289994074
  0
LINE
  5
399
100
AcDbEntity
  8
0-0
100
AcDbLine
  6
CONTINUOUS
370
13
 10
195.579785286487
 20
217.028438943644
 11
194.751956680477
 21
216.200610337633
  0
LINE
  5
39A
100
AcDbEntity
  8
0-0
100
AcDbLine
  6
CONTINUOUS
370
13
 10
195.754367590206
 20
183.028438943644
 11
194.751956680477
 21
184.030849853373
  0
LINE
  5
39B
100
AcDbEntity
  8
0-0
100
AcDbLine
  6
CONTINUOUS
370
13
 10
197.751956680477
 20
183.152170196933
 11
194.751956680477
 21
186.152170196933
  0
LINE
  5
39C
100
AcDbEntity
  8
0-0
100
AcDbLine
  6
CONTINUOUS
370
13
 10
197.751956680477
 20
185.273490540493
 11
194.751956680477
 21
188.273490540493
  0
LINE
  5
39D
100
AcDbEntity
  8
0-0
100
AcDbLine
  6
CONTINUOUS
370
13
 10
197.751956680477
 20
187.394810884052
 11
194.751956680477
 21
190.394810884052
  0
LINE
  5
39E
100
AcDbEntity
  8
0-0
100
AcDbLine
  6
CONTINUOUS
370
13
 10
197.751956680477
 20
189.516131227612
 11
194.751956680477
 21
192.516131227612
  0
LINE
  5
39F
100
AcDbEntity
  8
0-0
100
AcDbLine
  6
CONTINUOUS
370
13
 10
197.751956680477
 20
191.637451571171
 11
194.751956680477
 21
194.637451571171
  0
LINE
  5
3A0
100
AcDbEntity
  8
0-0
100
AcDbLine
  6
CONTINUOUS
370
13
 10
197.751956680477
 20
193.758771914731
 11
194.751956680477
 21
196.758771914731
  0
LINE
  5
3A1
100
AcDbEntity
  8
0-0
100
AcDbLine
  6
CONTINUOUS
370
13
 10
197.751956680477
 20
195.880092258291
 11
194.751956680477
 21
198.880092258291
  0
LINE
  5
3A2
100
AcDbEntity
  8
0-0
100
AcDbLine
  6
CONTINUOUS
370
13
 10
197.751956680477
 20
198.00141260185
 11
194.751956680477
 21
201.00141260185
  0
LINE
  5
3A3
100
AcDbEntity
  8
0-0
100
AcDbLine
  6
CONTINUOUS
370
13
 10
197.751956680477
 20
200.12273294541
 11
194.751956680477
 21
203.12273294541
  0
LINE
  5
3A4
100
AcDbEntity
  8
0-0
100
AcDbLine
  6
CONTINUOUS
370
13
 10
197.751956680477
 20
202.24405328897
 11
194.751956680477
 21
205.24405328897
  0
LINE
  5
3A5
100
AcDbEntity
  8
0-0
100
AcDbLine
  6
CONTINUOUS
370
13
 10
197.751956680477
 20
204.365373632529
 11
194.751956680477
 21
207.365373632529
  0
LINE
  5
3A6
100
AcDbEntity
  8
0-0
100
AcDbLine
  6
CONTINUOUS
370
13
 10
197.751956680477
 20
206.486693976089
 11
194.751956680477
 21
209.486693976089
  0
LINE
  5
3A7
100
AcDbEntity
  8
0-0
100
AcDbLine
  6
CONTINUOUS
370
13
 10
197.751956680477
 20
208.608014319648
 11
194.751956680477
 21
211.608014319649
  0
LINE
  5
3A8
100
AcDbEntity
  8
0-0
100
AcDbLine
  6
CONTINUOUS
370
13
 10
197.751956680477
 20
210.729334663208
 11
194.751956680477
 21
213.729334663208
  0
LINE
  5
3A9
100
AcDbEntity
  8
0-0
100
AcDbLine
  6
CONTINUOUS
370
13
 10
197.751956680477
 20
212.850655006768
 11
194.751956680477
 21
215.850655006768
  0
LINE
  5
3AA
100
AcDbEntity
  8
0-0
100
AcDbLine
  6
CONTINUOUS
370
13
 10
197.751956680477
 20
214.971975350327
 11
195.695493087161
 21
217.028438943644
  0
LINE
  5
3AB
100
AcDbEntity
  8
0-0
100
AcDbLine
  6
CONTINUOUS
370
50
 10
190.601956680477
 20
216.029789361305
 11
190.601956680477
 21
199.029789361305
  0
CIRCLE
  5
3AC
100
AcDbEntity
  8
0-0
100
AcDbCircle
  6
CONTINUOUS
370
13
 10
303.162945300137
 20
214.028438943644
 40
3
  0
LINE
  5
3AD
100
AcDbEntity
  8
0-0
100
AcDbLine
  6
CONTINUOUS
370
13
 10
302.412945300137
 20
212.174389321872
 11
302.412945300137
 21
213.278438943644
  0
LINE
  5
3AE
100
AcDbEntity
  8
0-0
100
AcDbLine
  6
CONTINUOUS
370
13
 10
303.912945300137
 20
212.174389321872
 11
303.912945300138
 21
213.278438943644
  0
LINE
  5
3AF
100
AcDbEntity
  8
0-0
100
AcDbLine
  6
CONTINUOUS
370
13
 10
305.01699492191
 20
213.278438943644
 11
303.912945300138
 21
213.278438943644
  0
LINE
  5
3B0
100
AcDbEntity
  8
0-0
100
AcDbLine
  6
CONTINUOUS
370
13
 10
305.01699492191
 20
214.778438943644
 11
303.912945300138
 21
214.778438943644
  0
LINE
  5
3B1
100
AcDbEntity
  8
0-0
100
AcDbLine
  6
CONTINUOUS
370
13
 10
302.412945300137
 20
215.882488565418
 11
303.912945300138
 21
215.882488565418
  0
LINE
  5
3B2
100
AcDbEntity
  8
0-0
100
AcDbLine
  6
CONTINUOUS
370
13
 10
302.412945300137
 20
212.17438932187
 11
303.912945300138
 21
212.17438932187
  0
LINE
  5
3B3
100
AcDbEntity
  8
0-0
100
AcDbLine
  6
CONTINUOUS
370
13
 10
305.016994921911
 20
213.278438943644
 11
305.016994921911
 21
214.778438943644
  0
LINE
  5
3B4
100
AcDbEntity
  8
0-0
100
AcDbLine
  6
CONTINUOUS
370
13
 10
301.308895678363
 20
213.278438943644
 11
301.308895678363
 21
214.778438943644
  0
LINE
  5
3B5
100
AcDbEntity
  8
0-0
100
AcDbLine
  6
CONTINUOUS
370
13
 10
303.912945300138
 20
214.778438943644
 11
303.912945300138
 21
215.882488565418
  0
LINE
  5
3B6
100
AcDbEntity
  8
0-0
100
AcDbLine
  6
CONTINUOUS
370
13
 10
302.412945300137
 20
213.278438943644
 11
301.308895678363
 21
213.278438943644
  0
LINE
  5
3B7
100
AcDbEntity
  8
0-0
100
AcDbLine
  6
CONTINUOUS
370
13
 10
302.412945300137
 20
214.778438943644
 11
302.412945300137
 21
215.882488565418
  0
LINE
  5
3B8
100
AcDbEntity
  8
0-0
100
AcDbLine
  6
CONTINUOUS
370
13
 10
302.412945300137
 20
214.778438943644
 11
301.308895678363
 21
214.778438943644
  0
CIRCLE
  5
3B9
100
AcDbEntity
  8
0-0
100
AcDbCircle
  6
CONTINUOUS
370
20
 10
303.162945300137
 20
214.028438943644
 40
4.2
  0
LINE
  5
3BA
100
AcDbEntity
  8
0-0
100
AcDbLine
  6
CONTINUOUS
370
13
 10
278.420066893354
 20
228.803438943644
 11
279.90582370692
 21
228.803438943644
  0
LINE
  5
3BB
100
AcDbEntity
  8
0-0
100
AcDbLine
  6
CONTINUOUS
370
13
 10
277.972620434732
 20
228.028438943644
 11
278.420066893354
 21
228.803438943644
  0
LINE
  5
3BC
100
AcDbEntity
  8
0-0
100
AcDbLine
  6
CONTINUOUS
370
13
 10
280.353270165542
 20
228.028438943644
 11
279.90582370692
 21
228.803438943644
  0
ARC
  5
3BD
100
AcDbEntity
  8
0-0
100
AcDbCircle
  6
CONTINUOUS
370
13
 10
279.162945300137
 20
227.528438943644
 40
2.7
100
AcDbArc
 50
370.671929285765
 51
529.328070714237
  0
ARC
  5
3BE
100
AcDbEntity
  8
0-0
100
AcDbCircle
  6
CONTINUOUS
370
20
 10
279.162945300137
 20
227.528438943644
 40
3
100
AcDbArc
 50
369.594068226863
 51
530.405931773138
  0
LINE
  5
3BF
100
AcDbEntity
  8
0-0
100
AcDbLine
  6
BYLAYER
370
13
 10
269.412944717324
 20
167.806751443644
 11
269.412944717324
 21
169.250126443644
  0
LINE
  5
3C0
100
AcDbEntity
  8
0-0
100
AcDbLine
  6
BYLAYER
370
13
 10
266.91294588295
 20
169.250126443644
 11
266.91294588295
 21
167.806751443644
  0
CIRCLE
  5
3C1
100
AcDbEntity
  8
0-0
100
AcDbCircle
  6
BYLAYER
370
13
 10
268.162945300137
 20
168.528438943644
 40
2.4035896769725
  0
CIRCLE
  5
3C2
100
AcDbEntity
  8
0-0
100
AcDbCircle
  6
BYLAYER
370
13
 10
268.162945300137
 20
168.528438943644
 40
2.74999999999989
  0
LINE
  5
3C3
100
AcDbEntity
  8
0-0
100
AcDbLine
  6
BYLAYER
370
13
 10
268.162945300137
 20
167.085063943644
 11
269.412944717324
 21
167.806751443644
  0
LINE
  5
3C4
100
AcDbEntity
  8
0-0
100
AcDbLine
  6
BYLAYER
370
13
 10
266.91294588295
 20
167.806751443644
 11
268.162945300137
 21
167.085063943644
  0
LINE
  5
3C5
100
AcDbEntity
  8
0-0
100
AcDbLine
  6
BYLAYER
370
13
 10
269.412944717324
 20
169.250126443644
 11
268.162945300137
 21
169.971813943644
  0
LINE
  5
3C6
100
AcDbEntity
  8
0-0
100
AcDbLine
  6
BYLAYER
370
13
 10
268.162945300137
 20
169.971813943644
 11
266.91294588295
 21
169.250126443644
  0
LINE
  5
3C7
100
AcDbEntity
  8
0-0
100
AcDbLine
  6
BYLAYER
370
13
 10
291.412944717324
 20
167.806751443644
 11
291.412944717324
 21
169.250126443644
  0
LINE
  5
3C8
100
AcDbEntity
  8
0-0
100
AcDbLine
  6
BYLAYER
370
13
 10
288.91294588295
 20
169.250126443644
 11
288.91294588295
 21
167.806751443644
  0
CIRCLE
  5
3C9
100
AcDbEntity
  8
0-0
100
AcDbCircle
  6
BYLAYER
370
13
 10
290.162945300137
 20
168.528438943644
 40
2.4035896769725
  0
CIRCLE
  5
3CA
100
AcDbEntity
  8
0-0
100
AcDbCircle
  6
BYLAYER
370
13
 10
290.162945300137
 20
168.528438943644
 40
2.74999999999989
  0
LINE
  5
3CB
100
AcDbEntity
  8
0-0
100
AcDbLine
  6
BYLAYER
370
13
 10
290.162945300137
 20
167.085063943644
 11
291.412944717324
 21
167.806751443644
  0
LINE
  5
3CC
100
AcDbEntity
  8
0-0
100
AcDbLine
  6
BYLAYER
370
13
 10
288.91294588295
 20
167.806751443644
 11
290.162945300137
 21
167.085063943644
  0
LINE
  5
3CD
100
AcDbEntity
  8
0-0
100
AcDbLine
  6
BYLAYER
370
13
 10
291.412944717324
 20
169.250126443644
 11
290.162945300137
 21
169.971813943644
  0
LINE
  5
3CE
100
AcDbEntity
  8
0-0
100
AcDbLine
  6
BYLAYER
370
13
 10
290.162945300137
 20
169.971813943644
 11
288.91294588295
 21
169.250126443644
  0
CIRCLE
  5
3CF
100
AcDbEntity
  8
0-0
100
AcDbCircle
  6
CONTINUOUS
370
50
 10
303.162945300137
 20
214.028438943644
 40
4
  0
CIRCLE
  5
3D0
100
AcDbEntity
  8
0-0
100
AcDbCircle
  6
CONTINUOUS
370
13
 10
303.162945300137
 20
214.028438943644
 40
3
  0
LINE
  5
3D1
100
AcDbEntity
  8
0-0
100
AcDbLine
  6
CONTINUOUS
370
13
 10
302.412945300137
 20
212.174389321871
 11
302.412945300137
 21
213.278438943644
  0
LINE
  5
3D2
100
AcDbEntity
  8
0-0
100
AcDbLine
  6
CONTINUOUS
370
13
 10
303.912945300137
 20
212.174389321871
 11
303.912945300137
 21
213.278438943644
  0
LINE
  5
3D3
100
AcDbEntity
  8
0-0
100
AcDbLine
  6
CONTINUOUS
370
13
 10
305.016994921909
 20
213.278438943644
 11
303.912945300137
 21
213.278438943644
  0
LINE
  5
3D4
100
AcDbEntity
  8
0-0
100
AcDbLine
  6
CONTINUOUS
370
13
 10
305.016994921909
 20
214.778438943644
 11
303.912945300137
 21
214.778438943644
  0
LINE
  5
3D5
100
AcDbEntity
  8
0-0
100
AcDbLine
  6
CONTINUOUS
370
13
 10
302.412945300137
 20
215.882488565418
 11
303.912945300137
 21
215.882488565418
  0
LINE
  5
3D6
100
AcDbEntity
  8
0-0
100
AcDbLine
  6
CONTINUOUS
370
13
 10
302.412945300137
 20
212.17438932187
 11
303.912945300137
 21
212.17438932187
  0
LINE
  5
3D7
100
AcDbEntity
  8
0-0
100
AcDbLine
  6
CONTINUOUS
370
13
 10
305.016994921911
 20
213.278438943644
 11
305.016994921911
 21
214.778438943644
  0
LINE
  5
3D8
100
AcDbEntity
  8
0-0
100
AcDbLine
  6
CONTINUOUS
370
13
 10
301.308895678363
 20
213.278438943644
 11
301.308895678363
 21
214.778438943644
  0
LINE
  5
3D9
100
AcDbEntity
  8
0-0
100
AcDbLine
  6
CONTINUOUS
370
13
 10
303.912945300137
 20
214.778438943644
 11
303.912945300137
 21
215.882488565418
  0
LINE
  5
3DA
100
AcDbEntity
  8
0-0
100
AcDbLine
  6
CONTINUOUS
370
13
 10
302.412945300137
 20
213.278438943644
 11
301.308895678363
 21
213.278438943644
  0
LINE
  5
3DB
100
AcDbEntity
  8
0-0
100
AcDbLine
  6
CONTINUOUS
370
13
 10
302.412945300137
 20
214.778438943644
 11
302.412945300137
 21
215.882488565418
  0
LINE
  5
3DC
100
AcDbEntity
  8
0-0
100
AcDbLine
  6
CONTINUOUS
370
13
 10
302.412945300137
 20
214.778438943644
 11
301.308895678363
 21
214.778438943644
  0
LINE
  5
3DD
100
AcDbEntity
  8
0-0
100
AcDbLine
  6
CONTINUOUS
370
13
 10
278.464312910833
 20
213.060669110116
 11
278.861201923015
 21
210.087038482078
  0
LINE
  5
3DE
100
AcDbEntity
  8
0-0
100
AcDbLine
  6
CONTINUOUS
370
13
 10
278.464312910833
 20
213.060669110116
 11
274.864337254929
 21
211.281926300908
  0
LINE
  5
3DF
100
AcDbEntity
  8
0-0
100
AcDbLine
  6
CONTINUOUS
370
13
 10
278.861201923015
 20
210.087038482078
 11
274.864337254929
 21
211.281926300908
  0
LINE
  5
3E0
100
AcDbEntity
  8
0-0
100
AcDbLine
  6
CONTINUOUS
370
13
 10
280.096916425432
 20
213.070788714277
 11
279.700027413249
 21
210.097158086239
  0
LINE
  5
3E1
100
AcDbEntity
  8
0-0
100
AcDbLine
  6
CONTINUOUS
370
13
 10
280.096916425432
 20
213.070788714277
 11
283.696892081336
 21
211.292045905069
  0
LINE
  5
3E2
100
AcDbEntity
  8
0-0
100
AcDbLine
  6
CONTINUOUS
370
13
 10
279.700027413249
 20
210.097158086239
 11
283.696892081336
 21
211.292045905069
  0
ARC
  5
3E3
100
AcDbEntity
  8
0-0
100
AcDbCircle
  6
DIVIDE
370
13
 10
279.038589647155
 20
227.81304863447
 40
16
100
AcDbArc
 50
331.752504848493
 51
448.247495151507
  0
LINE
  5
3E4
100
AcDbEntity
  8
0-0
100
AcDbLine
  6
DIVIDE
370
13
 10
294.20329699022
 20
217.547005034368
 11
299.46679287743
 21
208.43036273229
  0
ARC
  5
3E5
100
AcDbEntity
  8
0-0
100
AcDbCircle
  6
DIVIDE
370
13
 10
279.038589647155
 20
227.81304863447
 40
14.4
100
AcDbArc
 50
347.536276389867
 51
432.463726726447
  0
LINE
  5
3E6
100
AcDbEntity
  8
0-0
100
AcDbLine
  6
DIVIDE
370
13
 10
311.359097722844
 20
211.832286520937
 11
311.359097722844
 21
227.832286520937
  0
LINE
  5
3E7
100
AcDbEntity
  8
0-0
100
AcDbLine
  6
DIVIDE
370
13
 10
281.359097722843
 20
263.793810748003
 11
295.215504183394
 21
255.793810748003
  0
LINE
  5
3E8
100
AcDbEntity
  8
0-0
100
AcDbLine
  6
DIVIDE
370
13
 10
273.564869088784
 20
259.293810748003
 11
281.359097722843
 21
263.793810748003
  0
LINE
  5
3E9
100
AcDbEntity
  8
0-0
100
AcDbLine
  6
DIVIDE
370
13
 10
303.564869088784
 20
207.332286520937
 11
299.46679287743
 21
208.43036273229
  0
LINE
  5
3EA
100
AcDbEntity
  8
0-0
100
AcDbLine
  6
DIVIDE
370
13
 10
273.564869088784
 20
259.293810748003
 11
272.46679287743
 21
255.19573453665
  0
LINE
  5
3EB
100
AcDbEntity
  8
0-0
100
AcDbLine
  6
DIVIDE
370
13
 10
303.564869088784
 20
207.332286520937
 11
311.359097722844
 21
211.832286520937
  0
LINE
  5
3EC
100
AcDbEntity
  8
0-0
100
AcDbLine
  6
DIVIDE
370
13
 10
295.215504183394
 20
255.793810748003
 11
311.359097722844
 21
227.832286520937
  0
LINE
  5
3ED
100
AcDbEntity
  8
0-0
100
AcDbLine
  6
DIVIDE
370
13
 10
277.730288764641
 20
246.079092234572
 11
272.46679287743
 21
255.19573453665
  0
LINE
  5
3EE
100
AcDbEntity
  8
0-0
100
AcDbLine
  6
DIVIDE
370
13
 10
232.901002924474
 20
204.091526123461
 11
237.591418684297
 21
195.967487718826
  0
ARC
  5
3EF
100
AcDbEntity
  8
0-0
100
AcDbCircle
  6
DIVIDE
370
13
 10
231.349096487356
 20
197.779506921144
 40
6.5
100
AcDbArc
 50
436.186938539596
 51
703.813061460403
  0
LINE
  5
3F0
100
AcDbEntity
  8
0-0
100
AcDbLine
  6
DIVIDE
370
13
 10
245.368716666077
 20
210.492540558782
 11
249.368716666077
 21
203.564337328506
  0
LINE
  5
3F1
100
AcDbEntity
  8
0-0
100
AcDbLine
  6
DIVIDE
370
13
 10
237.496210804386
 20
196.132392604114
 11
249.185703964185
 21
202.881324626614
  0
LINE
  5
3F2
100
AcDbEntity
  8
0-0
100
AcDbLine
  6
DIVIDE
370
13
 10
232.996210804386
 20
203.926621238173
 11
244.685703964185
 21
210.675553260674
  0
LINE
  5
3F3
100
AcDbEntity
  8
0-0
100
AcDbLine
  6
DIVIDE
370
13
 10
249.368716666077
 20
203.564337328506
 11
249.185703964185
 21
202.881324626614
  0
LINE
  5
3F4
100
AcDbEntity
  8
0-0
100
AcDbLine
  6
DIVIDE
370
13
 10
245.368716666077
 20
210.492540558782
 11
244.685703964185
 21
210.675553260674
  0
LINE
  5
3F5
100
AcDbEntity
  8
0-0
100
AcDbLine
  6
DIVIDE
370
13
 10
246.618716666077
 20
208.32747704932
 11
249.944034213382
 21
210.247350030398
  0
LINE
  5
3F6
100
AcDbEntity
  8
0-0
100
AcDbLine
  6
DIVIDE
370
13
 10
248.118716666077
 20
205.729400837967
 11
251.782267389672
 21
207.844552834425
  0
LINE
  5
3F7
100
AcDbEntity
  8
0-0
100
AcDbLine
  6
DIVIDE
370
13
 10
251.432818281215
 20
207.989208459102
 11
251.55937538874
 21
208.0622762392
  0
LINE
  5
3F8
100
AcDbEntity
  8
0-0
100
AcDbLine
  6
DIVIDE
370
13
 10
251.582818281215
 20
207.729400837967
 11
250.381856386892
 21
209.809527856889
  0
LINE
  5
3F9
100
AcDbEntity
  8
0-0
100
AcDbLine
  6
DIVIDE
370
13
 10
250.083780175538
 20
210.107604068243
 11
249.823010660079
 21
210.17747704932
  0
LINE
  5
3FA
100
AcDbEntity
  8
0-0
100
AcDbLine
  6
DIVIDE
370
13
 10
251.432818281215
 20
207.989208459102
 11
251.323010660079
 21
207.579400837967
  0
POINT
  5
3FB
100
AcDbEntity
  8
0-0
100
AcDbPoint
 10
251.582818281215
 20
207.729400837967
  0
ARC
  5
3FC
100
AcDbEntity
  8
0-0
100
AcDbCircle
  6
DIVIDE
370
13
 10
302.863551028064
 20
222.547005034368
 40
10
100
AcDbArc
 50
167.536273116422
 51
210
  0
ARC
  5
3FD
100
AcDbEntity
  8
0-0
100
AcDbCircle
  6
DIVIDE
370
13
 10
286.390542802485
 20
251.079092234572
 40
10
100
AcDbArc
 50
210
 51
252.463722396086
  0
LINE
  5
3FE
100
AcDbEntity
  8
0-0
100
AcDbLine
  6
DIVIDE
370
20
 10
259.54120176147
 20
164.527088525982
 11
259.54120176147
 21
151.575688114099
  0
LINE
  5
3FF
100
AcDbEntity
  8
0-0
100
AcDbLine
  6
DIVIDE
370
20
 10
261.14120176147
 20
164.527088525982
 11
261.14120176147
 21
151.510672572323
  0
LINE
  5
400
100
AcDbEntity
  8
0-0
100
AcDbLine
  6
DIVIDE
370
20
 10
297.293724629148
 20
164.527088525982
 11
297.293724629148
 21
152.17562317808
  0
LINE
  5
401
100
AcDbEntity
  8
0-0
100
AcDbLine
  6
DIVIDE
370
20
 10
298.893724629148
 20
164.527088525982
 11
298.893724629148
 21
152.20517569707
  0
LWPOLYLINE
  5
402
100
AcDbEntity
  8
0-0
100
AcDbPolyline
  6
DIVIDE
370
20
 90
     28
 10
259.52637188285
  20
151.543246883122
 10
259.579205023726
  20
151.633211362944
 10
259.632412129554
  20
151.715397421051
 10
259.6860099378
  20
151.788365018767
 10
259.74001518593
  20
151.850674117415
 10
259.79444461141
  20
151.900884678321
 10
259.849314951706
  20
151.937556662808
 10
259.904642944284
  20
151.959250032201
 10
259.96044532661
  20
151.964524747825
 10
260.01673883615
  20
151.951940771003
 10
260.082977768508
  20
151.914130172915
 10
260.149841638477
  20
151.855693691206
 10
260.217265463152
  20
151.782222249829
 10
260.285184259623
  20
151.699306772739
 10
260.353533044985
  20
151.61253818389
 10
260.42224683633
  20
151.527507407233
 10
260.49126065075
  20
151.449805366724
 10
260.56050950534
  20
151.385022986316
 10
260.629928417191
  20
151.338751189962
 10
260.684636082957
  20
151.31834501922
 10
260.739423242165
  20
151.311619097196
 10
260.794304331836
  20
151.317331308128
 10
260.849293788994
  20
151.334239536254
 10
260.90440605066
  20
151.361101665812
 10
260.959655553856
  20
151.396675581039
 10
261.015056735605
  20
151.439719166175
 10
261.070624032929
  20
151.488990305456
 10
261.12637188285
  20
151.543246883122
  0
LWPOLYLINE
  5
403
100
AcDbEntity
  8
0-0
100
AcDbPolyline
  6
DIVIDE
370
20
 90
     28
 10
259.52637188285
  20
151.543246883122
 10
259.577232392221
  20
151.49316888404
 10
259.626431027208
  20
151.44730876543
 10
259.674345961003
  20
151.406802107239
 10
259.721355366801
  20
151.372784489413
 10
259.767837417795
  20
151.346391491899
 10
259.814170287179
  20
151.328758694642
 10
259.860732148146
  20
151.32102167759
 10
259.907901173889
  20
151.324316020689
 10
259.956055537603
  20
151.339777303885
 10
260.006077517262
  20
151.368305725209
 10
260.056341317882
  20
151.407050058441
 10
260.105683549835
  20
151.452516872654
 10
260.152940823493
  20
151.501212736916
 10
260.196949749228
  20
151.549644220299
 10
260.236546937414
  20
151.594317891873
 10
260.270568998422
  20
151.631740320708
 10
260.297852542626
  20
151.658418075876
 10
260.317234180397
  20
151.670857726446
 10
260.320176286899
  20
151.671350276252
 10
260.322747504756
  20
151.671141329491
 10
260.32497071662
  20
151.670299598283
 10
260.326868805144
  20
151.668893794748
 10
260.328464652981
  20
151.666992631004
 10
260.329781142784
  20
151.664664819171
 10
260.330841157205
  20
151.661979071368
 10
260.331667578898
  20
151.659004099715
 10
260.332283290514
  20
151.65580861633
  0
LWPOLYLINE
  5
404
100
AcDbEntity
  8
0-0
100
AcDbPolyline
  6
DIVIDE
370
20
 90
     28
 10
297.286435118759
  20
152.210580317909
 10
297.339268259635
  20
152.300544797732
 10
297.392475365463
  20
152.382730855839
 10
297.446073173709
  20
152.455698453555
 10
297.500078421839
  20
152.518007552203
 10
297.554507847319
  20
152.568218113109
 10
297.609378187615
  20
152.604890097596
 10
297.664706180193
  20
152.626583466989
 10
297.720508562519
  20
152.631858182613
 10
297.776802072059
  20
152.619274205791
 10
297.843041004417
  20
152.581463607703
 10
297.909904874386
  20
152.523027125994
 10
297.97732869906
  20
152.449555684617
 10
298.045247495532
  20
152.366640207527
 10
298.113596280894
  20
152.279871618678
 10
298.182310072238
  20
152.194840842021
 10
298.251323886659
  20
152.117138801512
 10
298.320572741249
  20
152.052356421104
 10
298.3899916531
  20
152.00608462475
 10
298.444699318866
  20
151.985678454008
 10
298.499486478074
  20
151.978952531984
 10
298.554367567745
  20
151.984664742916
 10
298.609357024903
  20
152.001572971042
 10
298.664469286569
  20
152.0284351006
 10
298.719718789765
  20
152.064009015827
 10
298.775119971514
  20
152.107052600963
 10
298.830687268838
  20
152.156323740244
 10
298.886435118759
  20
152.210580317909
  0
LWPOLYLINE
  5
405
100
AcDbEntity
  8
0-0
100
AcDbPolyline
  6
DIVIDE
370
20
 90
     28
 10
297.286435118759
  20
152.210580317909
 10
297.33729562813
  20
152.160502318828
 10
297.386494263116
  20
152.114642200218
 10
297.434409196912
  20
152.074135542027
 10
297.48141860271
  20
152.040117924201
 10
297.527900653704
  20
152.013724926687
 10
297.574233523088
  20
151.99609212943
 10
297.620795384055
  20
151.988355112378
 10
297.667964409798
  20
151.991649455476
 10
297.716118773512
  20
152.007110738673
 10
297.766140753171
  20
152.035639159996
 10
297.816404553791
  20
152.074383493229
 10
297.865746785744
  20
152.119850307442
 10
297.913004059402
  20
152.168546171704
 10
297.957012985137
  20
152.216977655087
 10
297.996610173323
  20
152.261651326661
 10
298.030632234331
  20
152.299073755496
 10
298.057915778535
  20
152.325751510664
 10
298.077297416306
  20
152.338191161234
 10
298.080239522808
  20
152.33868371104
 10
298.082810740665
  20
152.338474764279
 10
298.085033952529
  20
152.337633033071
 10
298.086932041053
  20
152.336227229536
 10
298.08852788889
  20
152.334326065792
 10
298.089844378693
  20
152.331998253959
 10
298.090904393114
  20
152.329312506156
 10
298.091730814807
  20
152.326337534503
 10
298.092346526423
  20
152.323142051118
  0
LWPOLYLINE
  5
406
100
AcDbEntity
  8
0-0
100
AcDbPolyline
  6
DIVIDE
370
20
 90
     28
 10
176.787608427352
  20
151.544597300783
 10
176.840441568228
  20
151.634561780606
 10
176.893648674056
  20
151.716747838713
 10
176.947246482302
  20
151.789715436428
 10
177.001251730432
  20
151.852024535077
 10
177.055681155912
  20
151.902235095982
 10
177.110551496208
  20
151.93890708047
 10
177.165879488786
  20
151.960600449863
 10
177.221681871112
  20
151.965875165486
 10
177.277975380651
  20
151.953291188664
 10
177.344214313009
  20
151.915480590576
 10
177.411078182979
  20
151.857044108867
 10
177.478502007653
  20
151.783572667491
 10
177.546420804124
  20
151.700657190401
 10
177.614769589486
  20
151.613888601551
 10
177.683483380831
  20
151.528857824895
 10
177.752497195252
  20
151.451155784386
 10
177.821746049841
  20
151.386373403978
 10
177.891164961692
  20
151.340101607624
 10
177.945872627458
  20
151.319695436882
 10
178.000659786666
  20
151.312969514858
 10
178.055540876338
  20
151.31868172579
 10
178.110530333495
  20
151.335589953916
 10
178.165642595161
  20
151.362452083473
 10
178.220892098358
  20
151.398025998701
 10
178.276293280107
  20
151.441069583836
 10
178.331860577431
  20
151.490340723118
 10
178.387608427352
  20
151.544597300783
  0
LWPOLYLINE
  5
407
100
AcDbEntity
  8
0-0
100
AcDbPolyline
  6
DIVIDE
370
20
 90
     28
 10
176.787608427352
  20
151.544597300783
 10
176.838468936723
  20
151.494519301702
 10
176.887667571709
  20
151.448659183092
 10
176.935582505504
  20
151.408152524901
 10
176.982591911302
  20
151.374134907075
 10
177.029073962297
  20
151.34774190956
 10
177.07540683168
  20
151.330109112304
 10
177.121968692647
  20
151.322372095251
 10
177.16913771839
  20
151.32566643835
 10
177.217292082104
  20
151.341127721546
 10
177.267314061764
  20
151.36965614287
 10
177.317577862384
  20
151.408400476103
 10
177.366920094336
  20
151.453867290315
 10
177.414177367994
  20
151.502563154578
 10
177.458186293729
  20
151.55099463796
 10
177.497783481915
  20
151.595668309534
 10
177.531805542923
  20
151.63309073837
 10
177.559089087127
  20
151.659768493538
 10
177.578470724898
  20
151.672208144108
 10
177.581412831401
  20
151.672700693913
 10
177.583984049257
  20
151.672491747153
 10
177.586207261121
  20
151.671650015945
 10
177.588105349646
  20
151.670244212409
 10
177.589701197483
  20
151.668343048666
 10
177.591017687286
  20
151.666015236833
 10
177.592077701707
  20
151.66332948903
 10
177.592904123399
  20
151.660354517377
 10
177.593519835015
  20
151.657159033992
  0
LINE
  5
408
100
AcDbEntity
  8
0-0
100
AcDbLine
  6
DASHDOT
370
13
 10
177.602438305971
 20
150.957912734825
 11
177.602438305971
 21
208.431542559915
  0
LINE
  5
409
100
AcDbEntity
  8
0-0
100
AcDbLine
  6
DIVIDE
370
20
 10
176.802438305972
 20
206.426219525029
 11
176.802438305972
 21
182.278438943644
  0
LINE
  5
40A
100
AcDbEntity
  8
0-0
100
AcDbLine
  6
DIVIDE
370
20
 10
176.802438305972
 20
169.778438943644
 11
176.802438305972
 21
151.578515633613
  0
LINE
  5
40B
100
AcDbEntity
  8
0-0
100
AcDbLine
  6
DIVIDE
370
20
 10
178.402438305972
 20
206.426219525029
 11
178.402438305972
 21
182.278438943644
  0
LINE
  5
40C
100
AcDbEntity
  8
0-0
100
AcDbLine
  6
DIVIDE
370
20
 10
178.402438305972
 20
169.778438943644
 11
178.402438305972
 21
151.567132059818
  0
CIRCLE
  5
40D
100
AcDbEntity
  8
0-0
100
AcDbCircle
  6
CONTINUOUS
370
40
 10
97.5563134045082
 20
67.3179246530634
 40
12.5
  0
ARC
  5
40E
100
AcDbEntity
  8
0-0
100
AcDbCircle
  6
CONTINUOUS
370
50
 10
279.162945300138
 20
200.028438943644
 40
16
100
AcDbArc
 50
183.583321698472
 51
356.416678301528
  0
LINE
  5
40F
100
AcDbEntity
  8
0-0
100
AcDbLine
  6
CONTINUOUS
370
50
 10
259.162945300137
 20
164.528438943644
 11
299.162945300137
 21
164.528438943644
  0
LINE
  5
410
100
AcDbEntity
  8
0-0
100
AcDbLine
  6
CONTINUOUS
370
50
 10
190.602438305971
 20
164.528438943644
 11
172.602438305971
 21
164.528438943644
  0
LINE
  5
411
100
AcDbEntity
  8
0-0
100
AcDbLine
  6
CONTINUOUS
370
50
 10
172.602438305971
 20
199.028438943644
 11
172.602438305971
 21
164.528438943644
  0
CIRCLE
  5
412
100
AcDbEntity
  8
0-0
100
AcDbCircle
  6
CONTINUOUS
370
50
 10
268.162945300138
 20
168.528438943644
 40
3
  0
CIRCLE
  5
413
100
AcDbEntity
  8
0-0
100
AcDbCircle
  6
CONTINUOUS
370
50
 10
290.162945300138
 20
168.528438943644
 40
3
  0
LINE
  5
414
100
AcDbEntity
  8
0-0
100
AcDbLine
  6
CONTINUOUS
370
50
 10
262.683760580309
 20
199.028438943644
 11
259.162945300137
 21
190.528438943644
  0
LINE
  5
415
100
AcDbEntity
  8
0-0
100
AcDbLine
  6
CONTINUOUS
370
50
 10
262.693585588802
 20
199.028438943644
 11
263.194225877466
 21
199.028438943644
  0
LINE
  5
416
100
AcDbEntity
  8
0-0
100
AcDbLine
  6
CONTINUOUS
370
50
 10
295.632305011473
 20
199.028438943644
 11
295.131664722809
 21
199.028438943644
  0
LINE
  5
417
100
AcDbEntity
  8
0-0
100
AcDbLine
  6
CONTINUOUS
370
50
 10
295.642130019966
 20
199.028438943644
 11
299.162945300137
 21
190.528438943644
  0
LINE
  5
418
100
AcDbEntity
  8
0-0
100
AcDbLine
  6
CONTINUOUS
370
50
 10
190.602438305971
 20
199.028438943644
 11
172.602438305971
 21
199.028438943644
  0
LINE
  5
419
100
AcDbEntity
  8
0-0
100
AcDbLine
  6
CONTINUOUS
370
50
 10
190.602438305971
 20
190.528438943644
 11
181.352438305971
 21
190.528438943644
  0
LINE
  5
41A
100
AcDbEntity
  8
0-0
100
AcDbLine
  6
CONTINUOUS
370
50
 10
173.852438305971
 20
190.528438943644
 11
172.602438305971
 21
190.528438943644
  0
LINE
  5
41B
100
AcDbEntity
  8
0-0
100
AcDbLine
  6
CONTINUOUS
370
50
 10
173.852438305971
 20
164.528438943644
 11
173.852438305971
 21
171.528438943644
  0
LINE
  5
41C
100
AcDbEntity
  8
0-0
100
AcDbLine
  6
CONTINUOUS
370
50
 10
173.852438305971
 20
180.528438943644
 11
173.852438305971
 21
190.528438943644
  0
LINE
  5
41D
100
AcDbEntity
  8
0-0
100
AcDbLine
  6
CONTINUOUS
370
50
 10
177.602438305971
 20
164.528438943644
 11
177.602438305971
 21
169.780306097565
  0
LINE
  5
41E
100
AcDbEntity
  8
0-0
100
AcDbLine
  6
CONTINUOUS
370
50
 10
177.602438305971
 20
182.219619158091
 11
177.602438305971
 21
198.424885553051
  0
LINE
  5
41F
100
AcDbEntity
  8
0-0
100
AcDbLine
  6
CONTINUOUS
370
50
 10
181.352438305971
 20
164.528438943644
 11
181.352438305971
 21
169.778438943644
  0
LINE
  5
420
100
AcDbEntity
  8
0-0
100
AcDbLine
  6
CONTINUOUS
370
50
 10
181.352438305971
 20
182.278438943644
 11
181.352438305971
 21
190.528438943644
  0
LINE
  5
421
100
AcDbEntity
  8
0-0
100
AcDbLine
  6
CONTINUOUS
370
50
 10
259.162945300137
 20
171.528438943644
 11
264.962945300137
 21
171.528438943644
  0
LINE
  5
422
100
AcDbEntity
  8
0-0
100
AcDbLine
  6
CONTINUOUS
370
50
 10
259.162945300137
 20
180.528438943644
 11
264.962945300137
 21
180.528438943644
  0
LINE
  5
423
100
AcDbEntity
  8
0-0
100
AcDbLine
  6
CONTINUOUS
370
50
 10
293.362945300137
 20
171.528438943644
 11
299.162945300137
 21
171.528438943644
  0
LINE
  5
424
100
AcDbEntity
  8
0-0
100
AcDbLine
  6
CONTINUOUS
370
50
 10
293.362945300137
 20
180.528438943644
 11
299.162945300137
 21
180.528438943644
  0
LINE
  5
425
100
AcDbEntity
  8
0-0
100
AcDbLine
  6
CONTINUOUS
370
50
 10
172.602438305971
 20
171.528438943644
 11
173.852438305971
 21
171.528438943644
  0
LINE
  5
426
100
AcDbEntity
  8
0-0
100
AcDbLine
  6
CONTINUOUS
370
50
 10
172.602438305971
 20
180.528438943644
 11
173.852438305971
 21
180.528438943644
  0
LINE
  5
427
100
AcDbEntity
  8
0-0
100
AcDbLine
  6
CONTINUOUS
370
50
 10
299.162945300137
 20
171.528438943644
 11
299.162945300137
 21
164.528438943644
  0
LINE
  5
428
100
AcDbEntity
  8
0-0
100
AcDbLine
  6
CONTINUOUS
370
50
 10
299.162945300137
 20
190.528438943644
 11
299.162945300137
 21
180.528438943644
  0
LINE
  5
429
100
AcDbEntity
  8
0-0
100
AcDbLine
  6
CONTINUOUS
370
50
 10
259.162945300137
 20
171.528438943644
 11
259.162945300137
 21
164.528438943644
  0
LINE
  5
42A
100
AcDbEntity
  8
0-0
100
AcDbLine
  6
CONTINUOUS
370
50
 10
259.162945300137
 20
190.528438943644
 11
259.162945300137
 21
180.528438943644
  0
LINE
  5
42B
100
AcDbEntity
  8
0-0
100
AcDbLine
  6
CONTINUOUS
370
50
 10
293.362945300137
 20
180.528438943644
 11
293.362945300137
 21
171.528438943644
  0
LINE
  5
42C
100
AcDbEntity
  8
0-0
100
AcDbLine
  6
CONTINUOUS
370
50
 10
264.962945300137
 20
180.528438943644
 11
264.962945300137
 21
171.528438943644
  0
LINE
  5
42D
100
AcDbEntity
  8
0-0
100
AcDbLine
  6
DASHED
370
30
 10
295.862945300137
 20
171.528438943644
 11
295.862945300137
 21
164.528438943644
  0
LINE
  5
42E
100
AcDbEntity
  8
0-0
100
AcDbLine
  6
DASHED
370
30
 10
295.862945300137
 20
198.352459146179
 11
295.862945300137
 21
180.528438943644
  0
LINE
  5
42F
100
AcDbEntity
  8
0-0
100
AcDbLine
  6
DASHED
370
30
 10
262.462945300137
 20
198.352459146179
 11
262.462945300137
 21
180.528438943644
  0
LINE
  5
430
100
AcDbEntity
  8
0-0
100
AcDbLine
  6
DASHED
370
30
 10
262.462945300137
 20
171.528438943644
 11
262.462945300137
 21
164.528438943644
  0
LINE
  5
431
100
AcDbEntity
  8
0-0
100
AcDbLine
  6
CONTINUOUS
370
30
 10
177.602438305971
 20
198.352459146179
 11
181.352438305971
 21
190.528438943644
  0
LINE
  5
432
100
AcDbEntity
  8
0-0
100
AcDbLine
  6
CONTINUOUS
370
30
 10
177.602438305971
 20
198.352459146179
 11
173.852438305971
 21
190.528438943644
  0
LINE
  5
433
100
AcDbEntity
  8
0-d
100
AcDbLine
  6
CONTINUOUS
370
50
 10
160.591465164903
 20
564.298891743696
 11
178.591465164903
 21
564.298891743696
  0
CIRCLE
  5
434
100
AcDbEntity
  8
0-d
100
AcDbCircle
  6
CONTINUOUS
370
50
 10
166.591465164903
 20
557.798891743696
 40
1.1
  0
LINE
  5
435
100
AcDbEntity
  8
0-d
100
AcDbLine
  6
CONTINUOUS
370
50
 10
174.591465164903
 20
549.698891743696
 11
173.191465164903
 21
548.298891743696
  0
LINE
  5
436
100
AcDbEntity
  8
0-d
100
AcDbLine
  6
CONTINUOUS
370
50
 10
174.591465164903
 20
549.698891743696
 11
175.991465164903
 21
548.298891743696
  0
LINE
  5
437
100
AcDbEntity
  8
0-d
100
AcDbLine
  6
CONTINUOUS
370
50
 10
160.591465164903
 20
548.298891743696
 11
173.191465164903
 21
548.298891743696
  0
LINE
  5
438
100
AcDbEntity
  8
0-d
100
AcDbLine
  6
CONTINUOUS
370
50
 10
175.991465164903
 20
548.298891743696
 11
178.591465164903
 21
548.298891743696
  0
CIRCLE
  5
439
100
AcDbEntity
  8
0-0
100
AcDbCircle
  6
CONTINUOUS
370
50
 10
185.602438305971
 20
176.028438943644
 40
2.5
  0
LINE
  5
43A
100
AcDbEntity
  8
0-0
100
AcDbLine
  6
CONTINUOUS
370
50
 10
247.762945300137
 20
169.778438943644
 11
247.762945300137
 21
182.278438943644
  0
LINE
  5
43B
100
AcDbEntity
  8
0-0
100
AcDbLine
  6
CONTINUOUS
370
50
 10
263.762945300137
 20
171.528438943644
 11
263.762945300137
 21
180.528438943644
  0
LINE
  5
43C
100
AcDbEntity
  8
0-0
100
AcDbLine
  6
CONTINUOUS
370
50
 10
259.162945300137
 20
171.528438943644
 11
263.762945300137
 21
171.528438943644
  0
LINE
  5
43D
100
AcDbEntity
  8
0-0
100
AcDbLine
  6
CONTINUOUS
370
50
 10
259.162945300137
 20
180.528438943644
 11
263.762945300137
 21
180.528438943644
  0
LINE
  5
43E
100
AcDbEntity
  8
0-d
100
AcDbLine
  6
CONTINUOUS
370
13
 10
166.591465164903
 20
560.298891743696
 11
166.591465164903
 21
555.298891743696
  0
LINE
  5
43F
100
AcDbEntity
  8
0-0
100
AcDbLine
  6
CONTINUOUS
370
50
 10
175.602438305971
 20
169.778438943644
 11
189.602438305971
 21
169.778438943644
  0
LINE
  5
440
100
AcDbEntity
  8
0-0
100
AcDbLine
  6
CONTINUOUS
370
50
 10
189.602438305971
 20
182.278438943644
 11
175.602438305971
 21
182.278438943644
  0
LINE
  5
441
100
AcDbEntity
  8
0-0
100
AcDbLine
  6
CONTINUOUS
370
50
 10
191.602438305971
 20
171.778438943644
 11
191.602438305971
 21
180.278438943644
  0
LINE
  5
442
100
AcDbEntity
  8
0-0
100
AcDbLine
  6
CONTINUOUS
370
50
 10
173.602438305971
 20
171.778438943644
 11
173.602438305971
 21
180.278438943644
  0
LINE
  5
443
100
AcDbEntity
  8
0-0
100
AcDbLine
  6
CONTINUOUS
370
50
 10
189.602438305971
 20
182.278438943644
 11
191.602438305971
 21
180.278438943644
  0
LINE
  5
444
100
AcDbEntity
  8
0-0
100
AcDbLine
  6
CONTINUOUS
370
50
 10
175.602438305971
 20
182.278438943644
 11
173.602438305971
 21
180.278438943644
  0
LINE
  5
445
100
AcDbEntity
  8
0-0
100
AcDbLine
  6
CONTINUOUS
370
50
 10
173.602438305971
 20
171.778438943644
 11
175.602438305971
 21
169.778438943644
  0
LINE
  5
446
100
AcDbEntity
  8
0-0
100
AcDbLine
  6
CONTINUOUS
370
50
 10
189.602438305971
 20
169.778438943644
 11
191.602438305971
 21
171.778438943644
  0
LINE
  5
447
100
AcDbEntity
  8
0-0
100
AcDbLine
  6
CONTINUOUS
370
50
 10
259.162945300137
 20
180.528438943644
 11
259.162945300137
 21
182.278438943644
  0
LINE
  5
448
100
AcDbEntity
  8
0-0
100
AcDbLine
  6
CONTINUOUS
370
50
 10
259.162945300137
 20
169.778438943644
 11
259.162945300137
 21
171.528438943644
  0
LINE
  5
449
100
AcDbEntity
  8
0-d
100
AcDbLine
  6
CONTINUOUS
370
50
 10
160.591465164903
 20
552.898891743696
 11
178.591465164903
 21
552.898891743696
  0
LINE
  5
44A
100
AcDbEntity
  8
0-0
100
AcDbLine
  6
CONTINUOUS
370
50
 10
247.762945300137
 20
169.778438943644
 11
259.162945300137
 21
169.778438943644
  0
LINE
  5
44B
100
AcDbEntity
  8
0-0
100
AcDbLine
  6
CONTINUOUS
370
50
 10
247.762945300137
 20
171.778438943644
 11
263.762945300137
 21
171.778438943644
  0
LINE
  5
44C
100
AcDbEntity
  8
0-0
100
AcDbLine
  6
CONTINUOUS
370
50
 10
247.762945300137
 20
180.278438943644
 11
263.762945300137
 21
180.278438943644
  0
LINE
  5
44D
100
AcDbEntity
  8
0-0
100
AcDbLine
  6
CONTINUOUS
370
50
 10
247.762945300137
 20
182.278438943644
 11
259.162945300137
 21
182.278438943644
  0
LINE
  5
44E
100
AcDbEntity
  8
0-0
100
AcDbLine
  6
CONTINUOUS
370
50
 10
175.602438305971
 20
182.278438943644
 11
173.602438305971
 21
180.278438943644
  0
LINE
  5
44F
100
AcDbEntity
  8
0-0
100
AcDbLine
  6
CONTINUOUS
370
50
 10
189.602438305971
 20
182.278438943644
 11
191.602438305971
 21
180.278438943644
  0
LINE
  5
450
100
AcDbEntity
  8
0-0
100
AcDbLine
  6
CONTINUOUS
370
50
 10
191.602438305971
 20
171.778438943644
 11
189.602438305971
 21
169.778438943644
  0
LINE
  5
451
100
AcDbEntity
  8
0-0
100
AcDbLine
  6
CONTINUOUS
370
50
 10
175.602438305971
 20
169.778438943644
 11
173.602438305971
 21
171.778438943644
  0
LINE
  5
452
100
AcDbEntity
  8
0-d
100
AcDbLine
  6
CONTINUOUS
370
50
 10
176.591465164903
 20
564.298891743696
 11
176.591465164903
 21
552.898891743696
  0
LINE
  5
453
100
AcDbEntity
  8
0-d
100
AcDbLine
  6
CONTINUOUS
370
50
 10
178.591465164903
 20
564.298891743696
 11
178.591465164903
 21
548.298891743696
  0
LINE
  5
454
100
AcDbEntity
  8
0-d
100
AcDbLine
  6
CONTINUOUS
370
50
 10
162.591465164903
 20
564.298891743696
 11
162.591465164903
 21
552.898891743696
  0
LINE
  5
455
100
AcDbEntity
  8
0-d
100
AcDbLine
  6
CONTINUOUS
370
50
 10
160.591465164903
 20
564.298891743696
 11
160.591465164903
 21
548.298891743696
  0
LINE
  5
456
100
AcDbEntity
  8
0-0
100
AcDbLine
  6
CONTINUOUS
370
50
 10
310.562945300138
 20
169.778438943644
 11
310.562945300138
 21
182.278438943644
  0
LINE
  5
457
100
AcDbEntity
  8
0-0
100
AcDbLine
  6
CONTINUOUS
370
50
 10
294.562945300138
 20
171.528438943644
 11
294.562945300138
 21
180.528438943644
  0
LINE
  5
458
100
AcDbEntity
  8
0-0
100
AcDbLine
  6
CONTINUOUS
370
50
 10
299.162945300137
 20
171.528438943644
 11
294.562945300138
 21
171.528438943644
  0
LINE
  5
459
100
AcDbEntity
  8
0-0
100
AcDbLine
  6
CONTINUOUS
370
50
 10
299.162945300137
 20
180.528438943644
 11
294.562945300138
 21
180.528438943644
  0
LINE
  5
45A
100
AcDbEntity
  8
0-0
100
AcDbLine
  6
CONTINUOUS
370
50
 10
299.162945300137
 20
169.778438943644
 11
299.162945300137
 21
171.528438943644
  0
LINE
  5
45B
100
AcDbEntity
  8
0-0
100
AcDbLine
  6
CONTINUOUS
370
50
 10
310.562945300138
 20
169.778438943644
 11
299.162945300137
 21
169.778438943644
  0
LINE
  5
45C
100
AcDbEntity
  8
0-0
100
AcDbLine
  6
CONTINUOUS
370
50
 10
310.562945300138
 20
171.778438943644
 11
294.562945300138
 21
171.778438943644
  0
LINE
  5
45D
100
AcDbEntity
  8
0-0
100
AcDbLine
  6
CONTINUOUS
370
50
 10
310.562945300138
 20
180.278438943644
 11
294.562945300138
 21
180.278438943644
  0
LINE
  5
45E
100
AcDbEntity
  8
0-0
100
AcDbLine
  6
CONTINUOUS
370
50
 10
310.562945300138
 20
182.278438943644
 11
299.162945300137
 21
182.278438943644
  0
LINE
  5
45F
100
AcDbEntity
  8
0-0
100
AcDbLine
  6
CONTINUOUS
370
50
 10
190.602438305971
 20
199.028438943644
 11
190.602438305971
 21
181.278438943644
  0
LINE
  5
460
100
AcDbEntity
  8
0-0
100
AcDbLine
  6
CONTINUOUS
370
50
 10
190.602438305971
 20
170.778438943644
 11
190.602438305971
 21
164.528438943644
  0
LINE
  5
461
100
AcDbEntity
  8
0-0
100
AcDbLine
  6
DIVIDE
370
13
 10
191.852438305971
 20
166.028438943644
 11
191.852438305971
 21
180.028438943644
  0
LINE
  5
462
100
AcDbEntity
  8
0-0
100
AcDbLine
  6
DIVIDE
370
13
 10
179.352438305971
 20
180.028438943644
 11
179.352438305971
 21
166.028438943644
  0
LINE
  5
463
100
AcDbEntity
  8
0-0
100
AcDbLine
  6
DIVIDE
370
13
 10
189.852438305971
 20
182.028438943644
 11
181.352438305971
 21
182.028438943644
  0
LINE
  5
464
100
AcDbEntity
  8
0-0
100
AcDbLine
  6
DIVIDE
370
13
 10
189.852438305971
 20
164.028438943644
 11
181.352438305971
 21
164.028438943644
  0
LINE
  5
465
100
AcDbEntity
  8
0-0
100
AcDbLine
  6
DIVIDE
370
13
 10
179.352438305971
 20
180.028438943644
 11
181.352438305971
 21
182.028438943644
  0
LINE
  5
466
100
AcDbEntity
  8
0-0
100
AcDbLine
  6
DIVIDE
370
13
 10
179.352438305971
 20
166.028438943644
 11
181.352438305971
 21
164.028438943644
  0
LINE
  5
467
100
AcDbEntity
  8
0-0
100
AcDbLine
  6
DIVIDE
370
13
 10
189.852438305971
 20
164.028438943644
 11
191.852438305971
 21
166.028438943644
  0
LINE
  5
468
100
AcDbEntity
  8
0-0
100
AcDbLine
  6
DIVIDE
370
13
 10
191.852438305971
 20
180.028438943644
 11
189.852438305971
 21
182.028438943644
  0
LINE
  5
469
100
AcDbEntity
  8
0-0
100
AcDbLine
  6
DIVIDE
370
13
 10
179.352438305971
 20
166.028438943644
 11
181.352438305971
 21
164.028438943644
  0
LINE
  5
46A
100
AcDbEntity
  8
0-0
100
AcDbLine
  6
DIVIDE
370
13
 10
179.352438305971
 20
180.028438943644
 11
181.352438305971
 21
182.028438943644
  0
LINE
  5
46B
100
AcDbEntity
  8
0-0
100
AcDbLine
  6
DIVIDE
370
13
 10
189.852438305971
 20
182.028438943644
 11
191.852438305971
 21
180.028438943644
  0
LINE
  5
46C
100
AcDbEntity
  8
0-0
100
AcDbLine
  6
DIVIDE
370
13
 10
191.852438305971
 20
166.028438943644
 11
189.852438305971
 21
164.028438943644
  0
LINE
  5
46D
100
AcDbEntity
  8
0-0
100
AcDbLine
  6
DIVIDE
370
13
 10
241.762945300137
 20
169.778438943644
 11
241.762945300137
 21
182.278438943644
  0
LINE
  5
46E
100
AcDbEntity
  8
0-0
100
AcDbLine
  6
DIVIDE
370
13
 10
257.762945300137
 20
171.528438943644
 11
257.762945300137
 21
180.528438943644
  0
LINE
  5
46F
100
AcDbEntity
  8
0-0
100
AcDbLine
  6
DIVIDE
370
13
 10
253.162945300137
 20
171.528438943644
 11
257.762945300137
 21
171.528438943644
  0
LINE
  5
470
100
AcDbEntity
  8
0-0
100
AcDbLine
  6
DIVIDE
370
13
 10
253.162945300137
 20
180.528438943644
 11
257.762945300137
 21
180.528438943644
  0
LINE
  5
471
100
AcDbEntity
  8
0-0
100
AcDbLine
  6
DIVIDE
370
13
 10
253.162945300137
 20
180.528438943644
 11
253.162945300137
 21
182.278438943644
  0
LINE
  5
472
100
AcDbEntity
  8
0-0
100
AcDbLine
  6
DIVIDE
370
13
 10
253.162945300137
 20
169.778438943644
 11
253.162945300137
 21
171.528438943644
  0
LINE
  5
473
100
AcDbEntity
  8
0-0
100
AcDbLine
  6
DIVIDE
370
13
 10
241.762945300137
 20
169.778438943644
 11
253.162945300137
 21
169.778438943644
  0
LINE
  5
474
100
AcDbEntity
  8
0-0
100
AcDbLine
  6
DIVIDE
370
13
 10
241.762945300137
 20
182.278438943644
 11
253.162945300137
 21
182.278438943644
  0
LINE
  5
475
100
AcDbEntity
  8
0-0
100
AcDbLine
  6
DIVIDE
370
13
 10
316.562945300138
 20
169.778438943644
 11
316.562945300138
 21
182.278438943644
  0
LINE
  5
476
100
AcDbEntity
  8
0-0
100
AcDbLine
  6
DIVIDE
370
13
 10
300.562945300138
 20
171.528438943644
 11
300.562945300138
 21
180.528438943644
  0
LINE
  5
477
100
AcDbEntity
  8
0-0
100
AcDbLine
  6
DIVIDE
370
13
 10
305.162945300137
 20
171.528438943644
 11
300.562945300138
 21
171.528438943644
  0
LINE
  5
478
100
AcDbEntity
  8
0-0
100
AcDbLine
  6
DIVIDE
370
13
 10
305.162945300137
 20
180.528438943644
 11
300.562945300138
 21
180.528438943644
  0
LINE
  5
479
100
AcDbEntity
  8
0-0
100
AcDbLine
  6
DIVIDE
370
13
 10
305.162945300137
 20
180.528438943644
 11
305.162945300137
 21
182.278438943644
  0
LINE
  5
47A
100
AcDbEntity
  8
0-0
100
AcDbLine
  6
DIVIDE
370
13
 10
305.162945300137
 20
169.778438943644
 11
305.162945300137
 21
171.528438943644
  0
LINE
  5
47B
100
AcDbEntity
  8
0-0
100
AcDbLine
  6
DIVIDE
370
13
 10
316.562945300138
 20
169.778438943644
 11
305.162945300137
 21
169.778438943644
  0
LINE
  5
47C
100
AcDbEntity
  8
0-0
100
AcDbLine
  6
DIVIDE
370
13
 10
316.562945300138
 20
182.278438943644
 11
305.162945300137
 21
182.278438943644
  0
ARC
  5
47D
100
AcDbEntity
  8
0-0
100
AcDbCircle
  6
DIVIDE
370
13
 10
185.602438305971
 20
176.028438943644
 40
12.730377056474
100
AcDbArc
 50
160.497551493338
 51
-70.4975514933378
  0
ENDSEC
  0
SECTION
  2
OBJECTS
  0
DICTIONARY
  5
47E
100
AcDbDictionary
  3
ACAD_GROUP
350
47F
  3
ACAD_MLINESTYLE
350
480
  0
DICTIONARY
  5
47F
102
{ACAD_REACTORS
330
47E
102
}
100
AcDbDictionary
  0
DICTIONARY
  5
480
102
{ACAD_REACTORS
330
47E
102
}
100
AcDbDictionary
  3
STANDARD
350
481
  0
MLINESTYLE
  5
481
102
{ACAD_REACTORS
330
480
102
}
100
AcDbMlineStyle
  2
Standard
 70
     0
  3

 62
     0
 51
90.0
 52
90.0
 71
     2
 49
0.5
 62
   256
  6
ByLayer
 49
-0.5
 62
   256
  6
ByLayer
  0
ENDSEC
  0
EOF
