999
Outputted By AR_CAD Ver.1.7.0
  0
SECTION
  2
HEADER
  9
$ACADVER
  1
AC1014
  9
$DWGCODEPAGE
  3
ANSI_932
  9
$EXTMIN
 10
0
 20
0
  9
$EXTMAX
 10
297
 20
210
  9
$INSBASE
 10
0.0
 20
0.0
 30
0.0
  9
$HANDLING
 70
     1
  9
$HANDSEED
  5
59C
  9
$LTSCALE
 40
1
  0
ENDSEC
  0
SECTION
  2
TABLES
  0
TABLE
  2
VPORT
  5
1
100
AcDbSymbolTable
 70
     1
  0
VPORT
  5
30
100
AcDbSymbolTableRecord
100
AcDbViewportTableRecord
  2
*ACTIVE
 70
     0
 10
0.0
 20
0.0
 11
1.0
 21
1.0
 12
210.0
 22
148.5
 13
0.0
 23
0.0
 14
10.0
 24
10.0
 15
10.0
 25
10.0
 16
0.0
 26
0.0
 36
1.0
 17
0.0
 27
0.0
 37
0.0
 40
302.94
 41
1.333333
 42
50.0
 43
0.0
 44
0.0
 50
0.0
 51
0.0
 71
     0
 72
   100
 73
     1
 74
     1
 75
     0
 76
     0
 77
     0
 78
     0
  0
ENDTAB
  0
TABLE
  2
LTYPE
  5
2
100
AcDbSymbolTable
 70
     68
  0
LTYPE
  5
31
100
AcDbSymbolTableRecord
100
AcDbLinetypeTableRecord
  2
BYBLOCK
 70
    64
 3

 72
    65
 73
    0
 40
    0
  0
LTYPE
  5
32
100
AcDbSymbolTableRecord
100
AcDbLinetypeTableRecord
  2
BYLAYER
 70
    64
 3

 72
    65
 73
    0
 40
    0
  0
LTYPE
  5
33
100
AcDbSymbolTableRecord
100
AcDbLinetypeTableRecord
  2
CONTINUOUS
 70
    64
 3
CONTINUOUS
 72
    65
 73
    0
 40
    0
  0
LTYPE
  5
34
100
AcDbSymbolTableRecord
100
AcDbLinetypeTableRecord
  2
DASHED
 70
    64
 3

 72
    65
 73
    2
 40
    0.75
 49
    0.5
 74
    0
 49
    -0.25
 74
    0
  0
LTYPE
  5
35
100
AcDbSymbolTableRecord
100
AcDbLinetypeTableRecord
  2
DOT
 70
    64
 3

 72
    65
 73
    2
 40
    0.5
 49
    0.25
 74
    0
 49
    -0.25
 74
    0
  0
LTYPE
  5
36
100
AcDbSymbolTableRecord
100
AcDbLinetypeTableRecord
  2
DASHDOT
 70
    64
 3

 72
    65
 73
    4
 40
    3.5
 49
    1.84147386461011
 74
    0
 49
    -0.552842045129963
 74
    0
 49
    0.552842045129963
 74
    0
 49
    -0.552842045129963
 74
    0
  0
LTYPE
  5
37
100
AcDbSymbolTableRecord
100
AcDbLinetypeTableRecord
  2
DIVIDE
 70
    64
 3

 72
    65
 73
    6
 40
    3.5
 49
    1.4
 74
    0
 49
    -0.42
 74
    0
 49
    0.42
 74
    0
 49
    -0.42
 74
    0
 49
    0.42
 74
    0
 49
    -0.42
 74
    0
  0
LTYPE
  5
38
100
AcDbSymbolTableRecord
100
AcDbLinetypeTableRecord
  2
HIDDEN
 70
    64
 3

 72
    65
 73
    2
 40
    4
 49
    2
 74
    0
 49
    -2
 74
    0
  0
LTYPE
  5
39
100
AcDbSymbolTableRecord
100
AcDbLinetypeTableRecord
  2

 70
    64
 3

 72
    65
 73
    4
 40
    2
 49
    1.25
 74
    0
 49
    -0.25
 74
    0
 49
    0.25
 74
    0
 49
    -0.25
 74
    0
  0
LTYPE
  5
3A
100
AcDbSymbolTableRecord
100
AcDbLinetypeTableRecord
  2

 70
    64
 3

 72
    65
 73
    6
 40
    2.5
 49
    1.25
 74
    0
 49
    -0.25
 74
    0
 49
    0.25
 74
    0
 49
    -0.25
 74
    0
 49
    0.25
 74
    0
 49
    -0.25
 74
    0
  0
LTYPE
  5
3B
100
AcDbSymbolTableRecord
100
AcDbLinetypeTableRecord
  2

 70
    64
 3

 72
    65
 73
    6
 40
    1.75
 49
    0.5
 74
    0
 49
    -0.25
 74
    0
 49
    0.5
 74
    0
 49
    -0.25
 74
    0
 49
    0
 74
    0
 49
    -0.25
 74
    0
  0
LTYPE
  5
3C
100
AcDbSymbolTableRecord
100
AcDbLinetypeTableRecord
  2

 70
    64
 3

 72
    65
 73
    2
 40
    4
 49
    3
 74
    0
 49
    -1
 74
    0
  0
LTYPE
  5
3D
100
AcDbSymbolTableRecord
100
AcDbLinetypeTableRecord
  2

 70
    64
 3

 72
    65
 73
    3
 40
    4.5
 49
    1.5
 74
    0
 49
    -1.5
 74
    0
 49
    1.5
 74
    0
  0
LTYPE
  5
3E
100
AcDbSymbolTableRecord
100
AcDbLinetypeTableRecord
  2

 70
    64
 3

 72
    65
 73
    5
 40
    30
 49
    12
 74
    0
 49
    -1.5
 74
    0
 49
    3
 74
    0
 49
    -1.5
 74
    0
 49
    12
 74
    0
  0
LTYPE
  5
3F
100
AcDbSymbolTableRecord
100
AcDbLinetypeTableRecord
  2

 70
    64
 3

 72
    65
 73
    2
 40
    0.157
 49
    0.098
 74
    0
 49
    -0.059
 74
    0
  0
LTYPE
  5
40
100
AcDbSymbolTableRecord
100
AcDbLinetypeTableRecord
  2

 70
    64
 3

 72
    65
 73
    2
 40
    0.393
 49
    0.236
 74
    0
 49
    -0.157
 74
    0
  0
LTYPE
  5
41
100
AcDbSymbolTableRecord
100
AcDbLinetypeTableRecord
  2

 70
    64
 3

 72
    65
 73
    2
 40
    0.787
 49
    0.472
 74
    0
 49
    -0.315
 74
    0
  0
LTYPE
  5
42
100
AcDbSymbolTableRecord
100
AcDbLinetypeTableRecord
  2

 70
    64
 3

 72
    65
 73
    4
 40
    0.216
 49
    0.118
 74
    0
 49
    -0.039
 74
    0
 49
    0.02
 74
    0
 49
    -0.039
 74
    0
  0
LTYPE
  5
43
100
AcDbSymbolTableRecord
100
AcDbLinetypeTableRecord
  2

 70
    64
 3

 72
    65
 73
    4
 40
    0.433
 49
    0.236
 74
    0
 49
    -0.079
 74
    0
 49
    0.039
 74
    0
 49
    -0.079
 74
    0
  0
LTYPE
  5
44
100
AcDbSymbolTableRecord
100
AcDbLinetypeTableRecord
  2

 70
    64
 3

 72
    65
 73
    4
 40
    0.906
 49
    0.591
 74
    0
 49
    -0.118
 74
    0
 49
    0.079
 74
    0
 49
    -0.118
 74
    0
  0
LTYPE
  5
45
100
AcDbSymbolTableRecord
100
AcDbLinetypeTableRecord
  2

 70
    64
 3

 72
    65
 73
    6
 40
    0.551
 49
    0.236
 74
    0
 49
    -0.079
 74
    0
 49
    0.039
 74
    0
 49
    -0.079
 74
    0
 49
    0.039
 74
    0
 49
    -0.079
 74
    0
  0
LTYPE
  5
46
100
AcDbSymbolTableRecord
100
AcDbLinetypeTableRecord
  2

 70
    64
 3

 72
    65
 73
    6
 40
    0.875
 49
    0.25
 74
    0
 49
    -0.125
 74
    0
 49
    0.25
 74
    0
 49
    -0.125
 74
    0
 49
    0
 74
    0
 49
    -0.125
 74
    0
  0
LTYPE
  5
47
100
AcDbSymbolTableRecord
100
AcDbLinetypeTableRecord
  2

 70
    64
 3

 72
    65
 73
    6
 40
    3.5
 49
    1
 74
    0
 49
    -0.5
 74
    0
 49
    1
 74
    0
 49
    -0.5
 74
    0
 49
    0
 74
    0
 49
    -0.5
 74
    0
  0
LTYPE
  5
48
100
AcDbSymbolTableRecord
100
AcDbLinetypeTableRecord
  2

 70
    64
 3

 72
    65
 73
    4
 40
    1.125
 49
    0.75
 74
    0
 49
    -0.125
 74
    0
 49
    0.125
 74
    0
 49
    -0.125
 74
    0
  0
LTYPE
  5
49
100
AcDbSymbolTableRecord
100
AcDbLinetypeTableRecord
  2

 70
    64
 3

 72
    65
 73
    4
 40
    4
 49
    2.5
 74
    0
 49
    -0.5
 74
    0
 49
    0.5
 74
    0
 49
    -0.5
 74
    0
  0
LTYPE
  5
4A
100
AcDbSymbolTableRecord
100
AcDbLinetypeTableRecord
  2

 70
    64
 3

 72
    65
 73
    4
 40
    0.5
 49
    0.25
 74
    0
 49
    -0.125
 74
    0
 49
    0
 74
    0
 49
    -0.125
 74
    0
  0
LTYPE
  5
4B
100
AcDbSymbolTableRecord
100
AcDbLinetypeTableRecord
  2

 70
    64
 3

 72
    65
 73
    4
 40
    2
 49
    1
 74
    0
 49
    -0.5
 74
    0
 49
    0
 74
    0
 49
    -0.5
 74
    0
  0
LTYPE
  5
4C
100
AcDbSymbolTableRecord
100
AcDbLinetypeTableRecord
  2

 70
    64
 3

 72
    65
 73
    2
 40
    0.375
 49
    0.25
 74
    0
 49
    -0.125
 74
    0
  0
LTYPE
  5
4D
100
AcDbSymbolTableRecord
100
AcDbLinetypeTableRecord
  2

 70
    64
 3

 72
    65
 73
    2
 40
    1.5
 49
    1
 74
    0
 49
    -0.5
 74
    0
  0
LTYPE
  5
4E
100
AcDbSymbolTableRecord
100
AcDbLinetypeTableRecord
  2

 70
    64
 3

 72
    65
 73
    6
 40
    0.625
 49
    0.25
 74
    0
 49
    -0.125
 74
    0
 49
    0
 74
    0
 49
    -0.125
 74
    0
 49
    0
 74
    0
 49
    -0.125
 74
    0
  0
LTYPE
  5
4F
100
AcDbSymbolTableRecord
100
AcDbLinetypeTableRecord
  2

 70
    64
 3

 72
    65
 73
    6
 40
    2.5
 49
    1
 74
    0
 49
    -0.5
 74
    0
 49
    0
 74
    0
 49
    -0.5
 74
    0
 49
    0
 74
    0
 49
    -0.5
 74
    0
  0
LTYPE
  5
50
100
AcDbSymbolTableRecord
100
AcDbLinetypeTableRecord
  2

 70
    64
 3

 72
    65
 73
    2
 40
    0.125
 49
    0
 74
    0
 49
    -0.125
 74
    0
  0
LTYPE
  5
51
100
AcDbSymbolTableRecord
100
AcDbLinetypeTableRecord
  2

 70
    64
 3

 72
    65
 73
    2
 40
    0.5
 49
    0
 74
    0
 49
    -0.5
 74
    0
  0
LTYPE
  5
52
100
AcDbSymbolTableRecord
100
AcDbLinetypeTableRecord
  2

 70
    64
 3

 72
    65
 73
    2
 40
    0.188
 49
    0.126
 74
    0
 49
    -0.062
 74
    0
  0
LTYPE
  5
53
100
AcDbSymbolTableRecord
100
AcDbLinetypeTableRecord
  2

 70
    64
 3

 72
    65
 73
    2
 40
    0.75
 49
    0.5
 74
    0
 49
    -0.25
 74
    0
  0
LTYPE
  5
54
100
AcDbSymbolTableRecord
100
AcDbLinetypeTableRecord
  2

 70
    64
 3

 72
    65
 73
    6
 40
    1.25
 49
    0.625
 74
    0
 49
    -0.125
 74
    0
 49
    0.125
 74
    0
 49
    -0.125
 74
    0
 49
    0.125
 74
    0
 49
    -0.125
 74
    0
  0
LTYPE
  5
55
100
AcDbSymbolTableRecord
100
AcDbLinetypeTableRecord
  2

 70
    64
 3

 72
    65
 73
    6
 40
    5
 49
    2.5
 74
    0
 49
    -0.5
 74
    0
 49
    0.5
 74
    0
 49
    -0.5
 74
    0
 49
    0.5
 74
    0
 49
    -0.5
 74
    0
  0
LTYPE
  5
56
100
AcDbSymbolTableRecord
100
AcDbLinetypeTableRecord
  2

 70
    64
 3

 72
    65
 73
    5
 40
    2.5
 49
    0.5
 74
    0
 49
    -0.5
 74
    0
 49
    0.5
 74
    0
 49
    -0.5
 74
    0
 49
    0.5
 74
    0
  0
LTYPE
  5
57
100
AcDbSymbolTableRecord
100
AcDbLinetypeTableRecord
  2

 70
    64
 3

 72
    65
 73
    0
 40
    0
  0
LTYPE
  5
58
100
AcDbSymbolTableRecord
100
AcDbLinetypeTableRecord
  2

 70
    64
 3

 72
    65
 73
    0
 40
    0
  0
LTYPE
  5
59
100
AcDbSymbolTableRecord
100
AcDbLinetypeTableRecord
  2

 70
    64
 3

 72
    65
 73
    0
 40
    0
  0
LTYPE
  5
5A
100
AcDbSymbolTableRecord
100
AcDbLinetypeTableRecord
  2

 70
    64
 3

 72
    65
 73
    2
 40
    0.375
 49
    0.25
 74
    0
 49
    -0.125
 74
    0
  0
LTYPE
  5
5B
100
AcDbSymbolTableRecord
100
AcDbLinetypeTableRecord
  2

 70
    64
 3

 72
    65
 73
    2
 40
    0.5
 49
    0.375
 74
    0
 49
    -0.125
 74
    0
  0
LTYPE
  5
5C
100
AcDbSymbolTableRecord
100
AcDbLinetypeTableRecord
  2

 70
    64
 3

 72
    65
 73
    4
 40
    2
 49
    1.25
 74
    0
 49
    -0.25
 74
    0
 49
    0.25
 74
    0
 49
    -0.25
 74
    0
  0
LTYPE
  5
5D
100
AcDbSymbolTableRecord
100
AcDbLinetypeTableRecord
  2

 70
    64
 3

 72
    65
 73
    6
 40
    2.5
 49
    1.25
 74
    0
 49
    -0.25
 74
    0
 49
    0.25
 74
    0
 49
    -0.25
 74
    0
 49
    0.25
 74
    0
 49
    -0.25
 74
    0
  0
LTYPE
  5
5E
100
AcDbSymbolTableRecord
100
AcDbLinetypeTableRecord
  2

 70
    64
 3

 72
    65
 73
    4
 40
    1
 49
    0.5
 74
    0
 49
    -0.25
 74
    0
 49
    0
 74
    0
 49
    -0.25
 74
    0
  0
LTYPE
  5
5F
100
AcDbSymbolTableRecord
100
AcDbLinetypeTableRecord
  2

 70
    64
 3

 72
    65
 73
    0
 40
    0
  0
LTYPE
  5
60
100
AcDbSymbolTableRecord
100
AcDbLinetypeTableRecord
  2

 70
    64
 3

 72
    65
 73
    2
 40
    0.075
 49
    0.04
 74
    0
 49
    -0.035
 74
    0
  0
LTYPE
  5
61
100
AcDbSymbolTableRecord
100
AcDbLinetypeTableRecord
  2

 70
    64
 3

 72
    65
 73
    2
 40
    0.15
 49
    0.11
 74
    0
 49
    -0.04
 74
    0
  0
LTYPE
  5
62
100
AcDbSymbolTableRecord
100
AcDbLinetypeTableRecord
  2

 70
    64
 3

 72
    65
 73
    2
 40
    0.2
 49
    0.15
 74
    0
 49
    -0.05
 74
    0
  0
LTYPE
  5
63
100
AcDbSymbolTableRecord
100
AcDbLinetypeTableRecord
  2

 70
    64
 3

 72
    65
 73
    2
 40
    0.36
 49
    0.28
 74
    0
 49
    -0.08
 74
    0
  0
LTYPE
  5
64
100
AcDbSymbolTableRecord
100
AcDbLinetypeTableRecord
  2

 70
    64
 3

 72
    65
 73
    2
 40
    0.47
 49
    0.39
 74
    0
 49
    -0.08
 74
    0
  0
LTYPE
  5
65
100
AcDbSymbolTableRecord
100
AcDbLinetypeTableRecord
  2

 70
    64
 3

 72
    65
 73
    2
 40
    0.9
 49
    0.81
 74
    0
 49
    -0.09
 74
    0
  0
LTYPE
  5
66
100
AcDbSymbolTableRecord
100
AcDbLinetypeTableRecord
  2

 70
    64
 3

 72
    65
 73
    6
 40
    1
 49
    0.6
 74
    0
 49
    -0.08
 74
    0
 49
    0.08
 74
    0
 49
    -0.08
 74
    0
 49
    0.08
 74
    0
 49
    -0.08
 74
    0
  0
LTYPE
  5
67
100
AcDbSymbolTableRecord
100
AcDbLinetypeTableRecord
  2

 70
    64
 3

 72
    65
 73
    6
 40
    1.08
 49
    0.6
 74
    0
 49
    -0.08
 74
    0
 49
    0.12
 74
    0
 49
    -0.08
 74
    0
 49
    0.12
 74
    0
 49
    -0.08
 74
    0
  0
LTYPE
  5
68
100
AcDbSymbolTableRecord
100
AcDbLinetypeTableRecord
  2

 70
    64
 3

 72
    65
 73
    6
 40
    2
 49
    1.44
 74
    0
 49
    -0.08
 74
    0
 49
    0.16
 74
    0
 49
    -0.08
 74
    0
 49
    0.16
 74
    0
 49
    -0.08
 74
    0
  0
LTYPE
  5
69
100
AcDbSymbolTableRecord
100
AcDbLinetypeTableRecord
  2

 70
    64
 3

 72
    65
 73
    4
 40
    0.7
 49
    0.45
 74
    0
 49
    -0.06
 74
    0
 49
    0.13
 74
    0
 49
    -0.06
 74
    0
  0
LTYPE
  5
6A
100
AcDbSymbolTableRecord
100
AcDbLinetypeTableRecord
  2

 70
    64
 3

 72
    65
 73
    4
 40
    1.2
 49
    0.97741935483871
 74
    0
 49
    -0.0580645161290322
 74
    0
 49
    0.106451612903226
 74
    0
 49
    -0.0580645161290322
 74
    0
  0
LTYPE
  5
6B
100
AcDbSymbolTableRecord
100
AcDbLinetypeTableRecord
  2

 70
    64
 3

 72
    65
 73
    4
 40
    1.2
 49
    0.98
 74
    0
 49
    -0.06
 74
    0
 49
    0.1
 74
    0
 49
    -0.06
 74
    0
  0
LTYPE
  5
6C
100
AcDbSymbolTableRecord
100
AcDbLinetypeTableRecord
  2

 70
    64
 3

 72
    65
 73
    4
 40
    2.2
 49
    1.93
 74
    0
 49
    -0.07
 74
    0
 49
    0.13
 74
    0
 49
    -0.07
 74
    0
  0
LTYPE
  5
6D
100
AcDbSymbolTableRecord
100
AcDbLinetypeTableRecord
  2

 70
    64
 3

 72
    65
 73
    4
 40
    2.2
 49
    1.88
 74
    0
 49
    -0.07
 74
    0
 49
    0.18
 74
    0
 49
    -0.07
 74
    0
  0
LTYPE
  5
6E
100
AcDbSymbolTableRecord
100
AcDbLinetypeTableRecord
  2

 70
    64
 3

 72
    65
 73
    4
 40
    2.7
 49
    0.25
 74
    0
 49
    -0.2
 74
    0
 49
    0.25
 74
    0
 49
    -2
 74
    0
  0
LTYPE
  5
6F
100
AcDbSymbolTableRecord
100
AcDbLinetypeTableRecord
  2

 70
    64
 3

 72
    65
 73
    4
 40
    3.71
 49
    0.423070175438596
 74
    0
 49
    -0.260350877192982
 74
    0
 49
    0.423070175438596
 74
    0
 49
    -2.60350877192982
 74
    0
  0
LTYPE
  5
70
100
AcDbSymbolTableRecord
100
AcDbLinetypeTableRecord
  2

 70
    64
 3

 72
    65
 73
    2
 40
    0.25
 49
    0
 74
    0
 49
    -0.25
 74
    0
  0
LTYPE
  5
71
100
AcDbSymbolTableRecord
100
AcDbLinetypeTableRecord
  2

 70
    64
 3

 72
    65
 73
    6
 40
    2
 49
    1.05882352941176
 74
    0
 49
    -0.588235294117647
 74
    0
 49
    0.117647058823529
 74
    0
 49
    -0.0588235294117647
 74
    0
 49
    0.117647058823529
 74
    0
 49
    -0.0588235294117647
 74
    0
  0
LTYPE
  5
72
100
AcDbSymbolTableRecord
100
AcDbLinetypeTableRecord
  2

 70
    64
 3

 72
    65
 73
    0
 40
    0
  0
LTYPE
  5
73
100
AcDbSymbolTableRecord
100
AcDbLinetypeTableRecord
  2
CNS_SOLID
 70
    64
 3

 72
    65
 73
    0
 40
    0
  0
LTYPE
  5
74
100
AcDbSymbolTableRecord
100
AcDbLinetypeTableRecord
  2
CNS_DASHED
 70
    64
 3

 72
    65
 73
    2
 40
    2
 49
    1
 74
    0
 49
    -1
 74
    0
  0
LTYPE
  5
75
100
AcDbSymbolTableRecord
100
AcDbLinetypeTableRecord
  2
CNS_CENTER
 70
    64
 3

 72
    65
 73
    4
 40
    2
 49
    0.6
 74
    0
 49
    -0.666666666666667
 74
    0
 49
    0.0666666666666667
 74
    0
 49
    -0.666666666666667
 74
    0
  0
ENDTAB
  0
TABLE
  2
LAYER
  5
3
100
AcDbSymbolTable
 70
   257
  0
LAYER
  5
76
100
AcDbSymbolTableRecord
100
AcDbLayerTableRecord
  2
0-0
 70
    0
 62
250
  6
CONTINUOUS
  0
LAYER
  5
77
100
AcDbSymbolTableRecord
100
AcDbLayerTableRecord
  2
0-1
 70
    0
 62
3
  6
CONTINUOUS
  0
LAYER
  5
78
100
AcDbSymbolTableRecord
100
AcDbLayerTableRecord
  2
0-2
 70
    0
 62
9
  6
CONTINUOUS
  0
LAYER
  5
79
100
AcDbSymbolTableRecord
100
AcDbLayerTableRecord
  2
0-3
 70
    0
 62
250
  6
CONTINUOUS
  0
LAYER
  5
7A
100
AcDbSymbolTableRecord
100
AcDbLayerTableRecord
  2
0-4
 70
    0
 62
6
  6
CONTINUOUS
  0
LAYER
  5
7B
100
AcDbSymbolTableRecord
100
AcDbLayerTableRecord
  2
0-5
 70
    0
 62
1
  6
CONTINUOUS
  0
LAYER
  5
7C
100
AcDbSymbolTableRecord
100
AcDbLayerTableRecord
  2
0-6
 70
    0
 62
7
  6
CONTINUOUS
  0
LAYER
  5
7D
100
AcDbSymbolTableRecord
100
AcDbLayerTableRecord
  2
0-7
 70
    0
 62
51
  6
CONTINUOUS
  0
LAYER
  5
7E
100
AcDbSymbolTableRecord
100
AcDbLayerTableRecord
  2
0-8
 70
    0
 62
61
  6
CONTINUOUS
  0
LAYER
  5
7F
100
AcDbSymbolTableRecord
100
AcDbLayerTableRecord
  2
0-9
 70
    0
 62
111
  6
CONTINUOUS
  0
LAYER
  5
80
100
AcDbSymbolTableRecord
100
AcDbLayerTableRecord
  2
0-a
 70
    0
 62
91
  6
CONTINUOUS
  0
LAYER
  5
81
100
AcDbSymbolTableRecord
100
AcDbLayerTableRecord
  2
0-b
 70
    0
 62
131
  6
CONTINUOUS
  0
LAYER
  5
82
100
AcDbSymbolTableRecord
100
AcDbLayerTableRecord
  2
0-c
 70
    0
 62
161
  6
CONTINUOUS
  0
LAYER
  5
83
100
AcDbSymbolTableRecord
100
AcDbLayerTableRecord
  2
0-d
 70
    0
 62
5
  6
CONTINUOUS
  0
LAYER
  5
84
100
AcDbSymbolTableRecord
100
AcDbLayerTableRecord
  2
0-e
 70
    0
 62
7
  6
CONTINUOUS
  0
LAYER
  5
85
100
AcDbSymbolTableRecord
100
AcDbLayerTableRecord
  2
0-f
 70
    0
 62
11
  6
CONTINUOUS
  0
LAYER
  5
86
100
AcDbSymbolTableRecord
100
AcDbLayerTableRecord
  2
1-0
 70
    0
 62
250
  6
CONTINUOUS
  0
LAYER
  5
87
100
AcDbSymbolTableRecord
100
AcDbLayerTableRecord
  2
1-1
 70
    0
 62
70
  6
CONTINUOUS
  0
LAYER
  5
88
100
AcDbSymbolTableRecord
100
AcDbLayerTableRecord
  2
1-2
 70
    0
 62
211
  6
CONTINUOUS
  0
LAYER
  5
89
100
AcDbSymbolTableRecord
100
AcDbLayerTableRecord
  2
1-3
 70
    0
 62
137
  6
CONTINUOUS
  0
LAYER
  5
8A
100
AcDbSymbolTableRecord
100
AcDbLayerTableRecord
  2
1-4
 70
    0
 62
4
  6
CONTINUOUS
  0
LAYER
  5
8B
100
AcDbSymbolTableRecord
100
AcDbLayerTableRecord
  2
1-5
 70
    0
 62
131
  6
CONTINUOUS
  0
LAYER
  5
8C
100
AcDbSymbolTableRecord
100
AcDbLayerTableRecord
  2
1-6
 70
    0
 62
4
  6
CONTINUOUS
  0
LAYER
  5
8D
100
AcDbSymbolTableRecord
100
AcDbLayerTableRecord
  2
1-7
 70
    0
 62
4
  6
CONTINUOUS
  0
LAYER
  5
8E
100
AcDbSymbolTableRecord
100
AcDbLayerTableRecord
  2
1-8
 70
    0
 62
250
  6
CONTINUOUS
  0
LAYER
  5
8F
100
AcDbSymbolTableRecord
100
AcDbLayerTableRecord
  2
1-9
 70
    0
 62
250
  6
CONTINUOUS
  0
LAYER
  5
90
100
AcDbSymbolTableRecord
100
AcDbLayerTableRecord
  2
1-a
 70
    0
 62
250
  6
CONTINUOUS
  0
LAYER
  5
91
100
AcDbSymbolTableRecord
100
AcDbLayerTableRecord
  2
1-b
 70
    0
 62
250
  6
CONTINUOUS
  0
LAYER
  5
92
100
AcDbSymbolTableRecord
100
AcDbLayerTableRecord
  2
1-c
 70
    0
 62
250
  6
CONTINUOUS
  0
LAYER
  5
93
100
AcDbSymbolTableRecord
100
AcDbLayerTableRecord
  2
1-d
 70
    0
 62
250
  6
CONTINUOUS
  0
LAYER
  5
94
100
AcDbSymbolTableRecord
100
AcDbLayerTableRecord
  2
1-e
 70
    0
 62
250
  6
CONTINUOUS
  0
LAYER
  5
95
100
AcDbSymbolTableRecord
100
AcDbLayerTableRecord
  2
1-f
 70
    0
 62
250
  6
CONTINUOUS
  0
LAYER
  5
96
100
AcDbSymbolTableRecord
100
AcDbLayerTableRecord
  2
2-0
 70
    0
 62
250
  6
CONTINUOUS
  0
LAYER
  5
97
100
AcDbSymbolTableRecord
100
AcDbLayerTableRecord
  2
2-1
 70
    0
 62
250
  6
CONTINUOUS
  0
LAYER
  5
98
100
AcDbSymbolTableRecord
100
AcDbLayerTableRecord
  2
2-2
 70
    0
 62
250
  6
CONTINUOUS
  0
LAYER
  5
99
100
AcDbSymbolTableRecord
100
AcDbLayerTableRecord
  2
2-3
 70
    0
 62
250
  6
CONTINUOUS
  0
LAYER
  5
9A
100
AcDbSymbolTableRecord
100
AcDbLayerTableRecord
  2
2-4
 70
    0
 62
250
  6
CONTINUOUS
  0
LAYER
  5
9B
100
AcDbSymbolTableRecord
100
AcDbLayerTableRecord
  2
2-5
 70
    0
 62
250
  6
CONTINUOUS
  0
LAYER
  5
9C
100
AcDbSymbolTableRecord
100
AcDbLayerTableRecord
  2
2-6
 70
    0
 62
250
  6
CONTINUOUS
  0
LAYER
  5
9D
100
AcDbSymbolTableRecord
100
AcDbLayerTableRecord
  2
2-7
 70
    0
 62
250
  6
CONTINUOUS
  0
LAYER
  5
9E
100
AcDbSymbolTableRecord
100
AcDbLayerTableRecord
  2
2-8
 70
    0
 62
250
  6
CONTINUOUS
  0
LAYER
  5
9F
100
AcDbSymbolTableRecord
100
AcDbLayerTableRecord
  2
2-9
 70
    0
 62
250
  6
CONTINUOUS
  0
LAYER
  5
A0
100
AcDbSymbolTableRecord
100
AcDbLayerTableRecord
  2
2-a
 70
    0
 62
250
  6
CONTINUOUS
  0
LAYER
  5
A1
100
AcDbSymbolTableRecord
100
AcDbLayerTableRecord
  2
2-b
 70
    0
 62
250
  6
CONTINUOUS
  0
LAYER
  5
A2
100
AcDbSymbolTableRecord
100
AcDbLayerTableRecord
  2
2-c
 70
    0
 62
250
  6
CONTINUOUS
  0
LAYER
  5
A3
100
AcDbSymbolTableRecord
100
AcDbLayerTableRecord
  2
2-d
 70
    0
 62
250
  6
CONTINUOUS
  0
LAYER
  5
A4
100
AcDbSymbolTableRecord
100
AcDbLayerTableRecord
  2
2-e
 70
    0
 62
250
  6
CONTINUOUS
  0
LAYER
  5
A5
100
AcDbSymbolTableRecord
100
AcDbLayerTableRecord
  2
2-f
 70
    0
 62
250
  6
CONTINUOUS
  0
LAYER
  5
A6
100
AcDbSymbolTableRecord
100
AcDbLayerTableRecord
  2
3-0
 70
    0
 62
250
  6
CONTINUOUS
  0
LAYER
  5
A7
100
AcDbSymbolTableRecord
100
AcDbLayerTableRecord
  2
3-1
 70
    0
 62
250
  6
CONTINUOUS
  0
LAYER
  5
A8
100
AcDbSymbolTableRecord
100
AcDbLayerTableRecord
  2
3-2
 70
    0
 62
250
  6
CONTINUOUS
  0
LAYER
  5
A9
100
AcDbSymbolTableRecord
100
AcDbLayerTableRecord
  2
3-3
 70
    0
 62
250
  6
CONTINUOUS
  0
LAYER
  5
AA
100
AcDbSymbolTableRecord
100
AcDbLayerTableRecord
  2
3-4
 70
    0
 62
250
  6
CONTINUOUS
  0
LAYER
  5
AB
100
AcDbSymbolTableRecord
100
AcDbLayerTableRecord
  2
3-5
 70
    0
 62
250
  6
CONTINUOUS
  0
LAYER
  5
AC
100
AcDbSymbolTableRecord
100
AcDbLayerTableRecord
  2
3-6
 70
    0
 62
250
  6
CONTINUOUS
  0
LAYER
  5
AD
100
AcDbSymbolTableRecord
100
AcDbLayerTableRecord
  2
3-7
 70
    0
 62
250
  6
CONTINUOUS
  0
LAYER
  5
AE
100
AcDbSymbolTableRecord
100
AcDbLayerTableRecord
  2
3-8
 70
    0
 62
250
  6
CONTINUOUS
  0
LAYER
  5
AF
100
AcDbSymbolTableRecord
100
AcDbLayerTableRecord
  2
3-9
 70
    0
 62
250
  6
CONTINUOUS
  0
LAYER
  5
B0
100
AcDbSymbolTableRecord
100
AcDbLayerTableRecord
  2
3-a
 70
    0
 62
250
  6
CONTINUOUS
  0
LAYER
  5
B1
100
AcDbSymbolTableRecord
100
AcDbLayerTableRecord
  2
3-b
 70
    0
 62
250
  6
CONTINUOUS
  0
LAYER
  5
B2
100
AcDbSymbolTableRecord
100
AcDbLayerTableRecord
  2
3-c
 70
    0
 62
250
  6
CONTINUOUS
  0
LAYER
  5
B3
100
AcDbSymbolTableRecord
100
AcDbLayerTableRecord
  2
3-d
 70
    0
 62
250
  6
CONTINUOUS
  0
LAYER
  5
B4
100
AcDbSymbolTableRecord
100
AcDbLayerTableRecord
  2
3-e
 70
    0
 62
250
  6
CONTINUOUS
  0
LAYER
  5
B5
100
AcDbSymbolTableRecord
100
AcDbLayerTableRecord
  2
3-f
 70
    0
 62
250
  6
CONTINUOUS
  0
LAYER
  5
B6
100
AcDbSymbolTableRecord
100
AcDbLayerTableRecord
  2
4-0
 70
    0
 62
250
  6
CONTINUOUS
  0
LAYER
  5
B7
100
AcDbSymbolTableRecord
100
AcDbLayerTableRecord
  2
4-1
 70
    0
 62
250
  6
CONTINUOUS
  0
LAYER
  5
B8
100
AcDbSymbolTableRecord
100
AcDbLayerTableRecord
  2
4-2
 70
    0
 62
250
  6
CONTINUOUS
  0
LAYER
  5
B9
100
AcDbSymbolTableRecord
100
AcDbLayerTableRecord
  2
4-3
 70
    0
 62
250
  6
CONTINUOUS
  0
LAYER
  5
BA
100
AcDbSymbolTableRecord
100
AcDbLayerTableRecord
  2
4-4
 70
    0
 62
250
  6
CONTINUOUS
  0
LAYER
  5
BB
100
AcDbSymbolTableRecord
100
AcDbLayerTableRecord
  2
4-5
 70
    0
 62
250
  6
CONTINUOUS
  0
LAYER
  5
BC
100
AcDbSymbolTableRecord
100
AcDbLayerTableRecord
  2
4-6
 70
    0
 62
250
  6
CONTINUOUS
  0
LAYER
  5
BD
100
AcDbSymbolTableRecord
100
AcDbLayerTableRecord
  2
4-7
 70
    0
 62
250
  6
CONTINUOUS
  0
LAYER
  5
BE
100
AcDbSymbolTableRecord
100
AcDbLayerTableRecord
  2
4-8
 70
    0
 62
250
  6
CONTINUOUS
  0
LAYER
  5
BF
100
AcDbSymbolTableRecord
100
AcDbLayerTableRecord
  2
4-9
 70
    0
 62
250
  6
CONTINUOUS
  0
LAYER
  5
C0
100
AcDbSymbolTableRecord
100
AcDbLayerTableRecord
  2
4-a
 70
    0
 62
250
  6
CONTINUOUS
  0
LAYER
  5
C1
100
AcDbSymbolTableRecord
100
AcDbLayerTableRecord
  2
4-b
 70
    0
 62
250
  6
CONTINUOUS
  0
LAYER
  5
C2
100
AcDbSymbolTableRecord
100
AcDbLayerTableRecord
  2
4-c
 70
    0
 62
250
  6
CONTINUOUS
  0
LAYER
  5
C3
100
AcDbSymbolTableRecord
100
AcDbLayerTableRecord
  2
4-d
 70
    0
 62
250
  6
CONTINUOUS
  0
LAYER
  5
C4
100
AcDbSymbolTableRecord
100
AcDbLayerTableRecord
  2
4-e
 70
    0
 62
250
  6
CONTINUOUS
  0
LAYER
  5
C5
100
AcDbSymbolTableRecord
100
AcDbLayerTableRecord
  2
4-f
 70
    0
 62
250
  6
CONTINUOUS
  0
LAYER
  5
C6
100
AcDbSymbolTableRecord
100
AcDbLayerTableRecord
  2
5-0
 70
    0
 62
250
  6
CONTINUOUS
  0
LAYER
  5
C7
100
AcDbSymbolTableRecord
100
AcDbLayerTableRecord
  2
5-1
 70
    0
 62
250
  6
CONTINUOUS
  0
LAYER
  5
C8
100
AcDbSymbolTableRecord
100
AcDbLayerTableRecord
  2
5-2
 70
    0
 62
250
  6
CONTINUOUS
  0
LAYER
  5
C9
100
AcDbSymbolTableRecord
100
AcDbLayerTableRecord
  2
5-3
 70
    0
 62
250
  6
CONTINUOUS
  0
LAYER
  5
CA
100
AcDbSymbolTableRecord
100
AcDbLayerTableRecord
  2
5-4
 70
    0
 62
250
  6
CONTINUOUS
  0
LAYER
  5
CB
100
AcDbSymbolTableRecord
100
AcDbLayerTableRecord
  2
5-5
 70
    0
 62
250
  6
CONTINUOUS
  0
LAYER
  5
CC
100
AcDbSymbolTableRecord
100
AcDbLayerTableRecord
  2
5-6
 70
    0
 62
250
  6
CONTINUOUS
  0
LAYER
  5
CD
100
AcDbSymbolTableRecord
100
AcDbLayerTableRecord
  2
5-7
 70
    0
 62
250
  6
CONTINUOUS
  0
LAYER
  5
CE
100
AcDbSymbolTableRecord
100
AcDbLayerTableRecord
  2
5-8
 70
    0
 62
250
  6
CONTINUOUS
  0
LAYER
  5
CF
100
AcDbSymbolTableRecord
100
AcDbLayerTableRecord
  2
5-9
 70
    0
 62
250
  6
CONTINUOUS
  0
LAYER
  5
D0
100
AcDbSymbolTableRecord
100
AcDbLayerTableRecord
  2
5-a
 70
    0
 62
250
  6
CONTINUOUS
  0
LAYER
  5
D1
100
AcDbSymbolTableRecord
100
AcDbLayerTableRecord
  2
5-b
 70
    0
 62
250
  6
CONTINUOUS
  0
LAYER
  5
D2
100
AcDbSymbolTableRecord
100
AcDbLayerTableRecord
  2
5-c
 70
    0
 62
250
  6
CONTINUOUS
  0
LAYER
  5
D3
100
AcDbSymbolTableRecord
100
AcDbLayerTableRecord
  2
5-d
 70
    0
 62
250
  6
CONTINUOUS
  0
LAYER
  5
D4
100
AcDbSymbolTableRecord
100
AcDbLayerTableRecord
  2
5-e
 70
    0
 62
250
  6
CONTINUOUS
  0
LAYER
  5
D5
100
AcDbSymbolTableRecord
100
AcDbLayerTableRecord
  2
5-f
 70
    0
 62
250
  6
CONTINUOUS
  0
LAYER
  5
D6
100
AcDbSymbolTableRecord
100
AcDbLayerTableRecord
  2
6-0
 70
    0
 62
250
  6
CONTINUOUS
  0
LAYER
  5
D7
100
AcDbSymbolTableRecord
100
AcDbLayerTableRecord
  2
6-1
 70
    0
 62
250
  6
CONTINUOUS
  0
LAYER
  5
D8
100
AcDbSymbolTableRecord
100
AcDbLayerTableRecord
  2
6-2
 70
    0
 62
250
  6
CONTINUOUS
  0
LAYER
  5
D9
100
AcDbSymbolTableRecord
100
AcDbLayerTableRecord
  2
6-3
 70
    0
 62
250
  6
CONTINUOUS
  0
LAYER
  5
DA
100
AcDbSymbolTableRecord
100
AcDbLayerTableRecord
  2
6-4
 70
    0
 62
250
  6
CONTINUOUS
  0
LAYER
  5
DB
100
AcDbSymbolTableRecord
100
AcDbLayerTableRecord
  2
6-5
 70
    0
 62
250
  6
CONTINUOUS
  0
LAYER
  5
DC
100
AcDbSymbolTableRecord
100
AcDbLayerTableRecord
  2
6-6
 70
    0
 62
250
  6
CONTINUOUS
  0
LAYER
  5
DD
100
AcDbSymbolTableRecord
100
AcDbLayerTableRecord
  2
6-7
 70
    0
 62
250
  6
CONTINUOUS
  0
LAYER
  5
DE
100
AcDbSymbolTableRecord
100
AcDbLayerTableRecord
  2
6-8
 70
    0
 62
250
  6
CONTINUOUS
  0
LAYER
  5
DF
100
AcDbSymbolTableRecord
100
AcDbLayerTableRecord
  2
6-9
 70
    0
 62
250
  6
CONTINUOUS
  0
LAYER
  5
E0
100
AcDbSymbolTableRecord
100
AcDbLayerTableRecord
  2
6-a
 70
    0
 62
250
  6
CONTINUOUS
  0
LAYER
  5
E1
100
AcDbSymbolTableRecord
100
AcDbLayerTableRecord
  2
6-b
 70
    0
 62
250
  6
CONTINUOUS
  0
LAYER
  5
E2
100
AcDbSymbolTableRecord
100
AcDbLayerTableRecord
  2
6-c
 70
    0
 62
250
  6
CONTINUOUS
  0
LAYER
  5
E3
100
AcDbSymbolTableRecord
100
AcDbLayerTableRecord
  2
6-d
 70
    0
 62
250
  6
CONTINUOUS
  0
LAYER
  5
E4
100
AcDbSymbolTableRecord
100
AcDbLayerTableRecord
  2
6-e
 70
    0
 62
250
  6
CONTINUOUS
  0
LAYER
  5
E5
100
AcDbSymbolTableRecord
100
AcDbLayerTableRecord
  2
6-f
 70
    0
 62
250
  6
CONTINUOUS
  0
LAYER
  5
E6
100
AcDbSymbolTableRecord
100
AcDbLayerTableRecord
  2
7-0
 70
    0
 62
250
  6
CONTINUOUS
  0
LAYER
  5
E7
100
AcDbSymbolTableRecord
100
AcDbLayerTableRecord
  2
7-1
 70
    0
 62
250
  6
CONTINUOUS
  0
LAYER
  5
E8
100
AcDbSymbolTableRecord
100
AcDbLayerTableRecord
  2
7-2
 70
    0
 62
250
  6
CONTINUOUS
  0
LAYER
  5
E9
100
AcDbSymbolTableRecord
100
AcDbLayerTableRecord
  2
7-3
 70
    0
 62
250
  6
CONTINUOUS
  0
LAYER
  5
EA
100
AcDbSymbolTableRecord
100
AcDbLayerTableRecord
  2
7-4
 70
    0
 62
250
  6
CONTINUOUS
  0
LAYER
  5
EB
100
AcDbSymbolTableRecord
100
AcDbLayerTableRecord
  2
7-5
 70
    0
 62
250
  6
CONTINUOUS
  0
LAYER
  5
EC
100
AcDbSymbolTableRecord
100
AcDbLayerTableRecord
  2
7-6
 70
    0
 62
250
  6
CONTINUOUS
  0
LAYER
  5
ED
100
AcDbSymbolTableRecord
100
AcDbLayerTableRecord
  2
7-7
 70
    0
 62
250
  6
CONTINUOUS
  0
LAYER
  5
EE
100
AcDbSymbolTableRecord
100
AcDbLayerTableRecord
  2
7-8
 70
    0
 62
250
  6
CONTINUOUS
  0
LAYER
  5
EF
100
AcDbSymbolTableRecord
100
AcDbLayerTableRecord
  2
7-9
 70
    0
 62
250
  6
CONTINUOUS
  0
LAYER
  5
F0
100
AcDbSymbolTableRecord
100
AcDbLayerTableRecord
  2
7-a
 70
    0
 62
250
  6
CONTINUOUS
  0
LAYER
  5
F1
100
AcDbSymbolTableRecord
100
AcDbLayerTableRecord
  2
7-b
 70
    0
 62
250
  6
CONTINUOUS
  0
LAYER
  5
F2
100
AcDbSymbolTableRecord
100
AcDbLayerTableRecord
  2
7-c
 70
    0
 62
250
  6
CONTINUOUS
  0
LAYER
  5
F3
100
AcDbSymbolTableRecord
100
AcDbLayerTableRecord
  2
7-d
 70
    0
 62
250
  6
CONTINUOUS
  0
LAYER
  5
F4
100
AcDbSymbolTableRecord
100
AcDbLayerTableRecord
  2
7-e
 70
    0
 62
250
  6
CONTINUOUS
  0
LAYER
  5
F5
100
AcDbSymbolTableRecord
100
AcDbLayerTableRecord
  2
7-f
 70
    0
 62
250
  6
CONTINUOUS
  0
LAYER
  5
F6
100
AcDbSymbolTableRecord
100
AcDbLayerTableRecord
  2
8-0
 70
    0
 62
250
  6
CONTINUOUS
  0
LAYER
  5
F7
100
AcDbSymbolTableRecord
100
AcDbLayerTableRecord
  2
8-1
 70
    0
 62
250
  6
CONTINUOUS
  0
LAYER
  5
F8
100
AcDbSymbolTableRecord
100
AcDbLayerTableRecord
  2
8-2
 70
    0
 62
250
  6
CONTINUOUS
  0
LAYER
  5
F9
100
AcDbSymbolTableRecord
100
AcDbLayerTableRecord
  2
8-3
 70
    0
 62
250
  6
CONTINUOUS
  0
LAYER
  5
FA
100
AcDbSymbolTableRecord
100
AcDbLayerTableRecord
  2
8-4
 70
    0
 62
250
  6
CONTINUOUS
  0
LAYER
  5
FB
100
AcDbSymbolTableRecord
100
AcDbLayerTableRecord
  2
8-5
 70
    0
 62
250
  6
CONTINUOUS
  0
LAYER
  5
FC
100
AcDbSymbolTableRecord
100
AcDbLayerTableRecord
  2
8-6
 70
    0
 62
250
  6
CONTINUOUS
  0
LAYER
  5
FD
100
AcDbSymbolTableRecord
100
AcDbLayerTableRecord
  2
8-7
 70
    0
 62
250
  6
CONTINUOUS
  0
LAYER
  5
FE
100
AcDbSymbolTableRecord
100
AcDbLayerTableRecord
  2
8-8
 70
    0
 62
250
  6
CONTINUOUS
  0
LAYER
  5
FF
100
AcDbSymbolTableRecord
100
AcDbLayerTableRecord
  2
8-9
 70
    0
 62
250
  6
CONTINUOUS
  0
LAYER
  5
100
100
AcDbSymbolTableRecord
100
AcDbLayerTableRecord
  2
8-a
 70
    0
 62
250
  6
CONTINUOUS
  0
LAYER
  5
101
100
AcDbSymbolTableRecord
100
AcDbLayerTableRecord
  2
8-b
 70
    0
 62
250
  6
CONTINUOUS
  0
LAYER
  5
102
100
AcDbSymbolTableRecord
100
AcDbLayerTableRecord
  2
8-c
 70
    0
 62
250
  6
CONTINUOUS
  0
LAYER
  5
103
100
AcDbSymbolTableRecord
100
AcDbLayerTableRecord
  2
8-d
 70
    0
 62
250
  6
CONTINUOUS
  0
LAYER
  5
104
100
AcDbSymbolTableRecord
100
AcDbLayerTableRecord
  2
8-e
 70
    0
 62
250
  6
CONTINUOUS
  0
LAYER
  5
105
100
AcDbSymbolTableRecord
100
AcDbLayerTableRecord
  2
8-f
 70
    0
 62
250
  6
CONTINUOUS
  0
LAYER
  5
106
100
AcDbSymbolTableRecord
100
AcDbLayerTableRecord
  2
9-0
 70
    0
 62
250
  6
CONTINUOUS
  0
LAYER
  5
107
100
AcDbSymbolTableRecord
100
AcDbLayerTableRecord
  2
9-1
 70
    0
 62
250
  6
CONTINUOUS
  0
LAYER
  5
108
100
AcDbSymbolTableRecord
100
AcDbLayerTableRecord
  2
9-2
 70
    0
 62
250
  6
CONTINUOUS
  0
LAYER
  5
109
100
AcDbSymbolTableRecord
100
AcDbLayerTableRecord
  2
9-3
 70
    0
 62
250
  6
CONTINUOUS
  0
LAYER
  5
10A
100
AcDbSymbolTableRecord
100
AcDbLayerTableRecord
  2
9-4
 70
    0
 62
250
  6
CONTINUOUS
  0
LAYER
  5
10B
100
AcDbSymbolTableRecord
100
AcDbLayerTableRecord
  2
9-5
 70
    0
 62
250
  6
CONTINUOUS
  0
LAYER
  5
10C
100
AcDbSymbolTableRecord
100
AcDbLayerTableRecord
  2
9-6
 70
    0
 62
250
  6
CONTINUOUS
  0
LAYER
  5
10D
100
AcDbSymbolTableRecord
100
AcDbLayerTableRecord
  2
9-7
 70
    0
 62
250
  6
CONTINUOUS
  0
LAYER
  5
10E
100
AcDbSymbolTableRecord
100
AcDbLayerTableRecord
  2
9-8
 70
    0
 62
250
  6
CONTINUOUS
  0
LAYER
  5
10F
100
AcDbSymbolTableRecord
100
AcDbLayerTableRecord
  2
9-9
 70
    0
 62
250
  6
CONTINUOUS
  0
LAYER
  5
110
100
AcDbSymbolTableRecord
100
AcDbLayerTableRecord
  2
9-a
 70
    0
 62
250
  6
CONTINUOUS
  0
LAYER
  5
111
100
AcDbSymbolTableRecord
100
AcDbLayerTableRecord
  2
9-b
 70
    0
 62
250
  6
CONTINUOUS
  0
LAYER
  5
112
100
AcDbSymbolTableRecord
100
AcDbLayerTableRecord
  2
9-c
 70
    0
 62
250
  6
CONTINUOUS
  0
LAYER
  5
113
100
AcDbSymbolTableRecord
100
AcDbLayerTableRecord
  2
9-d
 70
    0
 62
250
  6
CONTINUOUS
  0
LAYER
  5
114
100
AcDbSymbolTableRecord
100
AcDbLayerTableRecord
  2
9-e
 70
    0
 62
250
  6
CONTINUOUS
  0
LAYER
  5
115
100
AcDbSymbolTableRecord
100
AcDbLayerTableRecord
  2
9-f
 70
    0
 62
250
  6
CONTINUOUS
  0
LAYER
  5
116
100
AcDbSymbolTableRecord
100
AcDbLayerTableRecord
  2
a-0
 70
    0
 62
250
  6
CONTINUOUS
  0
LAYER
  5
117
100
AcDbSymbolTableRecord
100
AcDbLayerTableRecord
  2
a-1
 70
    0
 62
250
  6
CONTINUOUS
  0
LAYER
  5
118
100
AcDbSymbolTableRecord
100
AcDbLayerTableRecord
  2
a-2
 70
    0
 62
250
  6
CONTINUOUS
  0
LAYER
  5
119
100
AcDbSymbolTableRecord
100
AcDbLayerTableRecord
  2
a-3
 70
    0
 62
250
  6
CONTINUOUS
  0
LAYER
  5
11A
100
AcDbSymbolTableRecord
100
AcDbLayerTableRecord
  2
a-4
 70
    0
 62
250
  6
CONTINUOUS
  0
LAYER
  5
11B
100
AcDbSymbolTableRecord
100
AcDbLayerTableRecord
  2
a-5
 70
    0
 62
250
  6
CONTINUOUS
  0
LAYER
  5
11C
100
AcDbSymbolTableRecord
100
AcDbLayerTableRecord
  2
a-6
 70
    0
 62
250
  6
CONTINUOUS
  0
LAYER
  5
11D
100
AcDbSymbolTableRecord
100
AcDbLayerTableRecord
  2
a-7
 70
    0
 62
250
  6
CONTINUOUS
  0
LAYER
  5
11E
100
AcDbSymbolTableRecord
100
AcDbLayerTableRecord
  2
a-8
 70
    0
 62
250
  6
CONTINUOUS
  0
LAYER
  5
11F
100
AcDbSymbolTableRecord
100
AcDbLayerTableRecord
  2
a-9
 70
    0
 62
250
  6
CONTINUOUS
  0
LAYER
  5
120
100
AcDbSymbolTableRecord
100
AcDbLayerTableRecord
  2
a-a
 70
    0
 62
250
  6
CONTINUOUS
  0
LAYER
  5
121
100
AcDbSymbolTableRecord
100
AcDbLayerTableRecord
  2
a-b
 70
    0
 62
250
  6
CONTINUOUS
  0
LAYER
  5
122
100
AcDbSymbolTableRecord
100
AcDbLayerTableRecord
  2
a-c
 70
    0
 62
250
  6
CONTINUOUS
  0
LAYER
  5
123
100
AcDbSymbolTableRecord
100
AcDbLayerTableRecord
  2
a-d
 70
    0
 62
250
  6
CONTINUOUS
  0
LAYER
  5
124
100
AcDbSymbolTableRecord
100
AcDbLayerTableRecord
  2
a-e
 70
    0
 62
250
  6
CONTINUOUS
  0
LAYER
  5
125
100
AcDbSymbolTableRecord
100
AcDbLayerTableRecord
  2
a-f
 70
    0
 62
250
  6
CONTINUOUS
  0
LAYER
  5
126
100
AcDbSymbolTableRecord
100
AcDbLayerTableRecord
  2
b-0
 70
    0
 62
250
  6
CONTINUOUS
  0
LAYER
  5
127
100
AcDbSymbolTableRecord
100
AcDbLayerTableRecord
  2
b-1
 70
    0
 62
250
  6
CONTINUOUS
  0
LAYER
  5
128
100
AcDbSymbolTableRecord
100
AcDbLayerTableRecord
  2
b-2
 70
    0
 62
250
  6
CONTINUOUS
  0
LAYER
  5
129
100
AcDbSymbolTableRecord
100
AcDbLayerTableRecord
  2
b-3
 70
    0
 62
250
  6
CONTINUOUS
  0
LAYER
  5
12A
100
AcDbSymbolTableRecord
100
AcDbLayerTableRecord
  2
b-4
 70
    0
 62
250
  6
CONTINUOUS
  0
LAYER
  5
12B
100
AcDbSymbolTableRecord
100
AcDbLayerTableRecord
  2
b-5
 70
    0
 62
250
  6
CONTINUOUS
  0
LAYER
  5
12C
100
AcDbSymbolTableRecord
100
AcDbLayerTableRecord
  2
b-6
 70
    0
 62
250
  6
CONTINUOUS
  0
LAYER
  5
12D
100
AcDbSymbolTableRecord
100
AcDbLayerTableRecord
  2
b-7
 70
    0
 62
250
  6
CONTINUOUS
  0
LAYER
  5
12E
100
AcDbSymbolTableRecord
100
AcDbLayerTableRecord
  2
b-8
 70
    0
 62
250
  6
CONTINUOUS
  0
LAYER
  5
12F
100
AcDbSymbolTableRecord
100
AcDbLayerTableRecord
  2
b-9
 70
    0
 62
250
  6
CONTINUOUS
  0
LAYER
  5
130
100
AcDbSymbolTableRecord
100
AcDbLayerTableRecord
  2
b-a
 70
    0
 62
250
  6
CONTINUOUS
  0
LAYER
  5
131
100
AcDbSymbolTableRecord
100
AcDbLayerTableRecord
  2
b-b
 70
    0
 62
250
  6
CONTINUOUS
  0
LAYER
  5
132
100
AcDbSymbolTableRecord
100
AcDbLayerTableRecord
  2
b-c
 70
    0
 62
250
  6
CONTINUOUS
  0
LAYER
  5
133
100
AcDbSymbolTableRecord
100
AcDbLayerTableRecord
  2
b-d
 70
    0
 62
250
  6
CONTINUOUS
  0
LAYER
  5
134
100
AcDbSymbolTableRecord
100
AcDbLayerTableRecord
  2
b-e
 70
    0
 62
250
  6
CONTINUOUS
  0
LAYER
  5
135
100
AcDbSymbolTableRecord
100
AcDbLayerTableRecord
  2
b-f
 70
    0
 62
250
  6
CONTINUOUS
  0
LAYER
  5
136
100
AcDbSymbolTableRecord
100
AcDbLayerTableRecord
  2
c-0
 70
    0
 62
250
  6
CONTINUOUS
  0
LAYER
  5
137
100
AcDbSymbolTableRecord
100
AcDbLayerTableRecord
  2
c-1
 70
    0
 62
250
  6
CONTINUOUS
  0
LAYER
  5
138
100
AcDbSymbolTableRecord
100
AcDbLayerTableRecord
  2
c-2
 70
    0
 62
250
  6
CONTINUOUS
  0
LAYER
  5
139
100
AcDbSymbolTableRecord
100
AcDbLayerTableRecord
  2
c-3
 70
    0
 62
250
  6
CONTINUOUS
  0
LAYER
  5
13A
100
AcDbSymbolTableRecord
100
AcDbLayerTableRecord
  2
c-4
 70
    0
 62
250
  6
CONTINUOUS
  0
LAYER
  5
13B
100
AcDbSymbolTableRecord
100
AcDbLayerTableRecord
  2
c-5
 70
    0
 62
250
  6
CONTINUOUS
  0
LAYER
  5
13C
100
AcDbSymbolTableRecord
100
AcDbLayerTableRecord
  2
c-6
 70
    0
 62
250
  6
CONTINUOUS
  0
LAYER
  5
13D
100
AcDbSymbolTableRecord
100
AcDbLayerTableRecord
  2
c-7
 70
    0
 62
250
  6
CONTINUOUS
  0
LAYER
  5
13E
100
AcDbSymbolTableRecord
100
AcDbLayerTableRecord
  2
c-8
 70
    0
 62
250
  6
CONTINUOUS
  0
LAYER
  5
13F
100
AcDbSymbolTableRecord
100
AcDbLayerTableRecord
  2
c-9
 70
    0
 62
250
  6
CONTINUOUS
  0
LAYER
  5
140
100
AcDbSymbolTableRecord
100
AcDbLayerTableRecord
  2
c-a
 70
    0
 62
250
  6
CONTINUOUS
  0
LAYER
  5
141
100
AcDbSymbolTableRecord
100
AcDbLayerTableRecord
  2
c-b
 70
    0
 62
250
  6
CONTINUOUS
  0
LAYER
  5
142
100
AcDbSymbolTableRecord
100
AcDbLayerTableRecord
  2
c-c
 70
    0
 62
250
  6
CONTINUOUS
  0
LAYER
  5
143
100
AcDbSymbolTableRecord
100
AcDbLayerTableRecord
  2
c-d
 70
    0
 62
250
  6
CONTINUOUS
  0
LAYER
  5
144
100
AcDbSymbolTableRecord
100
AcDbLayerTableRecord
  2
c-e
 70
    0
 62
250
  6
CONTINUOUS
  0
LAYER
  5
145
100
AcDbSymbolTableRecord
100
AcDbLayerTableRecord
  2
c-f
 70
    0
 62
250
  6
CONTINUOUS
  0
LAYER
  5
146
100
AcDbSymbolTableRecord
100
AcDbLayerTableRecord
  2
d-0
 70
    0
 62
250
  6
CONTINUOUS
  0
LAYER
  5
147
100
AcDbSymbolTableRecord
100
AcDbLayerTableRecord
  2
d-1
 70
    0
 62
250
  6
CONTINUOUS
  0
LAYER
  5
148
100
AcDbSymbolTableRecord
100
AcDbLayerTableRecord
  2
d-2
 70
    0
 62
250
  6
CONTINUOUS
  0
LAYER
  5
149
100
AcDbSymbolTableRecord
100
AcDbLayerTableRecord
  2
d-3
 70
    0
 62
250
  6
CONTINUOUS
  0
LAYER
  5
14A
100
AcDbSymbolTableRecord
100
AcDbLayerTableRecord
  2
d-4
 70
    0
 62
250
  6
CONTINUOUS
  0
LAYER
  5
14B
100
AcDbSymbolTableRecord
100
AcDbLayerTableRecord
  2
d-5
 70
    0
 62
250
  6
CONTINUOUS
  0
LAYER
  5
14C
100
AcDbSymbolTableRecord
100
AcDbLayerTableRecord
  2
d-6
 70
    0
 62
250
  6
CONTINUOUS
  0
LAYER
  5
14D
100
AcDbSymbolTableRecord
100
AcDbLayerTableRecord
  2
d-7
 70
    0
 62
250
  6
CONTINUOUS
  0
LAYER
  5
14E
100
AcDbSymbolTableRecord
100
AcDbLayerTableRecord
  2
d-8
 70
    0
 62
250
  6
CONTINUOUS
  0
LAYER
  5
14F
100
AcDbSymbolTableRecord
100
AcDbLayerTableRecord
  2
d-9
 70
    0
 62
250
  6
CONTINUOUS
  0
LAYER
  5
150
100
AcDbSymbolTableRecord
100
AcDbLayerTableRecord
  2
d-a
 70
    0
 62
250
  6
CONTINUOUS
  0
LAYER
  5
151
100
AcDbSymbolTableRecord
100
AcDbLayerTableRecord
  2
d-b
 70
    0
 62
250
  6
CONTINUOUS
  0
LAYER
  5
152
100
AcDbSymbolTableRecord
100
AcDbLayerTableRecord
  2
d-c
 70
    0
 62
250
  6
CONTINUOUS
  0
LAYER
  5
153
100
AcDbSymbolTableRecord
100
AcDbLayerTableRecord
  2
d-d
 70
    0
 62
250
  6
CONTINUOUS
  0
LAYER
  5
154
100
AcDbSymbolTableRecord
100
AcDbLayerTableRecord
  2
d-e
 70
    0
 62
250
  6
CONTINUOUS
  0
LAYER
  5
155
100
AcDbSymbolTableRecord
100
AcDbLayerTableRecord
  2
d-f
 70
    0
 62
250
  6
CONTINUOUS
  0
LAYER
  5
156
100
AcDbSymbolTableRecord
100
AcDbLayerTableRecord
  2
e-0
 70
    0
 62
250
  6
CONTINUOUS
  0
LAYER
  5
157
100
AcDbSymbolTableRecord
100
AcDbLayerTableRecord
  2
e-1
 70
    0
 62
250
  6
CONTINUOUS
  0
LAYER
  5
158
100
AcDbSymbolTableRecord
100
AcDbLayerTableRecord
  2
e-2
 70
    0
 62
250
  6
CONTINUOUS
  0
LAYER
  5
159
100
AcDbSymbolTableRecord
100
AcDbLayerTableRecord
  2
e-3
 70
    0
 62
250
  6
CONTINUOUS
  0
LAYER
  5
15A
100
AcDbSymbolTableRecord
100
AcDbLayerTableRecord
  2
e-4
 70
    0
 62
250
  6
CONTINUOUS
  0
LAYER
  5
15B
100
AcDbSymbolTableRecord
100
AcDbLayerTableRecord
  2
e-5
 70
    0
 62
250
  6
CONTINUOUS
  0
LAYER
  5
15C
100
AcDbSymbolTableRecord
100
AcDbLayerTableRecord
  2
e-6
 70
    0
 62
250
  6
CONTINUOUS
  0
LAYER
  5
15D
100
AcDbSymbolTableRecord
100
AcDbLayerTableRecord
  2
e-7
 70
    0
 62
250
  6
CONTINUOUS
  0
LAYER
  5
15E
100
AcDbSymbolTableRecord
100
AcDbLayerTableRecord
  2
e-8
 70
    0
 62
250
  6
CONTINUOUS
  0
LAYER
  5
15F
100
AcDbSymbolTableRecord
100
AcDbLayerTableRecord
  2
e-9
 70
    0
 62
250
  6
CONTINUOUS
  0
LAYER
  5
160
100
AcDbSymbolTableRecord
100
AcDbLayerTableRecord
  2
e-a
 70
    0
 62
250
  6
CONTINUOUS
  0
LAYER
  5
161
100
AcDbSymbolTableRecord
100
AcDbLayerTableRecord
  2
e-b
 70
    0
 62
250
  6
CONTINUOUS
  0
LAYER
  5
162
100
AcDbSymbolTableRecord
100
AcDbLayerTableRecord
  2
e-c
 70
    0
 62
250
  6
CONTINUOUS
  0
LAYER
  5
163
100
AcDbSymbolTableRecord
100
AcDbLayerTableRecord
  2
e-d
 70
    0
 62
250
  6
CONTINUOUS
  0
LAYER
  5
164
100
AcDbSymbolTableRecord
100
AcDbLayerTableRecord
  2
e-e
 70
    0
 62
250
  6
CONTINUOUS
  0
LAYER
  5
165
100
AcDbSymbolTableRecord
100
AcDbLayerTableRecord
  2
e-f
 70
    0
 62
250
  6
CONTINUOUS
  0
LAYER
  5
166
100
AcDbSymbolTableRecord
100
AcDbLayerTableRecord
  2
f-0
 70
    0
 62
250
  6
CONTINUOUS
  0
LAYER
  5
167
100
AcDbSymbolTableRecord
100
AcDbLayerTableRecord
  2
f-1
 70
    0
 62
250
  6
CONTINUOUS
  0
LAYER
  5
168
100
AcDbSymbolTableRecord
100
AcDbLayerTableRecord
  2
f-2
 70
    0
 62
250
  6
CONTINUOUS
  0
LAYER
  5
169
100
AcDbSymbolTableRecord
100
AcDbLayerTableRecord
  2
f-3
 70
    0
 62
250
  6
CONTINUOUS
  0
LAYER
  5
16A
100
AcDbSymbolTableRecord
100
AcDbLayerTableRecord
  2
f-4
 70
    0
 62
250
  6
CONTINUOUS
  0
LAYER
  5
16B
100
AcDbSymbolTableRecord
100
AcDbLayerTableRecord
  2
f-5
 70
    0
 62
250
  6
CONTINUOUS
  0
LAYER
  5
16C
100
AcDbSymbolTableRecord
100
AcDbLayerTableRecord
  2
f-6
 70
    0
 62
250
  6
CONTINUOUS
  0
LAYER
  5
16D
100
AcDbSymbolTableRecord
100
AcDbLayerTableRecord
  2
f-7
 70
    0
 62
250
  6
CONTINUOUS
  0
LAYER
  5
16E
100
AcDbSymbolTableRecord
100
AcDbLayerTableRecord
  2
f-8
 70
    0
 62
250
  6
CONTINUOUS
  0
LAYER
  5
16F
100
AcDbSymbolTableRecord
100
AcDbLayerTableRecord
  2
f-9
 70
    0
 62
250
  6
CONTINUOUS
  0
LAYER
  5
170
100
AcDbSymbolTableRecord
100
AcDbLayerTableRecord
  2
f-a
 70
    0
 62
250
  6
CONTINUOUS
  0
LAYER
  5
171
100
AcDbSymbolTableRecord
100
AcDbLayerTableRecord
  2
f-b
 70
    0
 62
250
  6
CONTINUOUS
  0
LAYER
  5
172
100
AcDbSymbolTableRecord
100
AcDbLayerTableRecord
  2
f-c
 70
    0
 62
250
  6
CONTINUOUS
  0
LAYER
  5
173
100
AcDbSymbolTableRecord
100
AcDbLayerTableRecord
  2
f-d
 70
    0
 62
250
  6
CONTINUOUS
  0
LAYER
  5
174
100
AcDbSymbolTableRecord
100
AcDbLayerTableRecord
  2
f-e
 70
    0
 62
250
  6
CONTINUOUS
  0
LAYER
  5
175
100
AcDbSymbolTableRecord
100
AcDbLayerTableRecord
  2
f-f
 70
    0
 62
250
  6
CONTINUOUS
  0
LAYER
  5
176
100
AcDbSymbolTableRecord
100
AcDbLayerTableRecord
  2
0
 70
   64
 62
    7
  6
CONTINUOUS
  0
ENDTAB
  0
TABLE
  2
STYLE
  5
4
100
AcDbSymbolTable
 70
     1
  0
STYLE
  5
177
100
AcDbSymbolTableRecord
100
AcDbTextStyleTableRecord
  2
Standard
 70
     0
 40
0.0
 41
1.0
 50
0.0
 71
     0
 42
3.2
  3
TXT
  4
BIGFONT
  0
STYLE
  5
178
100
AcDbSymbolTableRecord
100
AcDbTextStyleTableRecord
  2
Font_0
 70
     0
 40
0.0
 41
1.0
 50
0.0
 71
     0
 42
3.2
  3
MS Gothic.ttf
  4

1001
ACAD
1000
MS Gothic
1071
  32817
  0
ENDTAB
  0
TABLE
  2
VIEW
  5
5
100
AcDbSymbolTable
 70
     0
  0
ENDTAB
  0
TABLE
  2
UCS
  5
6
100
AcDbSymbolTable
 70
     0
  0
ENDTAB
  0
TABLE
  2
APPID
  5
7
100
AcDbSymbolTable
 70
     1
  0
APPID
  5
179
100
AcDbSymbolTableRecord
100
AcDbRegAppTableRecord
  2
ACAD
 70
     0
  0
ENDTAB
  0
TABLE
  2
DIMSTYLE
  5
8
100
AcDbSymbolTable
 70
     1
  0
DIMSTYLE
105
2A
100
AcDbSymbolTableRecord
100
AcDbDimStyleTableRecord
  2
STANDARD
 70
     0
  3

  4

  5

  6

  7

 40
1.0
 41
2.5
 42
2.0
 43
7.0
 44
1.25
 45
0.0
 46
0.0
 47
0.0
 48
0.0
 71
     0
 72
     0
 73
     0
 74
     0
 75
     0
 76
     0
 77
     1
 78
     0
140
2.5
141
2.5
142
0.0
143
0.0394
144
1.0
145
0.0
146
1.0
147
1.0
170
     0
171
     2
172
     0
173
     0
174
     1
175
     0
176
     0
177
     0
178
     0
270
     2
271
     2
272
     4
273
     2
274
     2
275
     0
280
     0
281
     0
282
     0
283
     1
284
     0
285
     0
286
     0
287
     3
288
     0
  0
ENDTAB
  0
TABLE
  2
BLOCK_RECORD
  5
9
100
AcDbSymbolTable
 70
     0
  0
BLOCK_RECORD
  5
17A
100
AcDbSymbolTableRecord
100
AcDbBlockTableRecord
  2
*MODEL_SPACE
  0
BLOCK_RECORD
  5
17B
100
AcDbSymbolTableRecord
100
AcDbBlockTableRecord
  2
*PAPER_SPACE
  0
ENDTAB
  0
ENDSEC
  0
SECTION
  2
BLOCKS
  0
BLOCK
  5
17D
100
AcDbEntity
  8
0
100
AcDbBlockBegin
2
*MODEL_SPACE
 70
     0
 10
0.0
 20
0.0
 30
0.0
  3
*MODEL_SPACE
  1

  0
ENDBLK
  5
17E
100
AcDbEntity
  8
0-0
100
AcDbBlockEnd
  0
BLOCK
  5
17F
100
AcDbEntity
 67
     1
  8
0-0
100
AcDbBlockBegin
  2
*PAPER_SPACE
 70
     0
 10
0.0
 20
0.0
 30
0.0
  3
*PAPER_SPACE
  1

  0
ENDBLK
  5
180
100
AcDbEntity
 67
     1
  8
0-0
100
AcDbBlockEnd
  0
ENDSEC
  0
SECTION
  2
ENTITIES
  0
LINE
  5
181
100
AcDbEntity
  8
0-0
100
AcDbLine
  6
CONTINUOUS
 62
7
370
30
 10
5.56908220221215
 20
12.391351
 11
414.043140858554
 21
12.391351
  0
MTEXT
  5
182
100
AcDbEntity
  8
0-0
100
AcDbMText
 10
180
 20
11.0531527041453
 40
6
 41
  0.0
  1
{\fMS Gothic|b1;MinatoConcept,Inc.}
  7
Font_0
  0
LINE
  5
183
100
AcDbEntity
  8
0-0
100
AcDbLine
  6
CONTINUOUS
 62
7
370
30
 10
5.56908220221215
 20
290.896092958492
 11
5.56908220221215
 21
12.391351
  0
LINE
  5
184
100
AcDbEntity
  8
0-0
100
AcDbLine
  6
CONTINUOUS
 62
7
370
30
 10
414.043140858554
 20
290.896092958492
 11
414.043140858554
 21
12.391351
  0
LINE
  5
185
100
AcDbEntity
  8
0-0
100
AcDbLine
  6
CONTINUOUS
 62
7
370
30
 10
5.56908220221215
 20
290.896092958492
 11
414.043140858554
 21
290.896092958492
  0
LINE
  5
186
100
AcDbEntity
  8
0-0
100
AcDbLine
  6
CONTINUOUS
 62
7
370
30
 10
215.84127107323
 20
12.3948673585226
 11
414.038809945504
 21
12.3948673585226
  0
LINE
  5
187
100
AcDbEntity
  8
0-0
100
AcDbLine
  6
CONTINUOUS
 62
7
370
30
 10
215.84127107323
 20
55.3948873585226
 11
215.84127107323
 21
12.3948673585226
  0
LINE
  5
188
100
AcDbEntity
  8
0-0
100
AcDbLine
  6
CONTINUOUS
 62
7
370
30
 10
215.84127107323
 20
30.3948673585226
 11
414.038809945504
 21
30.3948673585226
  0
LINE
  5
189
100
AcDbEntity
  8
0-0
100
AcDbLine
  6
CONTINUOUS
 62
7
370
30
 10
215.84127107323
 20
35.3948673585226
 11
414.038809945504
 21
35.3948673585226
  0
LINE
  5
18A
100
AcDbEntity
  8
0-0
100
AcDbLine
  6
CONTINUOUS
 62
7
370
30
 10
215.84127107323
 20
55.3948873585226
 11
414.038809945504
 21
55.3948873585226
  0
LINE
  5
18B
100
AcDbEntity
  8
0-0
100
AcDbLine
  6
CONTINUOUS
 62
7
370
30
 10
224.84127107323
 20
55.3948873585226
 11
224.84127107323
 21
30.3948673585226
  0
LINE
  5
18C
100
AcDbEntity
  8
0-0
100
AcDbLine
  6
CONTINUOUS
 62
7
370
30
 10
229.84127107323
 20
30.3948673585226
 11
229.84127107323
 21
12.3948673585226
  0
LINE
  5
18D
100
AcDbEntity
  8
0-0
100
AcDbLine
  6
CONTINUOUS
 62
7
370
30
 10
243.84127107323
 20
30.3948673585226
 11
243.84127107323
 21
12.3948673585226
  0
LINE
  5
18E
100
AcDbEntity
  8
0-0
100
AcDbLine
  6
CONTINUOUS
 62
7
370
30
 10
257.84127107323
 20
30.3948673585226
 11
257.84127107323
 21
12.3948673585226
  0
LINE
  5
18F
100
AcDbEntity
  8
0-0
100
AcDbLine
  6
CONTINUOUS
 62
7
370
30
 10
271.84127107323
 20
30.3948673585226
 11
271.84127107323
 21
12.3948673585226
  0
LINE
  5
190
100
AcDbEntity
  8
0-0
100
AcDbLine
  6
CONTINUOUS
 62
7
370
30
 10
285.84127107323
 20
55.3948873585226
 11
285.84127107323
 21
12.3948673585226
  0
LINE
  5
191
100
AcDbEntity
  8
0-0
100
AcDbLine
  6
CONTINUOUS
 62
7
370
30
 10
359.841271073229
 20
30.3948673585226
 11
359.841271073229
 21
12.3948673585226
  0
LINE
  5
192
100
AcDbEntity
  8
0-0
100
AcDbLine
  6
CONTINUOUS
 62
7
370
30
 10
354.576670073229
 20
14.3948673585226
 11
290.68017007323
 21
14.3948673585226
  0
TEXT
  5
193
100
AcDbEntity
  8
0-0
 62
7
100
AcDbText
  6
BYLAYER
 62
7
 10
230.000950725078
 20
30.8948663585226
 40
4
  1
年月日
  7
Font_0
100
AcDbText
  0
TEXT
  5
194
100
AcDbEntity
  8
0-0
 62
7
100
AcDbText
  6
BYLAYER
 62
7
 10
260.764942534612
 20
30.8948663585226
 40
4
  1
記  事
  7
Font_0
100
AcDbText
  0
LINE
  5
195
100
AcDbEntity
  8
0-0
100
AcDbLine
  6
CONTINUOUS
 62
7
370
30
 10
218.031871073229
 20
51.0478873585226
 11
222.65067007323
 21
51.0478873585226
  0
LINE
  5
196
100
AcDbEntity
  8
0-0
100
AcDbLine
  6
CONTINUOUS
 62
7
370
30
 10
220.34127107323
 20
55.0478873585226
 11
222.65067107323
 21
51.0478873585226
  0
LINE
  5
197
100
AcDbEntity
  8
0-0
100
AcDbLine
  6
CONTINUOUS
 62
7
370
30
 10
220.34127107323
 20
55.0478863585226
 11
218.031871073229
 21
51.0478863585226
  0
LINE
  5
198
100
AcDbEntity
  8
0-0
100
AcDbLine
  6
CONTINUOUS
 62
7
370
30
 10
220.34127107323
 20
50.0478873585226
 11
218.031871073229
 21
46.0478873585226
  0
LINE
  5
199
100
AcDbEntity
  8
0-0
100
AcDbLine
  6
CONTINUOUS
 62
7
370
30
 10
218.031871073229
 20
46.0478873585226
 11
222.65067007323
 21
46.0478873585226
  0
LINE
  5
19A
100
AcDbEntity
  8
0-0
100
AcDbLine
  6
CONTINUOUS
 62
7
370
30
 10
220.34127107323
 20
50.0478873585226
 11
222.65067107323
 21
46.0478873585226
  0
LINE
  5
19B
100
AcDbEntity
  8
0-0
100
AcDbLine
  6
CONTINUOUS
 62
7
370
30
 10
220.34127007323
 20
45.0478873585226
 11
218.031870073229
 21
41.0479273585226
  0
LINE
  5
19C
100
AcDbEntity
  8
0-0
100
AcDbLine
  6
CONTINUOUS
 62
7
370
30
 10
218.031871073229
 20
41.0479263585226
 11
222.65067007323
 21
41.0479263585226
  0
LINE
  5
19D
100
AcDbEntity
  8
0-0
100
AcDbLine
  6
CONTINUOUS
 62
7
370
30
 10
220.34127107323
 20
45.0478873585226
 11
222.65067007323
 21
41.0479273585226
  0
LINE
  5
19E
100
AcDbEntity
  8
0-0
100
AcDbLine
  6
CONTINUOUS
 62
7
370
30
 10
220.34127107323
 20
40.0479273585226
 11
218.031871073229
 21
36.0479273585226
  0
LINE
  5
19F
100
AcDbEntity
  8
0-0
100
AcDbLine
  6
CONTINUOUS
 62
7
370
30
 10
218.031871073229
 20
36.0479263585226
 11
222.65067007323
 21
36.0479263585226
  0
LINE
  5
1A0
100
AcDbEntity
  8
0-0
100
AcDbLine
  6
CONTINUOUS
 62
7
370
30
 10
220.34127107323
 20
40.0479273585226
 11
222.65067107323
 21
36.0479273585226
  0
TEXT
  5
1A1
100
AcDbEntity
  8
0-0
 62
7
100
AcDbText
  6
BYLAYER
 62
7
 10
217.048167073229
 20
31.3431423585226
 40
3.103449
  1
来歴
  7
Font_0
100
AcDbText
  0
TEXT
  5
1A2
100
AcDbEntity
  8
0-0
 62
7
100
AcDbText
  6
BYLAYER
 62
7
 10
275.823844728741
 20
26.3948673585226
 40
3
  1
製図
  7
Font_0
100
AcDbText
  0
TEXT
  5
1A3
100
AcDbEntity
  8
0-0
 62
7
100
AcDbText
  6
BYLAYER
 62
7
 10
247.940219865464
 20
26.3948673585226
 40
3
  1
検図
  7
Font_0
100
AcDbText
  0
TEXT
  5
1A4
100
AcDbEntity
  8
0-0
 62
7
100
AcDbText
  6
BYLAYER
 62
7
 10
234.083448144687
 20
26.3948673585226
 40
3
  1
承認
  7
Font_0
100
AcDbText
  0
TEXT
  5
1A5
100
AcDbEntity
  8
0-0
 62
7
100
AcDbText
  6
BYLAYER
 62
7
 10
290.84127107323
 20
25.3948673585226
 40
3
  1
品名
  7
Font_0
100
AcDbText
  0
POINT
  5
1A6
100
AcDbEntity
  8
0-0
100
AcDbPoint
 62
7
 10
300.841271073229
 20
25.1084273585226
  0
POINT
  5
1A7
100
AcDbEntity
  8
0-0
100
AcDbPoint
 62
7
 10
300.841271073229
 20
16.6597573585226
  0
TEXT
  5
1A8
100
AcDbEntity
  8
0-0
 62
7
100
AcDbText
  6
BYLAYER
 62
7
 10
219.233371073229
 20
26.1626973585226
 40
3
  1
尺度
  7
Font_0
100
AcDbText
  0
LINE
  5
1A9
100
AcDbEntity
  8
0-0
100
AcDbLine
  6
CONTINUOUS
 62
7
370
30
 10
219.729175073229
 20
15.1103772855145
 11
226.37677007323
 21
21.7580292855145
  0
POINT
  5
1AA
100
AcDbEntity
  8
0-0
100
AcDbPoint
 62
7
 10
236.84127107323
 20
19.3948673585226
  0
POINT
  5
1AB
100
AcDbEntity
  8
0-0
100
AcDbPoint
 62
7
 10
264.84127107323
 20
19.3948673585226
  0
POINT
  5
1AC
100
AcDbEntity
  8
0-0
100
AcDbPoint
 62
7
 10
278.84127107323
 20
19.3948673585226
  0
LINE
  5
1AD
100
AcDbEntity
  8
0-0
100
AcDbLine
  6
CONTINUOUS
 62
7
370
30
 10
215.84127107323
 20
40.3948673585226
 11
414.038809945504
 21
40.3948673585226
  0
LINE
  5
1AE
100
AcDbEntity
  8
0-0
100
AcDbLine
  6
CONTINUOUS
 62
7
370
30
 10
215.84127107323
 20
45.3948673585226
 11
414.038809945504
 21
45.3948673585226
  0
LINE
  5
1AF
100
AcDbEntity
  8
0-0
100
AcDbLine
  6
CONTINUOUS
 62
7
370
30
 10
215.84127107323
 20
50.3948673585226
 11
414.038809945504
 21
50.3948673585226
  0
POINT
  5
1B0
100
AcDbEntity
  8
0-0
100
AcDbPoint
 62
7
 10
250.84127107323
 20
19.3948673585226
  0
TEXT
  5
1B1
100
AcDbEntity
  8
0-0
 62
7
100
AcDbText
  6
BYLAYER
 62
7
 10
288.029337942996
 20
31.3448663585226
 40
3.1
  1
品番
  7
Font_0
 11
288.029337942996
 21
34.4448663585226
100
AcDbText
 73
3
  0
TEXT
  5
1B2
100
AcDbEntity
  8
0-0
 62
7
100
AcDbText
  6
BYLAYER
 62
7
 10
311.419657637509
 20
31.3448663585226
 40
3.1
  1
部品名
  7
Font_0
 11
311.419657637509
 21
34.4448663585226
100
AcDbText
 73
3
  0
TEXT
  5
1B3
100
AcDbEntity
  8
0-0
 62
7
100
AcDbText
  6
BYLAYER
 62
7
 10
345.190390829194
 20
31.3448663585226
 40
3.1
  1
材　質
  7
Font_0
 11
345.190390829194
 21
34.4448663585226
100
AcDbText
 73
3
  0
TEXT
  5
1B4
100
AcDbEntity
  8
0-0
 62
7
100
AcDbText
  6
BYLAYER
 62
7
 10
366.946047757324
 20
31.3448663585226
 40
3.1
  1
数量
  7
Font_0
 11
366.946047757324
 21
34.4448663585226
100
AcDbText
 73
3
  0
TEXT
  5
1B5
100
AcDbEntity
  8
0-0
 62
7
100
AcDbText
  6
BYLAYER
 62
7
 10
390.168189301155
 20
31.3448663585226
 40
3.1
  1
備　考
  7
Font_0
 11
390.168189301155
 21
34.4448663585226
100
AcDbText
 73
3
  0
TEXT
  5
1B6
100
AcDbEntity
  8
0-0
 62
7
100
AcDbText
  6
BYLAYER
 62
7
 10
261.774274010639
 20
26.3948673585226
 40
3
  1
検図
  7
Font_0
100
AcDbText
  0
TEXT
  5
1B7
100
AcDbEntity
  8
0-0
 62
5
100
AcDbText
  6
CONTINUOUS
 62
5
 10
290.0341575779
 20
35.8948673585226
 40
4
  1
1
  7
Font_0
 11
290.0341575779
 21
39.8948673585226
100
AcDbText
 73
3
  0
TEXT
  5
1B8
100
AcDbEntity
  8
0-0
100
AcDbText
  6
CONTINUOUS
 10
217.047007459075
 20
17.0914066251082
 40
5
  1
１
  7
Font_0
 11
217.047007459075
 21
22.0914066251082
100
AcDbText
 73
3
  0
TEXT
  5
1B9
100
AcDbEntity
  8
0-0
100
AcDbText
  6
CONTINUOUS
 10
223.699654234449
 20
15.0875973554174
 40
5
  1
１
  7
Font_0
 11
223.699654234449
 21
20.0875973554174
100
AcDbText
 73
3
  0
LINE
  5
1BA
100
AcDbEntity
  8
0-0
100
AcDbLine
  6
CONTINUOUS
 62
7
370
30
 10
246.840381478065
 20
55.3948873585226
 11
246.840381478065
 21
30.3948673585226
  0
LINE
  5
1BB
100
AcDbEntity
  8
0-0
100
AcDbLine
  6
DOT
 62
7
370
30
 10
215.84127107323
 20
25.3948673585226
 11
285.84127107323
 21
25.3948673585226
  0
LINE
  5
1BC
100
AcDbEntity
  8
0-0
100
AcDbLine
  6
CONTINUOUS
 62
7
370
30
 10
295.840816736845
 20
55.3948873585226
 11
295.840816736845
 21
30.3948673585226
  0
LINE
  5
1BD
100
AcDbEntity
  8
0-0
100
AcDbLine
  6
CONTINUOUS
 62
7
370
30
 10
334.843978115538
 20
55.3948873585226
 11
334.843978115538
 21
30.3948673585226
  0
LINE
  5
1BE
100
AcDbEntity
  8
0-0
100
AcDbLine
  6
CONTINUOUS
 62
7
370
30
 10
364.844609986919
 20
55.3948873585226
 11
364.844609986919
 21
30.3948673585226
  0
LINE
  5
1BF
100
AcDbEntity
  8
0-0
100
AcDbLine
  6
CONTINUOUS
 62
7
370
30
 10
374.843027195761
 20
55.3948873585226
 11
374.843027195761
 21
30.3948673585226
  0
LINE
  5
1C0
100
AcDbEntity
  8
0-0
100
AcDbLine
  6
BYLAYER
370
13
 10
52.0836114555905
 20
132.478489370844
 11
73.2738392269424
 21
132.478489370845
  0
LINE
  5
1C1
100
AcDbEntity
  8
0-0
100
AcDbLine
  6
BYLAYER
370
13
 10
268.383611455591
 20
156.078489370846
 11
268.383611455591
 21
130.478489370845
  0
LINE
  5
1C2
100
AcDbEntity
  8
0-0
100
AcDbLine
  6
BYLAYER
370
13
 10
268.383611455591
 20
125.478489370845
 11
268.38361145559
 21
91.9784893708457
  0
LINE
  5
1C3
100
AcDbEntity
  8
0-0
100
AcDbLine
  6
BYLAYER
370
13
 10
264.38361145559
 20
156.078489370846
 11
264.38361145559
 21
130.478489370845
  0
LINE
  5
1C4
100
AcDbEntity
  8
0-0
100
AcDbLine
  6
BYLAYER
370
13
 10
264.38361145559
 20
125.478489370845
 11
264.38361145559
 21
91.9784893708459
  0
LINE
  5
1C5
100
AcDbEntity
  8
0-0
100
AcDbLine
  6
BYLAYER
370
13
 10
263.88361145559
 20
125.478489370845
 11
263.88361145559
 21
123.478489370845
  0
LINE
  5
1C6
100
AcDbEntity
  8
0-0
100
AcDbLine
  6
BYLAYER
370
13
 10
167.38361145559
 20
156.078489370845
 11
167.38361145559
 21
130.478489370843
  0
LINE
  5
1C7
100
AcDbEntity
  8
0-0
100
AcDbLine
  6
BYLAYER
370
13
 10
167.38361145559
 20
125.478489370844
 11
167.383611455591
 21
91.9784893708448
  0
LINE
  5
1C8
100
AcDbEntity
  8
0-0
100
AcDbLine
  6
BYLAYER
370
13
 10
164.88361145559
 20
133.228489370846
 11
164.883611455591
 21
84.4784893708518
  0
LINE
  5
1C9
100
AcDbEntity
  8
0-0
100
AcDbLine
  6
BYLAYER
370
13
 10
165.88361145559
 20
94.9784893708434
 11
165.88361145559
 21
91.9784893708446
  0
LINE
  5
1CA
100
AcDbEntity
  8
0-0
100
AcDbLine
  6
BYLAYER
370
13
 10
166.08361145559
 20
93.4784893708434
 11
166.083611455591
 21
91.9784893708448
  0
LINE
  5
1CB
100
AcDbEntity
  8
0-0
100
AcDbLine
  6
BYLAYER
370
13
 10
163.68361145559
 20
131.278489370845
 11
163.68361145559
 21
84.4784893708518
  0
LINE
  5
1CC
100
AcDbEntity
  8
0-0
100
AcDbLine
  6
BYLAYER
370
13
 10
161.88361145559
 20
93.4784893708434
 11
161.88361145559
 21
91.7284893708443
  0
LINE
  5
1CD
100
AcDbEntity
  8
0-0
100
AcDbLine
  6
BYLAYER
370
13
 10
161.38361145559
 20
92.4784893708434
 11
161.38361145559
 21
91.7284893708443
  0
LINE
  5
1CE
100
AcDbEntity
  8
0-0
100
AcDbLine
  6
BYLAYER
370
13
 10
171.383611455588
 20
156.078489370845
 11
171.383611455589
 21
130.478489370844
  0
LINE
  5
1CF
100
AcDbEntity
  8
0-0
100
AcDbLine
  6
BYLAYER
370
13
 10
171.38361145559
 20
125.478489370844
 11
171.383611455591
 21
91.9784893708448
  0
LINE
  5
1D0
100
AcDbEntity
  8
0-0
100
AcDbLine
  6
BYLAYER
370
13
 10
171.88361145559
 20
125.478489370844
 11
171.88361145559
 21
123.478489370844
  0
LINE
  5
1D1
100
AcDbEntity
  8
0-0
100
AcDbLine
  6
BYLAYER
370
13
 10
171.883611455591
 20
92.9784893708436
 11
171.883611455592
 21
91.9784893708446
  0
LINE
  5
1D2
100
AcDbEntity
  8
0-0
100
AcDbLine
  6
BYLAYER
370
13
 10
178.383611455589
 20
125.478489370844
 11
178.383611455592
 21
93.4784893708446
  0
LINE
  5
1D3
100
AcDbEntity
  8
0-0
100
AcDbLine
  6
BYLAYER
370
13
 10
173.383611455589
 20
125.478489370844
 11
173.383611455592
 21
93.4784893708441
  0
LINE
  5
1D4
100
AcDbEntity
  8
0-0
100
AcDbLine
  6
BYLAYER
370
13
 10
164.883611455591
 20
84.4784893708518
 11
163.68361145559
 21
84.4784893708518
  0
LINE
  5
1D5
100
AcDbEntity
  8
0-0
100
AcDbLine
  6
BYLAYER
370
13
 10
171.383611455588
 20
145.478489370845
 11
264.38361145559
 21
145.478489370845
  0
LINE
  5
1D6
100
AcDbEntity
  8
0-0
100
AcDbLine
  6
BYLAYER
370
13
 10
270.88361145559
 20
133.228489370848
 11
270.883611455591
 21
84.4784893708523
  0
LINE
  5
1D7
100
AcDbEntity
  8
0-0
100
AcDbLine
  6
BYLAYER
370
13
 10
272.08361145559
 20
131.278489370845
 11
272.083611455591
 21
84.4784893708523
  0
LINE
  5
1D8
100
AcDbEntity
  8
0-0
100
AcDbLine
  6
BYLAYER
370
13
 10
273.883611455591
 20
92.4784893708484
 11
273.883611455591
 21
91.7284893708457
  0
LINE
  5
1D9
100
AcDbEntity
  8
0-0
100
AcDbLine
  6
BYLAYER
370
13
 10
164.883611455591
 20
94.9784893708434
 11
165.88361145559
 21
94.9784893708434
  0
LINE
  5
1DA
100
AcDbEntity
  8
0-0
100
AcDbLine
  6
BYLAYER
370
13
 10
164.883611455591
 20
85.9784893708434
 11
165.88361145559
 21
85.9784893708434
  0
LINE
  5
1DB
100
AcDbEntity
  8
0-0
100
AcDbLine
  6
BYLAYER
370
13
 10
171.383611455591
 20
92.9784893708436
 11
171.883611455591
 21
92.9784893708436
  0
LINE
  5
1DC
100
AcDbEntity
  8
0-0
100
AcDbLine
  6
BYLAYER
370
13
 10
161.38361145559
 20
92.4784893708434
 11
161.88361145559
 21
92.4784893708434
  0
LINE
  5
1DD
100
AcDbEntity
  8
0-0
100
AcDbLine
  6
BYLAYER
370
13
 10
165.88361145559
 20
92.4784893708434
 11
166.08361145559
 21
92.4784893708434
  0
LINE
  5
1DE
100
AcDbEntity
  8
0-0
100
AcDbLine
  6
BYLAYER
370
13
 10
166.08361145559
 20
93.4784893708434
 11
167.38361145559
 21
93.4784893708434
  0
LINE
  5
1DF
100
AcDbEntity
  8
0-0
100
AcDbLine
  6
BYLAYER
370
13
 10
164.88361145559
 20
125.478489370844
 11
270.88361145559
 21
125.478489370845
  0
LINE
  5
1E0
100
AcDbEntity
  8
0-0
100
AcDbLine
  6
BYLAYER
370
13
 10
161.88361145559
 20
93.4784893708434
 11
163.68361145559
 21
93.4784893708434
  0
LINE
  5
1E1
100
AcDbEntity
  8
0-0
100
AcDbLine
  6
BYLAYER
370
13
 10
269.883611455591
 20
94.9784893708439
 11
269.883611455591
 21
91.9784893708459
  0
LINE
  5
1E2
100
AcDbEntity
  8
0-0
100
AcDbLine
  6
BYLAYER
370
13
 10
269.683611455591
 20
93.4784893708439
 11
269.683611455591
 21
91.9784893708457
  0
LINE
  5
1E3
100
AcDbEntity
  8
0-0
100
AcDbLine
  6
BYLAYER
370
13
 10
274.383611455591
 20
92.4784893708439
 11
274.383611455591
 21
91.7284893708457
  0
LINE
  5
1E4
100
AcDbEntity
  8
0-0
100
AcDbLine
  6
BYLAYER
370
13
 10
263.88361145559
 20
92.9784893708439
 11
263.88361145559
 21
91.9784893708459
  0
LINE
  5
1E5
100
AcDbEntity
  8
0-0
100
AcDbLine
  6
BYLAYER
370
13
 10
270.883611455591
 20
94.9784893708439
 11
269.883611455591
 21
94.9784893708439
  0
LINE
  5
1E6
100
AcDbEntity
  8
0-0
100
AcDbLine
  6
BYLAYER
370
13
 10
270.883611455591
 20
85.9784893708439
 11
269.883611455591
 21
85.9784893708439
  0
LINE
  5
1E7
100
AcDbEntity
  8
0-0
100
AcDbLine
  6
BYLAYER
370
13
 10
264.38361145559
 20
92.9784893708439
 11
263.88361145559
 21
92.9784893708439
  0
LINE
  5
1E8
100
AcDbEntity
  8
0-0
100
AcDbLine
  6
BYLAYER
370
13
 10
274.383611455591
 20
92.4784893708439
 11
273.883611455591
 21
92.4784893708439
  0
LINE
  5
1E9
100
AcDbEntity
  8
0-0
100
AcDbLine
  6
BYLAYER
370
13
 10
269.883611455591
 20
92.4784893708439
 11
269.683611455591
 21
92.4784893708439
  0
LINE
  5
1EA
100
AcDbEntity
  8
0-0
100
AcDbLine
  6
BYLAYER
370
13
 10
269.683611455591
 20
93.4784893708439
 11
268.383611455591
 21
93.4784893708439
  0
LINE
  5
1EB
100
AcDbEntity
  8
0-0
100
AcDbLine
  6
BYLAYER
370
13
 10
272.083611455591
 20
84.4784893708523
 11
270.883611455591
 21
84.4784893708523
  0
LINE
  5
1EC
100
AcDbEntity
  8
0-0
100
AcDbLine
  6
BYLAYER
370
13
 10
166.38361145559
 20
101.978489370847
 11
167.38361145559
 21
101.978489370847
  0
LINE
  5
1ED
100
AcDbEntity
  8
0-0
100
AcDbLine
  6
BYLAYER
370
13
 10
171.383611455591
 20
101.978489370847
 11
173.383611455591
 21
101.978489370847
  0
LINE
  5
1EE
100
AcDbEntity
  8
0-0
100
AcDbLine
  6
BYLAYER
370
13
 10
178.383611455591
 20
101.978489370847
 11
179.383611455591
 21
101.978489370847
  0
LINE
  5
1EF
100
AcDbEntity
  8
0-0
100
AcDbLine
  6
BYLAYER
370
13
 10
184.383611455591
 20
101.978489370847
 11
185.383611455591
 21
101.978489370847
  0
LINE
  5
1F0
100
AcDbEntity
  8
0-0
100
AcDbLine
  6
BYLAYER
370
13
 10
190.383611455591
 20
101.978489370847
 11
191.383611455591
 21
101.978489370847
  0
LINE
  5
1F1
100
AcDbEntity
  8
0-0
100
AcDbLine
  6
BYLAYER
370
13
 10
196.383611455591
 20
101.978489370847
 11
197.383611455591
 21
101.978489370847
  0
LINE
  5
1F2
100
AcDbEntity
  8
0-0
100
AcDbLine
  6
BYLAYER
370
13
 10
202.383611455591
 20
101.978489370847
 11
203.383611455591
 21
101.978489370847
  0
LINE
  5
1F3
100
AcDbEntity
  8
0-0
100
AcDbLine
  6
BYLAYER
370
13
 10
208.383611455591
 20
101.978489370847
 11
209.383611455591
 21
101.978489370847
  0
LINE
  5
1F4
100
AcDbEntity
  8
0-0
100
AcDbLine
  6
BYLAYER
370
13
 10
214.383611455591
 20
101.978489370847
 11
215.383611455591
 21
101.978489370847
  0
LINE
  5
1F5
100
AcDbEntity
  8
0-0
100
AcDbLine
  6
BYLAYER
370
13
 10
220.383611455591
 20
101.978489370847
 11
221.383611455591
 21
101.978489370847
  0
LINE
  5
1F6
100
AcDbEntity
  8
0-0
100
AcDbLine
  6
BYLAYER
370
13
 10
226.383611455591
 20
101.978489370847
 11
227.383611455591
 21
101.978489370847
  0
LINE
  5
1F7
100
AcDbEntity
  8
0-0
100
AcDbLine
  6
BYLAYER
370
13
 10
232.383611455591
 20
101.978489370847
 11
233.383611455591
 21
101.978489370847
  0
LINE
  5
1F8
100
AcDbEntity
  8
0-0
100
AcDbLine
  6
BYLAYER
370
13
 10
238.383611455591
 20
101.978489370847
 11
239.383611455591
 21
101.978489370847
  0
LINE
  5
1F9
100
AcDbEntity
  8
0-0
100
AcDbLine
  6
BYLAYER
370
13
 10
244.383611455591
 20
101.978489370847
 11
245.383611455591
 21
101.978489370847
  0
LINE
  5
1FA
100
AcDbEntity
  8
0-0
100
AcDbLine
  6
BYLAYER
370
13
 10
250.383611455591
 20
101.978489370847
 11
251.383611455591
 21
101.978489370847
  0
LINE
  5
1FB
100
AcDbEntity
  8
0-0
100
AcDbLine
  6
BYLAYER
370
13
 10
256.383611455591
 20
101.978489370847
 11
257.383611455591
 21
101.978489370847
  0
LINE
  5
1FC
100
AcDbEntity
  8
0-0
100
AcDbLine
  6
BYLAYER
370
13
 10
262.383611455591
 20
101.978489370847
 11
264.38361145559
 21
101.978489370847
  0
LINE
  5
1FD
100
AcDbEntity
  8
0-0
100
AcDbLine
  6
BYLAYER
370
13
 10
268.38361145559
 20
101.978489370847
 11
269.383611455591
 21
101.978489370847
  0
LINE
  5
1FE
100
AcDbEntity
  8
0-3
100
AcDbLine
  6
BYLAYER
370
13
 10
166.38361145559
 20
102.478489370847
 11
269.383611455591
 21
102.478489370847
  0
LINE
  5
1FF
100
AcDbEntity
  8
0-0
100
AcDbLine
  6
BYLAYER
370
13
 10
166.38361145559
 20
109.978489370847
 11
167.38361145559
 21
109.978489370847
  0
LINE
  5
200
100
AcDbEntity
  8
0-0
100
AcDbLine
  6
BYLAYER
370
13
 10
171.38361145559
 20
109.978489370847
 11
173.38361145559
 21
109.978489370848
  0
LINE
  5
201
100
AcDbEntity
  8
0-0
100
AcDbLine
  6
BYLAYER
370
13
 10
178.38361145559
 20
109.978489370848
 11
179.38361145559
 21
109.978489370848
  0
LINE
  5
202
100
AcDbEntity
  8
0-0
100
AcDbLine
  6
BYLAYER
370
13
 10
184.38361145559
 20
109.978489370848
 11
185.38361145559
 21
109.978489370848
  0
LINE
  5
203
100
AcDbEntity
  8
0-0
100
AcDbLine
  6
BYLAYER
370
13
 10
190.38361145559
 20
109.978489370847
 11
191.38361145559
 21
109.978489370847
  0
LINE
  5
204
100
AcDbEntity
  8
0-0
100
AcDbLine
  6
BYLAYER
370
13
 10
196.38361145559
 20
109.978489370847
 11
197.38361145559
 21
109.978489370847
  0
LINE
  5
205
100
AcDbEntity
  8
0-0
100
AcDbLine
  6
BYLAYER
370
13
 10
202.38361145559
 20
109.978489370847
 11
203.38361145559
 21
109.978489370847
  0
LINE
  5
206
100
AcDbEntity
  8
0-0
100
AcDbLine
  6
BYLAYER
370
13
 10
208.38361145559
 20
109.978489370847
 11
209.38361145559
 21
109.978489370847
  0
LINE
  5
207
100
AcDbEntity
  8
0-0
100
AcDbLine
  6
BYLAYER
370
13
 10
214.38361145559
 20
109.978489370847
 11
215.38361145559
 21
109.978489370847
  0
LINE
  5
208
100
AcDbEntity
  8
0-0
100
AcDbLine
  6
BYLAYER
370
13
 10
220.38361145559
 20
109.978489370847
 11
221.38361145559
 21
109.978489370847
  0
LINE
  5
209
100
AcDbEntity
  8
0-0
100
AcDbLine
  6
BYLAYER
370
13
 10
226.38361145559
 20
109.978489370847
 11
227.38361145559
 21
109.978489370847
  0
LINE
  5
20A
100
AcDbEntity
  8
0-0
100
AcDbLine
  6
BYLAYER
370
13
 10
232.38361145559
 20
109.978489370848
 11
233.38361145559
 21
109.978489370848
  0
LINE
  5
20B
100
AcDbEntity
  8
0-0
100
AcDbLine
  6
BYLAYER
370
13
 10
238.38361145559
 20
109.978489370848
 11
239.38361145559
 21
109.978489370848
  0
LINE
  5
20C
100
AcDbEntity
  8
0-0
100
AcDbLine
  6
BYLAYER
370
13
 10
244.38361145559
 20
109.978489370847
 11
245.38361145559
 21
109.978489370847
  0
LINE
  5
20D
100
AcDbEntity
  8
0-0
100
AcDbLine
  6
BYLAYER
370
13
 10
250.38361145559
 20
109.978489370847
 11
251.38361145559
 21
109.978489370847
  0
LINE
  5
20E
100
AcDbEntity
  8
0-0
100
AcDbLine
  6
BYLAYER
370
13
 10
256.383611455591
 20
109.978489370847
 11
257.383611455591
 21
109.978489370847
  0
LINE
  5
20F
100
AcDbEntity
  8
0-0
100
AcDbLine
  6
BYLAYER
370
13
 10
262.383611455591
 20
109.978489370847
 11
264.38361145559
 21
109.978489370847
  0
LINE
  5
210
100
AcDbEntity
  8
0-0
100
AcDbLine
  6
BYLAYER
370
13
 10
268.38361145559
 20
109.978489370847
 11
269.38361145559
 21
109.978489370847
  0
LINE
  5
211
100
AcDbEntity
  8
0-3
100
AcDbLine
  6
BYLAYER
370
13
 10
166.38361145559
 20
109.478489370847
 11
269.38361145559
 21
109.478489370847
  0
LINE
  5
212
100
AcDbEntity
  8
0-0
100
AcDbLine
  6
BYLAYER
370
13
 10
269.38361145559
 20
116.478489370847
 11
270.88361145559
 21
116.478489370847
  0
LINE
  5
213
100
AcDbEntity
  8
0-0
100
AcDbLine
  6
BYLAYER
370
13
 10
269.383611455591
 20
95.4784893708468
 11
270.883611455591
 21
95.4784893708468
  0
LINE
  5
214
100
AcDbEntity
  8
0-0
100
AcDbLine
  6
BYLAYER
370
13
 10
269.383611455591
 20
95.4784893708468
 11
269.38361145559
 21
116.478489370847
  0
LINE
  5
215
100
AcDbEntity
  8
0-0
100
AcDbLine
  6
BYLAYER
370
13
 10
166.38361145559
 20
116.478489370845
 11
164.88361145559
 21
116.478489370845
  0
LINE
  5
216
100
AcDbEntity
  8
0-0
100
AcDbLine
  6
BYLAYER
370
13
 10
166.38361145559
 20
95.4784893708457
 11
164.88361145559
 21
95.4784893708455
  0
LINE
  5
217
100
AcDbEntity
  8
0-0
100
AcDbLine
  6
BYLAYER
370
13
 10
166.38361145559
 20
95.4784893708457
 11
166.38361145559
 21
116.478489370845
  0
ARC
  5
218
100
AcDbEntity
  8
0-0
100
AcDbCircle
  6
BYLAYER
370
13
 10
169.383611455592
 20
114.978489370845
 40
2.5
100
AcDbArc
 50
143.13010235421
 51
216.869897645787
  0
ARC
  5
219
100
AcDbEntity
  8
0-0
100
AcDbCircle
  6
BYLAYER
370
13
 10
169.383611455592
 20
114.978489370845
 40
2.5
100
AcDbArc
 50
323.130102354088
 51
36.8698976459175
  0
ARC
  5
21A
100
AcDbEntity
  8
0-0
100
AcDbCircle
  6
BYLAYER
370
13
 10
266.38361145559
 20
114.978489370849
 40
2.5
100
AcDbArc
 50
143.130102354153
 51
216.869897645847
  0
ARC
  5
21B
100
AcDbEntity
  8
0-0
100
AcDbCircle
  6
BYLAYER
370
13
 10
266.38361145559
 20
114.978489370849
 40
2.5
100
AcDbArc
 50
323.130102354153
 51
36.869897645847
  0
LINE
  5
21C
100
AcDbEntity
  8
0-0
100
AcDbLine
  6
BYLAYER
370
13
 10
173.08361145559
 20
84.4784893708443
 11
178.68361145559
 21
84.4784893708446
  0
ARC
  5
21D
100
AcDbEntity
  8
0-0
100
AcDbCircle
  6
BYLAYER
370
13
 10
173.08361145559
 20
84.6784893708444
 40
0.2
100
AcDbArc
 50
180
 51
270
  0
LINE
  5
21E
100
AcDbEntity
  8
0-0
100
AcDbLine
  6
BYLAYER
370
13
 10
172.88361145559
 20
93.2784893708443
 11
172.88361145559
 21
84.6784893708444
  0
LINE
  5
21F
100
AcDbEntity
  8
0-0
100
AcDbLine
  6
BYLAYER
370
13
 10
178.88361145559
 20
93.2784893708445
 11
178.88361145559
 21
84.6784893708444
  0
ARC
  5
220
100
AcDbEntity
  8
0-0
100
AcDbCircle
  6
BYLAYER
370
13
 10
178.68361145559
 20
84.6784893708444
 40
0.2
100
AcDbArc
 50
270
 51
0
  0
LINE
  5
221
100
AcDbEntity
  8
0-0
100
AcDbLine
  6
BYLAYER
370
13
 10
173.08361145559
 20
93.4784893708443
 11
178.683611455591
 21
93.4784893708446
  0
ARC
  5
222
100
AcDbEntity
  8
0-0
100
AcDbCircle
  6
BYLAYER
370
13
 10
178.683611455591
 20
93.2784893708445
 40
0.2
100
AcDbArc
 50
0
 51
90
  0
ARC
  5
223
100
AcDbEntity
  8
0-0
100
AcDbCircle
  6
BYLAYER
370
13
 10
173.08361145559
 20
93.2784893708443
 40
0.2
100
AcDbArc
 50
90
 51
180
  0
LINE
  5
224
100
AcDbEntity
  8
0-0
100
AcDbLine
  6
BYLAYER
370
13
 10
164.883611455591
 20
91.9784893708446
 11
172.88361145559
 21
91.9784893708446
  0
LINE
  5
225
100
AcDbEntity
  8
0-0
100
AcDbLine
  6
BYLAYER
370
13
 10
262.883611455591
 20
91.9784893708459
 11
270.883611455591
 21
91.9784893708459
  0
LINE
  5
226
100
AcDbEntity
  8
0-0
100
AcDbLine
  6
BYLAYER
370
13
 10
164.883611455592
 20
85.9784893708443
 11
172.88361145559
 21
85.9784893708446
  0
LINE
  5
227
100
AcDbEntity
  8
0-0
100
AcDbLine
  6
BYLAYER
370
13
 10
262.88361145559
 20
85.9784893708459
 11
270.883611455592
 21
85.9784893708459
  0
LINE
  5
228
100
AcDbEntity
  8
0-0
100
AcDbLine
  6
BYLAYER
370
13
 10
184.383611455589
 20
125.478489370844
 11
184.383611455592
 21
93.4784893708446
  0
LINE
  5
229
100
AcDbEntity
  8
0-0
100
AcDbLine
  6
BYLAYER
370
13
 10
179.383611455589
 20
125.478489370844
 11
179.383611455592
 21
93.4784893708441
  0
LINE
  5
22A
100
AcDbEntity
  8
0-0
100
AcDbLine
  6
BYLAYER
370
13
 10
179.08361145559
 20
84.4784893708443
 11
184.68361145559
 21
84.4784893708446
  0
ARC
  5
22B
100
AcDbEntity
  8
0-0
100
AcDbCircle
  6
BYLAYER
370
13
 10
179.08361145559
 20
84.6784893708444
 40
0.2
100
AcDbArc
 50
180
 51
270
  0
LINE
  5
22C
100
AcDbEntity
  8
0-0
100
AcDbLine
  6
BYLAYER
370
13
 10
178.88361145559
 20
93.2784893708443
 11
178.88361145559
 21
84.6784893708444
  0
LINE
  5
22D
100
AcDbEntity
  8
0-0
100
AcDbLine
  6
BYLAYER
370
13
 10
184.88361145559
 20
93.2784893708445
 11
184.88361145559
 21
84.6784893708444
  0
ARC
  5
22E
100
AcDbEntity
  8
0-0
100
AcDbCircle
  6
BYLAYER
370
13
 10
184.68361145559
 20
84.6784893708444
 40
0.2
100
AcDbArc
 50
270
 51
0
  0
LINE
  5
22F
100
AcDbEntity
  8
0-0
100
AcDbLine
  6
BYLAYER
370
13
 10
179.08361145559
 20
93.4784893708443
 11
184.68361145559
 21
93.4784893708446
  0
ARC
  5
230
100
AcDbEntity
  8
0-0
100
AcDbCircle
  6
BYLAYER
370
13
 10
184.68361145559
 20
93.2784893708445
 40
0.2
100
AcDbArc
 50
0
 51
90
  0
ARC
  5
231
100
AcDbEntity
  8
0-0
100
AcDbCircle
  6
BYLAYER
370
13
 10
179.08361145559
 20
93.2784893708443
 40
0.2
100
AcDbArc
 50
90
 51
180
  0
LINE
  5
232
100
AcDbEntity
  8
0-0
100
AcDbLine
  6
BYLAYER
370
13
 10
190.383611455589
 20
125.478489370844
 11
190.383611455592
 21
93.4784893708446
  0
LINE
  5
233
100
AcDbEntity
  8
0-0
100
AcDbLine
  6
BYLAYER
370
13
 10
185.383611455589
 20
125.478489370844
 11
185.383611455592
 21
93.4784893708441
  0
LINE
  5
234
100
AcDbEntity
  8
0-0
100
AcDbLine
  6
BYLAYER
370
13
 10
185.08361145559
 20
84.4784893708443
 11
190.68361145559
 21
84.4784893708446
  0
ARC
  5
235
100
AcDbEntity
  8
0-0
100
AcDbCircle
  6
BYLAYER
370
13
 10
185.08361145559
 20
84.6784893708444
 40
0.2
100
AcDbArc
 50
180
 51
270
  0
LINE
  5
236
100
AcDbEntity
  8
0-0
100
AcDbLine
  6
BYLAYER
370
13
 10
184.88361145559
 20
93.2784893708443
 11
184.88361145559
 21
84.6784893708444
  0
LINE
  5
237
100
AcDbEntity
  8
0-0
100
AcDbLine
  6
BYLAYER
370
13
 10
190.88361145559
 20
93.2784893708445
 11
190.88361145559
 21
84.6784893708444
  0
ARC
  5
238
100
AcDbEntity
  8
0-0
100
AcDbCircle
  6
BYLAYER
370
13
 10
190.68361145559
 20
84.6784893708444
 40
0.2
100
AcDbArc
 50
270
 51
0
  0
LINE
  5
239
100
AcDbEntity
  8
0-0
100
AcDbLine
  6
BYLAYER
370
13
 10
185.08361145559
 20
93.4784893708443
 11
190.68361145559
 21
93.4784893708446
  0
ARC
  5
23A
100
AcDbEntity
  8
0-0
100
AcDbCircle
  6
BYLAYER
370
13
 10
190.68361145559
 20
93.2784893708445
 40
0.2
100
AcDbArc
 50
0
 51
90
  0
ARC
  5
23B
100
AcDbEntity
  8
0-0
100
AcDbCircle
  6
BYLAYER
370
13
 10
185.08361145559
 20
93.2784893708443
 40
0.2
100
AcDbArc
 50
90
 51
180
  0
LINE
  5
23C
100
AcDbEntity
  8
0-0
100
AcDbLine
  6
BYLAYER
370
13
 10
196.383611455589
 20
125.478489370844
 11
196.383611455592
 21
93.4784893708446
  0
LINE
  5
23D
100
AcDbEntity
  8
0-0
100
AcDbLine
  6
BYLAYER
370
13
 10
191.383611455589
 20
125.478489370844
 11
191.383611455592
 21
93.4784893708441
  0
LINE
  5
23E
100
AcDbEntity
  8
0-0
100
AcDbLine
  6
BYLAYER
370
13
 10
191.08361145559
 20
84.4784893708443
 11
196.68361145559
 21
84.4784893708446
  0
ARC
  5
23F
100
AcDbEntity
  8
0-0
100
AcDbCircle
  6
BYLAYER
370
13
 10
191.08361145559
 20
84.6784893708444
 40
0.2
100
AcDbArc
 50
180
 51
270
  0
LINE
  5
240
100
AcDbEntity
  8
0-0
100
AcDbLine
  6
BYLAYER
370
13
 10
190.88361145559
 20
93.2784893708443
 11
190.88361145559
 21
84.6784893708444
  0
LINE
  5
241
100
AcDbEntity
  8
0-0
100
AcDbLine
  6
BYLAYER
370
13
 10
196.88361145559
 20
93.2784893708445
 11
196.88361145559
 21
84.6784893708444
  0
ARC
  5
242
100
AcDbEntity
  8
0-0
100
AcDbCircle
  6
BYLAYER
370
13
 10
196.68361145559
 20
84.6784893708444
 40
0.2
100
AcDbArc
 50
270
 51
0
  0
LINE
  5
243
100
AcDbEntity
  8
0-0
100
AcDbLine
  6
BYLAYER
370
13
 10
191.08361145559
 20
93.4784893708443
 11
196.68361145559
 21
93.4784893708446
  0
ARC
  5
244
100
AcDbEntity
  8
0-0
100
AcDbCircle
  6
BYLAYER
370
13
 10
196.68361145559
 20
93.2784893708445
 40
0.2
100
AcDbArc
 50
0
 51
90
  0
ARC
  5
245
100
AcDbEntity
  8
0-0
100
AcDbCircle
  6
BYLAYER
370
13
 10
191.08361145559
 20
93.2784893708443
 40
0.2
100
AcDbArc
 50
90
 51
180
  0
LINE
  5
246
100
AcDbEntity
  8
0-0
100
AcDbLine
  6
BYLAYER
370
13
 10
202.383611455589
 20
125.478489370844
 11
202.383611455592
 21
93.4784893708446
  0
LINE
  5
247
100
AcDbEntity
  8
0-0
100
AcDbLine
  6
BYLAYER
370
13
 10
197.383611455589
 20
125.478489370844
 11
197.383611455592
 21
93.4784893708441
  0
LINE
  5
248
100
AcDbEntity
  8
0-0
100
AcDbLine
  6
BYLAYER
370
13
 10
197.08361145559
 20
84.4784893708443
 11
202.68361145559
 21
84.4784893708446
  0
ARC
  5
249
100
AcDbEntity
  8
0-0
100
AcDbCircle
  6
BYLAYER
370
13
 10
197.08361145559
 20
84.6784893708444
 40
0.2
100
AcDbArc
 50
180
 51
270
  0
LINE
  5
24A
100
AcDbEntity
  8
0-0
100
AcDbLine
  6
BYLAYER
370
13
 10
196.88361145559
 20
93.2784893708443
 11
196.88361145559
 21
84.6784893708444
  0
LINE
  5
24B
100
AcDbEntity
  8
0-0
100
AcDbLine
  6
BYLAYER
370
13
 10
202.88361145559
 20
93.2784893708445
 11
202.88361145559
 21
84.6784893708444
  0
ARC
  5
24C
100
AcDbEntity
  8
0-0
100
AcDbCircle
  6
BYLAYER
370
13
 10
202.68361145559
 20
84.6784893708444
 40
0.2
100
AcDbArc
 50
270
 51
0
  0
LINE
  5
24D
100
AcDbEntity
  8
0-0
100
AcDbLine
  6
BYLAYER
370
13
 10
197.08361145559
 20
93.4784893708443
 11
202.68361145559
 21
93.4784893708446
  0
ARC
  5
24E
100
AcDbEntity
  8
0-0
100
AcDbCircle
  6
BYLAYER
370
13
 10
202.68361145559
 20
93.2784893708445
 40
0.2
100
AcDbArc
 50
0
 51
90
  0
ARC
  5
24F
100
AcDbEntity
  8
0-0
100
AcDbCircle
  6
BYLAYER
370
13
 10
197.08361145559
 20
93.2784893708443
 40
0.2
100
AcDbArc
 50
90
 51
180
  0
LINE
  5
250
100
AcDbEntity
  8
0-0
100
AcDbLine
  6
BYLAYER
370
13
 10
208.383611455589
 20
125.478489370844
 11
208.383611455592
 21
93.4784893708446
  0
LINE
  5
251
100
AcDbEntity
  8
0-0
100
AcDbLine
  6
BYLAYER
370
13
 10
203.383611455589
 20
125.478489370844
 11
203.383611455592
 21
93.4784893708441
  0
LINE
  5
252
100
AcDbEntity
  8
0-0
100
AcDbLine
  6
BYLAYER
370
13
 10
203.08361145559
 20
84.4784893708443
 11
208.68361145559
 21
84.4784893708446
  0
ARC
  5
253
100
AcDbEntity
  8
0-0
100
AcDbCircle
  6
BYLAYER
370
13
 10
203.08361145559
 20
84.6784893708444
 40
0.2
100
AcDbArc
 50
180
 51
270
  0
LINE
  5
254
100
AcDbEntity
  8
0-0
100
AcDbLine
  6
BYLAYER
370
13
 10
202.88361145559
 20
93.2784893708443
 11
202.88361145559
 21
84.6784893708444
  0
LINE
  5
255
100
AcDbEntity
  8
0-0
100
AcDbLine
  6
BYLAYER
370
13
 10
208.88361145559
 20
93.2784893708445
 11
208.88361145559
 21
84.6784893708444
  0
ARC
  5
256
100
AcDbEntity
  8
0-0
100
AcDbCircle
  6
BYLAYER
370
13
 10
208.68361145559
 20
84.6784893708444
 40
0.2
100
AcDbArc
 50
270
 51
0
  0
LINE
  5
257
100
AcDbEntity
  8
0-0
100
AcDbLine
  6
BYLAYER
370
13
 10
203.08361145559
 20
93.4784893708443
 11
208.683611455591
 21
93.4784893708446
  0
ARC
  5
258
100
AcDbEntity
  8
0-0
100
AcDbCircle
  6
BYLAYER
370
13
 10
208.683611455591
 20
93.2784893708445
 40
0.2
100
AcDbArc
 50
0
 51
90
  0
ARC
  5
259
100
AcDbEntity
  8
0-0
100
AcDbCircle
  6
BYLAYER
370
13
 10
203.08361145559
 20
93.2784893708443
 40
0.2
100
AcDbArc
 50
90
 51
180
  0
LINE
  5
25A
100
AcDbEntity
  8
0-0
100
AcDbLine
  6
BYLAYER
370
13
 10
214.383611455589
 20
125.478489370844
 11
214.383611455592
 21
93.4784893708446
  0
LINE
  5
25B
100
AcDbEntity
  8
0-0
100
AcDbLine
  6
BYLAYER
370
13
 10
209.383611455589
 20
125.478489370844
 11
209.383611455592
 21
93.4784893708441
  0
LINE
  5
25C
100
AcDbEntity
  8
0-0
100
AcDbLine
  6
BYLAYER
370
13
 10
209.08361145559
 20
84.4784893708443
 11
214.68361145559
 21
84.4784893708446
  0
ARC
  5
25D
100
AcDbEntity
  8
0-0
100
AcDbCircle
  6
BYLAYER
370
13
 10
209.08361145559
 20
84.6784893708444
 40
0.2
100
AcDbArc
 50
180
 51
270
  0
LINE
  5
25E
100
AcDbEntity
  8
0-0
100
AcDbLine
  6
BYLAYER
370
13
 10
208.88361145559
 20
93.2784893708443
 11
208.88361145559
 21
84.6784893708444
  0
LINE
  5
25F
100
AcDbEntity
  8
0-0
100
AcDbLine
  6
BYLAYER
370
13
 10
214.88361145559
 20
93.2784893708445
 11
214.88361145559
 21
84.6784893708444
  0
ARC
  5
260
100
AcDbEntity
  8
0-0
100
AcDbCircle
  6
BYLAYER
370
13
 10
214.68361145559
 20
84.6784893708444
 40
0.2
100
AcDbArc
 50
270
 51
0
  0
LINE
  5
261
100
AcDbEntity
  8
0-0
100
AcDbLine
  6
BYLAYER
370
13
 10
209.08361145559
 20
93.4784893708443
 11
214.683611455591
 21
93.4784893708446
  0
ARC
  5
262
100
AcDbEntity
  8
0-0
100
AcDbCircle
  6
BYLAYER
370
13
 10
214.683611455591
 20
93.2784893708445
 40
0.2
100
AcDbArc
 50
0
 51
90
  0
ARC
  5
263
100
AcDbEntity
  8
0-0
100
AcDbCircle
  6
BYLAYER
370
13
 10
209.08361145559
 20
93.2784893708443
 40
0.2
100
AcDbArc
 50
90
 51
180
  0
LINE
  5
264
100
AcDbEntity
  8
0-0
100
AcDbLine
  6
BYLAYER
370
13
 10
220.383611455589
 20
125.478489370844
 11
220.383611455592
 21
93.4784893708446
  0
LINE
  5
265
100
AcDbEntity
  8
0-0
100
AcDbLine
  6
BYLAYER
370
13
 10
215.383611455589
 20
125.478489370844
 11
215.383611455592
 21
93.4784893708441
  0
LINE
  5
266
100
AcDbEntity
  8
0-0
100
AcDbLine
  6
BYLAYER
370
13
 10
215.08361145559
 20
84.4784893708443
 11
220.68361145559
 21
84.4784893708446
  0
ARC
  5
267
100
AcDbEntity
  8
0-0
100
AcDbCircle
  6
BYLAYER
370
13
 10
215.08361145559
 20
84.6784893708444
 40
0.2
100
AcDbArc
 50
180
 51
270
  0
LINE
  5
268
100
AcDbEntity
  8
0-0
100
AcDbLine
  6
BYLAYER
370
13
 10
214.88361145559
 20
93.2784893708443
 11
214.88361145559
 21
84.6784893708444
  0
LINE
  5
269
100
AcDbEntity
  8
0-0
100
AcDbLine
  6
BYLAYER
370
13
 10
220.88361145559
 20
93.2784893708445
 11
220.88361145559
 21
84.6784893708444
  0
ARC
  5
26A
100
AcDbEntity
  8
0-0
100
AcDbCircle
  6
BYLAYER
370
13
 10
220.68361145559
 20
84.6784893708444
 40
0.2
100
AcDbArc
 50
270
 51
0
  0
LINE
  5
26B
100
AcDbEntity
  8
0-0
100
AcDbLine
  6
BYLAYER
370
13
 10
215.08361145559
 20
93.4784893708443
 11
220.683611455591
 21
93.4784893708446
  0
ARC
  5
26C
100
AcDbEntity
  8
0-0
100
AcDbCircle
  6
BYLAYER
370
13
 10
220.683611455591
 20
93.2784893708445
 40
0.2
100
AcDbArc
 50
0
 51
90
  0
ARC
  5
26D
100
AcDbEntity
  8
0-0
100
AcDbCircle
  6
BYLAYER
370
13
 10
215.08361145559
 20
93.2784893708443
 40
0.2
100
AcDbArc
 50
90
 51
180
  0
LINE
  5
26E
100
AcDbEntity
  8
0-0
100
AcDbLine
  6
BYLAYER
370
13
 10
226.383611455589
 20
125.478489370845
 11
226.383611455592
 21
93.4784893708446
  0
LINE
  5
26F
100
AcDbEntity
  8
0-0
100
AcDbLine
  6
BYLAYER
370
13
 10
221.383611455589
 20
125.478489370844
 11
221.383611455592
 21
93.4784893708441
  0
LINE
  5
270
100
AcDbEntity
  8
0-0
100
AcDbLine
  6
BYLAYER
370
13
 10
221.08361145559
 20
84.4784893708443
 11
226.68361145559
 21
84.4784893708446
  0
ARC
  5
271
100
AcDbEntity
  8
0-0
100
AcDbCircle
  6
BYLAYER
370
13
 10
221.08361145559
 20
84.6784893708444
 40
0.2
100
AcDbArc
 50
180
 51
270
  0
LINE
  5
272
100
AcDbEntity
  8
0-0
100
AcDbLine
  6
BYLAYER
370
13
 10
220.88361145559
 20
93.2784893708443
 11
220.88361145559
 21
84.6784893708444
  0
LINE
  5
273
100
AcDbEntity
  8
0-0
100
AcDbLine
  6
BYLAYER
370
13
 10
226.88361145559
 20
93.2784893708445
 11
226.88361145559
 21
84.6784893708444
  0
ARC
  5
274
100
AcDbEntity
  8
0-0
100
AcDbCircle
  6
BYLAYER
370
13
 10
226.68361145559
 20
84.6784893708444
 40
0.2
100
AcDbArc
 50
270
 51
0
  0
LINE
  5
275
100
AcDbEntity
  8
0-0
100
AcDbLine
  6
BYLAYER
370
13
 10
221.08361145559
 20
93.4784893708443
 11
226.683611455591
 21
93.4784893708446
  0
ARC
  5
276
100
AcDbEntity
  8
0-0
100
AcDbCircle
  6
BYLAYER
370
13
 10
226.683611455591
 20
93.2784893708445
 40
0.2
100
AcDbArc
 50
0
 51
90
  0
ARC
  5
277
100
AcDbEntity
  8
0-0
100
AcDbCircle
  6
BYLAYER
370
13
 10
221.08361145559
 20
93.2784893708443
 40
0.2
100
AcDbArc
 50
90
 51
180
  0
LINE
  5
278
100
AcDbEntity
  8
0-0
100
AcDbLine
  6
BYLAYER
370
13
 10
232.383611455589
 20
125.478489370845
 11
232.383611455592
 21
93.4784893708446
  0
LINE
  5
279
100
AcDbEntity
  8
0-0
100
AcDbLine
  6
BYLAYER
370
13
 10
227.383611455589
 20
125.478489370844
 11
227.383611455592
 21
93.4784893708441
  0
LINE
  5
27A
100
AcDbEntity
  8
0-0
100
AcDbLine
  6
BYLAYER
370
13
 10
227.08361145559
 20
84.4784893708443
 11
232.68361145559
 21
84.4784893708446
  0
ARC
  5
27B
100
AcDbEntity
  8
0-0
100
AcDbCircle
  6
BYLAYER
370
13
 10
227.08361145559
 20
84.6784893708444
 40
0.2
100
AcDbArc
 50
180
 51
270
  0
LINE
  5
27C
100
AcDbEntity
  8
0-0
100
AcDbLine
  6
BYLAYER
370
13
 10
226.88361145559
 20
93.2784893708443
 11
226.88361145559
 21
84.6784893708444
  0
LINE
  5
27D
100
AcDbEntity
  8
0-0
100
AcDbLine
  6
BYLAYER
370
13
 10
232.88361145559
 20
93.2784893708445
 11
232.88361145559
 21
84.6784893708444
  0
ARC
  5
27E
100
AcDbEntity
  8
0-0
100
AcDbCircle
  6
BYLAYER
370
13
 10
232.68361145559
 20
84.6784893708444
 40
0.2
100
AcDbArc
 50
270
 51
0
  0
LINE
  5
27F
100
AcDbEntity
  8
0-0
100
AcDbLine
  6
BYLAYER
370
13
 10
227.08361145559
 20
93.4784893708443
 11
232.683611455591
 21
93.4784893708446
  0
ARC
  5
280
100
AcDbEntity
  8
0-0
100
AcDbCircle
  6
BYLAYER
370
13
 10
232.683611455591
 20
93.2784893708445
 40
0.2
100
AcDbArc
 50
0
 51
90
  0
ARC
  5
281
100
AcDbEntity
  8
0-0
100
AcDbCircle
  6
BYLAYER
370
13
 10
227.08361145559
 20
93.2784893708443
 40
0.2
100
AcDbArc
 50
90
 51
180
  0
LINE
  5
282
100
AcDbEntity
  8
0-0
100
AcDbLine
  6
BYLAYER
370
13
 10
238.383611455589
 20
125.478489370845
 11
238.383611455592
 21
93.4784893708446
  0
LINE
  5
283
100
AcDbEntity
  8
0-0
100
AcDbLine
  6
BYLAYER
370
13
 10
233.383611455589
 20
125.478489370844
 11
233.383611455592
 21
93.4784893708441
  0
LINE
  5
284
100
AcDbEntity
  8
0-0
100
AcDbLine
  6
BYLAYER
370
13
 10
233.08361145559
 20
84.4784893708443
 11
238.68361145559
 21
84.4784893708446
  0
ARC
  5
285
100
AcDbEntity
  8
0-0
100
AcDbCircle
  6
BYLAYER
370
13
 10
233.08361145559
 20
84.6784893708444
 40
0.2
100
AcDbArc
 50
180
 51
270
  0
LINE
  5
286
100
AcDbEntity
  8
0-0
100
AcDbLine
  6
BYLAYER
370
13
 10
232.88361145559
 20
93.2784893708443
 11
232.88361145559
 21
84.6784893708444
  0
LINE
  5
287
100
AcDbEntity
  8
0-0
100
AcDbLine
  6
BYLAYER
370
13
 10
238.88361145559
 20
93.2784893708445
 11
238.88361145559
 21
84.6784893708444
  0
ARC
  5
288
100
AcDbEntity
  8
0-0
100
AcDbCircle
  6
BYLAYER
370
13
 10
238.68361145559
 20
84.6784893708444
 40
0.2
100
AcDbArc
 50
270
 51
0
  0
LINE
  5
289
100
AcDbEntity
  8
0-0
100
AcDbLine
  6
BYLAYER
370
13
 10
233.08361145559
 20
93.4784893708443
 11
238.683611455591
 21
93.4784893708446
  0
ARC
  5
28A
100
AcDbEntity
  8
0-0
100
AcDbCircle
  6
BYLAYER
370
13
 10
238.683611455591
 20
93.2784893708445
 40
0.2
100
AcDbArc
 50
0
 51
90
  0
ARC
  5
28B
100
AcDbEntity
  8
0-0
100
AcDbCircle
  6
BYLAYER
370
13
 10
233.08361145559
 20
93.2784893708443
 40
0.2
100
AcDbArc
 50
90
 51
180
  0
LINE
  5
28C
100
AcDbEntity
  8
0-0
100
AcDbLine
  6
BYLAYER
370
13
 10
244.383611455589
 20
125.478489370845
 11
244.383611455592
 21
93.4784893708446
  0
LINE
  5
28D
100
AcDbEntity
  8
0-0
100
AcDbLine
  6
BYLAYER
370
13
 10
239.38361145559
 20
125.478489370845
 11
239.383611455592
 21
93.4784893708441
  0
LINE
  5
28E
100
AcDbEntity
  8
0-0
100
AcDbLine
  6
BYLAYER
370
13
 10
239.08361145559
 20
84.4784893708443
 11
244.68361145559
 21
84.4784893708446
  0
ARC
  5
28F
100
AcDbEntity
  8
0-0
100
AcDbCircle
  6
BYLAYER
370
13
 10
239.08361145559
 20
84.6784893708444
 40
0.2
100
AcDbArc
 50
180
 51
270
  0
LINE
  5
290
100
AcDbEntity
  8
0-0
100
AcDbLine
  6
BYLAYER
370
13
 10
238.88361145559
 20
93.2784893708443
 11
238.88361145559
 21
84.6784893708444
  0
LINE
  5
291
100
AcDbEntity
  8
0-0
100
AcDbLine
  6
BYLAYER
370
13
 10
244.88361145559
 20
93.2784893708445
 11
244.88361145559
 21
84.6784893708444
  0
ARC
  5
292
100
AcDbEntity
  8
0-0
100
AcDbCircle
  6
BYLAYER
370
13
 10
244.68361145559
 20
84.6784893708444
 40
0.2
100
AcDbArc
 50
270
 51
0
  0
LINE
  5
293
100
AcDbEntity
  8
0-0
100
AcDbLine
  6
BYLAYER
370
13
 10
239.08361145559
 20
93.4784893708443
 11
244.683611455591
 21
93.4784893708446
  0
ARC
  5
294
100
AcDbEntity
  8
0-0
100
AcDbCircle
  6
BYLAYER
370
13
 10
244.683611455591
 20
93.2784893708445
 40
0.2
100
AcDbArc
 50
0
 51
90
  0
ARC
  5
295
100
AcDbEntity
  8
0-0
100
AcDbCircle
  6
BYLAYER
370
13
 10
239.08361145559
 20
93.2784893708443
 40
0.2
100
AcDbArc
 50
90
 51
180
  0
LINE
  5
296
100
AcDbEntity
  8
0-0
100
AcDbLine
  6
BYLAYER
370
13
 10
250.383611455589
 20
125.478489370845
 11
250.383611455592
 21
93.4784893708446
  0
LINE
  5
297
100
AcDbEntity
  8
0-0
100
AcDbLine
  6
BYLAYER
370
13
 10
245.383611455589
 20
125.478489370845
 11
245.383611455592
 21
93.4784893708441
  0
LINE
  5
298
100
AcDbEntity
  8
0-0
100
AcDbLine
  6
BYLAYER
370
13
 10
245.08361145559
 20
84.4784893708443
 11
250.68361145559
 21
84.4784893708446
  0
ARC
  5
299
100
AcDbEntity
  8
0-0
100
AcDbCircle
  6
BYLAYER
370
13
 10
245.08361145559
 20
84.6784893708444
 40
0.2
100
AcDbArc
 50
180
 51
270
  0
LINE
  5
29A
100
AcDbEntity
  8
0-0
100
AcDbLine
  6
BYLAYER
370
13
 10
244.88361145559
 20
93.2784893708443
 11
244.88361145559
 21
84.6784893708444
  0
LINE
  5
29B
100
AcDbEntity
  8
0-0
100
AcDbLine
  6
BYLAYER
370
13
 10
250.88361145559
 20
93.2784893708445
 11
250.88361145559
 21
84.6784893708444
  0
ARC
  5
29C
100
AcDbEntity
  8
0-0
100
AcDbCircle
  6
BYLAYER
370
13
 10
250.68361145559
 20
84.6784893708444
 40
0.2
100
AcDbArc
 50
270
 51
0
  0
LINE
  5
29D
100
AcDbEntity
  8
0-0
100
AcDbLine
  6
BYLAYER
370
13
 10
245.08361145559
 20
93.4784893708443
 11
250.683611455591
 21
93.4784893708446
  0
ARC
  5
29E
100
AcDbEntity
  8
0-0
100
AcDbCircle
  6
BYLAYER
370
13
 10
250.683611455591
 20
93.2784893708445
 40
0.2
100
AcDbArc
 50
0
 51
90
  0
ARC
  5
29F
100
AcDbEntity
  8
0-0
100
AcDbCircle
  6
BYLAYER
370
13
 10
245.08361145559
 20
93.2784893708443
 40
0.2
100
AcDbArc
 50
90
 51
180
  0
LINE
  5
2A0
100
AcDbEntity
  8
0-0
100
AcDbLine
  6
BYLAYER
370
13
 10
256.383611455589
 20
125.478489370845
 11
256.383611455592
 21
93.4784893708446
  0
LINE
  5
2A1
100
AcDbEntity
  8
0-0
100
AcDbLine
  6
BYLAYER
370
13
 10
251.38361145559
 20
125.478489370845
 11
251.383611455592
 21
93.4784893708441
  0
LINE
  5
2A2
100
AcDbEntity
  8
0-0
100
AcDbLine
  6
BYLAYER
370
13
 10
251.08361145559
 20
84.4784893708443
 11
256.68361145559
 21
84.4784893708446
  0
ARC
  5
2A3
100
AcDbEntity
  8
0-0
100
AcDbCircle
  6
BYLAYER
370
13
 10
251.08361145559
 20
84.6784893708444
 40
0.2
100
AcDbArc
 50
180
 51
270
  0
LINE
  5
2A4
100
AcDbEntity
  8
0-0
100
AcDbLine
  6
BYLAYER
370
13
 10
250.88361145559
 20
93.2784893708443
 11
250.88361145559
 21
84.6784893708444
  0
LINE
  5
2A5
100
AcDbEntity
  8
0-0
100
AcDbLine
  6
BYLAYER
370
13
 10
256.883611455591
 20
93.2784893708445
 11
256.88361145559
 21
84.6784893708444
  0
ARC
  5
2A6
100
AcDbEntity
  8
0-0
100
AcDbCircle
  6
BYLAYER
370
13
 10
256.68361145559
 20
84.6784893708444
 40
0.2
100
AcDbArc
 50
270
 51
0
  0
LINE
  5
2A7
100
AcDbEntity
  8
0-0
100
AcDbLine
  6
BYLAYER
370
13
 10
251.08361145559
 20
93.4784893708443
 11
256.683611455591
 21
93.4784893708446
  0
ARC
  5
2A8
100
AcDbEntity
  8
0-0
100
AcDbCircle
  6
BYLAYER
370
13
 10
256.683611455591
 20
93.2784893708445
 40
0.2
100
AcDbArc
 50
0
 51
90
  0
ARC
  5
2A9
100
AcDbEntity
  8
0-0
100
AcDbCircle
  6
BYLAYER
370
13
 10
251.08361145559
 20
93.2784893708443
 40
0.2
100
AcDbArc
 50
90
 51
180
  0
LINE
  5
2AA
100
AcDbEntity
  8
0-0
100
AcDbLine
  6
BYLAYER
370
13
 10
262.383611455589
 20
125.478489370845
 11
262.383611455592
 21
93.4784893708446
  0
LINE
  5
2AB
100
AcDbEntity
  8
0-0
100
AcDbLine
  6
BYLAYER
370
13
 10
257.383611455589
 20
125.478489370845
 11
257.383611455592
 21
93.4784893708441
  0
LINE
  5
2AC
100
AcDbEntity
  8
0-0
100
AcDbLine
  6
BYLAYER
370
13
 10
257.08361145559
 20
84.4784893708443
 11
262.68361145559
 21
84.4784893708446
  0
ARC
  5
2AD
100
AcDbEntity
  8
0-0
100
AcDbCircle
  6
BYLAYER
370
13
 10
257.08361145559
 20
84.6784893708444
 40
0.2
100
AcDbArc
 50
180
 51
270
  0
LINE
  5
2AE
100
AcDbEntity
  8
0-0
100
AcDbLine
  6
BYLAYER
370
13
 10
256.88361145559
 20
93.2784893708443
 11
256.88361145559
 21
84.6784893708444
  0
LINE
  5
2AF
100
AcDbEntity
  8
0-0
100
AcDbLine
  6
BYLAYER
370
13
 10
262.883611455591
 20
93.2784893708445
 11
262.88361145559
 21
84.6784893708444
  0
ARC
  5
2B0
100
AcDbEntity
  8
0-0
100
AcDbCircle
  6
BYLAYER
370
13
 10
262.68361145559
 20
84.6784893708444
 40
0.2
100
AcDbArc
 50
270
 51
0
  0
LINE
  5
2B1
100
AcDbEntity
  8
0-0
100
AcDbLine
  6
BYLAYER
370
13
 10
257.08361145559
 20
93.4784893708443
 11
262.683611455591
 21
93.4784893708446
  0
ARC
  5
2B2
100
AcDbEntity
  8
0-0
100
AcDbCircle
  6
BYLAYER
370
13
 10
262.683611455591
 20
93.2784893708445
 40
0.2
100
AcDbArc
 50
0
 51
90
  0
ARC
  5
2B3
100
AcDbEntity
  8
0-0
100
AcDbCircle
  6
BYLAYER
370
13
 10
257.08361145559
 20
93.2784893708443
 40
0.2
100
AcDbArc
 50
90
 51
180
  0
LINE
  5
2B4
100
AcDbEntity
  8
0-0
100
AcDbLine
  6
BYLAYER
370
13
 10
163.68361145559
 20
96.478489370845
 11
160.38361145559
 21
96.4784893708434
  0
LINE
  5
2B5
100
AcDbEntity
  8
0-0
100
AcDbLine
  6
BYLAYER
370
13
 10
163.683611455591
 20
115.478489370845
 11
160.38361145559
 21
115.478489370845
  0
LINE
  5
2B6
100
AcDbEntity
  8
0-0
100
AcDbLine
  6
BYLAYER
370
13
 10
160.38361145559
 20
115.478489370845
 11
160.38361145559
 21
96.478489370845
  0
LINE
  5
2B7
100
AcDbEntity
  8
0-0
100
AcDbLine
  6
BYLAYER
370
13
 10
164.38361145559
 20
145.728489370846
 11
164.38361145559
 21
140.228489370846
  0
LINE
  5
2B8
100
AcDbEntity
  8
0-0
100
AcDbLine
  6
BYLAYER
370
13
 10
164.38361145559
 20
145.728489370846
 11
167.38361145559
 21
145.728489370846
  0
LINE
  5
2B9
100
AcDbEntity
  8
0-0
100
AcDbLine
  6
BYLAYER
370
13
 10
164.38361145559
 20
140.228489370846
 11
167.38361145559
 21
140.228489370846
  0
LINE
  5
2BA
100
AcDbEntity
  8
0-0
100
AcDbLine
  6
BYLAYER
370
13
 10
164.38361145559
 20
138.728489370846
 11
167.38361145559
 21
138.728489370846
  0
LINE
  5
2BB
100
AcDbEntity
  8
0-0
100
AcDbLine
  6
BYLAYER
370
13
 10
268.383611455591
 20
162.478489370843
 11
268.383611455591
 21
159.878489370846
  0
LINE
  5
2BC
100
AcDbEntity
  8
0-0
100
AcDbLine
  6
BYLAYER
370
13
 10
264.38361145559
 20
162.478489370843
 11
264.38361145559
 21
159.878489370846
  0
LINE
  5
2BD
100
AcDbEntity
  8
0-0
100
AcDbLine
  6
BYLAYER
370
13
 10
167.38361145559
 20
162.478489370843
 11
167.38361145559
 21
159.878489370845
  0
LINE
  5
2BE
100
AcDbEntity
  8
0-0
100
AcDbLine
  6
BYLAYER
370
13
 10
171.383611455587
 20
162.478489370843
 11
171.383611455588
 21
159.878489370845
  0
LINE
  5
2BF
100
AcDbEntity
  8
0-0
100
AcDbLine
  6
BYLAYER
370
13
 10
167.38361145559
 20
162.478489370843
 11
171.383611455587
 21
162.478489370843
  0
LINE
  5
2C0
100
AcDbEntity
  8
0-0
100
AcDbLine
  6
BYLAYER
370
13
 10
264.38361145559
 20
162.478489370843
 11
268.383611455591
 21
162.478489370843
  0
LINE
  5
2C1
100
AcDbEntity
  8
0-0
100
AcDbLine
  6
BYLAYER
370
13
 10
260.08361145559
 20
151.271650008212
 11
261.28361145559
 21
151.271650008212
  0
LINE
  5
2C2
100
AcDbEntity
  8
0-0
100
AcDbLine
  6
BYLAYER
370
13
 10
174.48361145559
 20
151.271650008211
 11
175.68361145559
 21
151.271650008211
  0
LINE
  5
2C3
100
AcDbEntity
  8
0-0
100
AcDbLine
  6
BYLAYER
370
13
 10
167.38361145559
 20
155.978489370845
 11
171.383611455588
 21
155.978489370845
  0
LINE
  5
2C4
100
AcDbEntity
  8
0-0
100
AcDbLine
  6
BYLAYER
370
13
 10
264.38361145559
 20
155.978489370846
 11
268.383611455591
 21
155.978489370846
  0
LINE
  5
2C5
100
AcDbEntity
  8
0-0
100
AcDbLine
  6
BYLAYER
370
13
 10
167.38361145559
 20
159.978489370845
 11
171.383611455588
 21
159.978489370845
  0
LINE
  5
2C6
100
AcDbEntity
  8
0-0
100
AcDbLine
  6
BYLAYER
370
13
 10
264.38361145559
 20
159.978489370846
 11
268.383611455591
 21
159.978489370846
  0
LINE
  5
2C7
100
AcDbEntity
  8
0-0
100
AcDbLine
  6
BYLAYER
370
13
 10
175.683611455589
 20
164.27165000821
 11
179.98361145559
 21
164.27165000821
  0
LINE
  5
2C8
100
AcDbEntity
  8
0-0
100
AcDbLine
  6
BYLAYER
370
13
 10
255.783611455589
 20
164.271650008213
 11
260.08361145559
 21
164.271650008213
  0
ARC
  5
2C9
100
AcDbEntity
  8
0-0
100
AcDbCircle
  6
BYLAYER
370
13
 10
175.683611455589
 20
163.071650008211
 40
1.2
100
AcDbArc
 50
90
 51
180
  0
LINE
  5
2CA
100
AcDbEntity
  8
0-0
100
AcDbLine
  6
BYLAYER
370
13
 10
175.683611455589
 20
163.071650008211
 11
260.08361145559
 21
163.071650008213
  0
LINE
  5
2CB
100
AcDbEntity
  8
0-0
100
AcDbLine
  6
BYLAYER
370
13
 10
179.98361145559
 20
164.372525631735
 11
179.983611455591
 21
163.071650008211
  0
LINE
  5
2CC
100
AcDbEntity
  8
0-0
100
AcDbLine
  6
BYLAYER
370
13
 10
255.783611455589
 20
164.372525631736
 11
255.783611455589
 21
163.071650008213
  0
LINE
  5
2CD
100
AcDbEntity
  8
0-0
100
AcDbLine
  6
BYLAYER
370
13
 10
174.483611455589
 20
166.278489370846
 11
174.483611455589
 21
159.878489370845
  0
LINE
  5
2CE
100
AcDbEntity
  8
0-0
100
AcDbLine
  6
BYLAYER
370
13
 10
174.483611455589
 20
156.078489370845
 11
174.48361145559
 21
151.271650008211
  0
LINE
  5
2CF
100
AcDbEntity
  8
0-0
100
AcDbLine
  6
BYLAYER
370
13
 10
175.683611455589
 20
163.071650008211
 11
175.68361145559
 21
159.878489370845
  0
LINE
  5
2D0
100
AcDbEntity
  8
0-0
100
AcDbLine
  6
BYLAYER
370
13
 10
175.68361145559
 20
156.078489370845
 11
175.68361145559
 21
151.271650008211
  0
LINE
  5
2D1
100
AcDbEntity
  8
0-0
100
AcDbLine
  6
BYLAYER
370
13
 10
261.28361145559
 20
166.278489370849
 11
261.28361145559
 21
159.878489370848
  0
LINE
  5
2D2
100
AcDbEntity
  8
0-0
100
AcDbLine
  6
BYLAYER
370
13
 10
261.28361145559
 20
156.078489370846
 11
261.28361145559
 21
151.271650008212
  0
ARC
  5
2D3
100
AcDbEntity
  8
0-0
100
AcDbCircle
  6
BYLAYER
370
13
 10
260.08361145559
 20
163.071650008213
 40
1.2
100
AcDbArc
 50
359.999999999994
 51
90
  0
LINE
  5
2D4
100
AcDbEntity
  8
0-0
100
AcDbLine
  6
BYLAYER
370
13
 10
260.08361145559
 20
163.071650008213
 11
260.08361145559
 21
159.878489370848
  0
LINE
  5
2D5
100
AcDbEntity
  8
0-0
100
AcDbLine
  6
BYLAYER
370
13
 10
260.08361145559
 20
156.078489370846
 11
260.08361145559
 21
151.271650008212
  0
LINE
  5
2D6
100
AcDbEntity
  8
0-0
100
AcDbLine
  6
BYLAYER
370
13
 10
175.683611455589
 20
167.478489370846
 11
260.08361145559
 21
167.478489370847
  0
ELLIPSE
  5
2D7
100
AcDbEntity
  8
0-0
100
AcDbEllipse
  6
BYLAYER
370
13
 10
191.98361145559
 20
164.372525631735
 30
0.0
 11
-12
 21
-1.6667071368881E-13
 31
0.0
210
0.0
220
0.0
230
1.0
 40
0.258830311592623
 41
4.71238898038469
 42
6.28318530717959
  0
ELLIPSE
  5
2D8
100
AcDbEntity
  8
0-0
100
AcDbEllipse
  6
BYLAYER
370
13
 10
243.783611455589
 20
164.372525631736
 30
0.0
 11
-12
 21
-1.6667071368881E-13
 31
0.0
210
0.0
220
0.0
230
1.0
 40
0.25883031159262
 41
3.14159265358979
 42
4.71238898038469
  0
LINE
  5
2D9
100
AcDbEntity
  8
0-0
100
AcDbLine
  6
BYLAYER
370
13
 10
191.98361145559
 20
166.329605159789
 11
243.783611455589
 21
166.32960515979
  0
ELLIPSE
  5
2DA
100
AcDbEntity
  8
0-0
100
AcDbEllipse
  6
BYLAYER
370
13
 10
191.98361145559
 20
163.223641420678
 30
0.0
 11
-12
 21
-1.6667071368881E-13
 31
0.0
210
0.0
220
0.0
230
1.0
 40
0.258830311592623
 41
4.71238898038469
 42
6.28318530717959
  0
ELLIPSE
  5
2DB
100
AcDbEntity
  8
0-0
100
AcDbEllipse
  6
BYLAYER
370
13
 10
243.783611455589
 20
163.223641420678
 30
0.0
 11
-12
 21
-1.6667071368881E-13
 31
0.0
210
0.0
220
0.0
230
1.0
 40
0.25883031159262
 41
3.14159265358979
 42
4.71238898038469
  0
LINE
  5
2DC
100
AcDbEntity
  8
0-0
100
AcDbLine
  6
BYLAYER
370
13
 10
271.38361145559
 20
145.728489370848
 11
271.38361145559
 21
140.228489370848
  0
LINE
  5
2DD
100
AcDbEntity
  8
0-0
100
AcDbLine
  6
BYLAYER
370
13
 10
271.38361145559
 20
145.728489370848
 11
268.38361145559
 21
145.728489370847
  0
LINE
  5
2DE
100
AcDbEntity
  8
0-0
100
AcDbLine
  6
BYLAYER
370
13
 10
271.38361145559
 20
140.228489370848
 11
268.38361145559
 21
140.228489370848
  0
LINE
  5
2DF
100
AcDbEntity
  8
0-0
100
AcDbLine
  6
BYLAYER
370
13
 10
271.38361145559
 20
138.728489370848
 11
268.38361145559
 21
138.728489370848
  0
LINE
  5
2E0
100
AcDbEntity
  8
0-0
100
AcDbLine
  6
BYLAYER
370
13
 10
160.68361145559
 20
91.7284893708443
 11
160.68361145559
 21
86.2284893708443
  0
LINE
  5
2E1
100
AcDbEntity
  8
0-0
100
AcDbLine
  6
BYLAYER
370
13
 10
160.68361145559
 20
86.2284893708443
 11
163.68361145559
 21
86.2284893708443
  0
LINE
  5
2E2
100
AcDbEntity
  8
0-0
100
AcDbLine
  6
BYLAYER
370
13
 10
160.68361145559
 20
91.7284893708443
 11
163.68361145559
 21
91.7284893708443
  0
LINE
  5
2E3
100
AcDbEntity
  8
0-0
100
AcDbLine
  6
BYLAYER
370
13
 10
275.083611455591
 20
91.7284893708457
 11
275.083611455591
 21
86.2284893708457
  0
LINE
  5
2E4
100
AcDbEntity
  8
0-0
100
AcDbLine
  6
BYLAYER
370
13
 10
275.083611455591
 20
86.2284893708457
 11
272.083611455591
 21
86.2284893708457
  0
LINE
  5
2E5
100
AcDbEntity
  8
0-0
100
AcDbLine
  6
BYLAYER
370
13
 10
275.083611455591
 20
91.7284893708457
 11
272.083611455591
 21
91.7284893708457
  0
ARC
  5
2E6
100
AcDbEntity
  8
0-0
100
AcDbCircle
  6
BYLAYER
370
13
 10
175.683611455589
 20
166.278489370846
 40
1.2
100
AcDbArc
 50
90
 51
180
  0
ARC
  5
2E7
100
AcDbEntity
  8
0-0
100
AcDbCircle
  6
BYLAYER
370
13
 10
260.08361145559
 20
166.278489370849
 40
1.2
100
AcDbArc
 50
359.999999999994
 51
90
  0
LINE
  5
2E8
100
AcDbEntity
  8
0-0
100
AcDbLine
  6
BYLAYER
370
13
 10
84.5836114555906
 20
145.478489370844
 11
84.5836114555903
 21
132.478489370845
  0
LINE
  5
2E9
100
AcDbEntity
  8
0-0
100
AcDbLine
  6
BYLAYER
370
13
 10
71.1836114555905
 20
145.478489370843
 11
71.1836114555905
 21
132.478489370845
  0
LINE
  5
2EA
100
AcDbEntity
  8
0-0
100
AcDbLine
  6
BYLAYER
370
13
 10
81.1836114555905
 20
145.478489370843
 11
81.1836114555905
 21
144.478489370846
  0
LINE
  5
2EB
100
AcDbEntity
  8
0-0
100
AcDbLine
  6
BYLAYER
370
13
 10
73.1836114555905
 20
145.478489370843
 11
73.1836114555905
 21
144.478489370846
  0
LINE
  5
2EC
100
AcDbEntity
  8
0-0
100
AcDbLine
  6
BYLAYER
370
13
 10
73.1836114555905
 20
141.50691649559
 11
73.1836114555905
 21
137.450062246097
  0
LINE
  5
2ED
100
AcDbEntity
  8
0-0
100
AcDbLine
  6
BYLAYER
370
13
 10
73.1836114555905
 20
145.478489370843
 11
81.1836114555905
 21
145.478489370843
  0
LINE
  5
2EE
100
AcDbEntity
  8
0-0
100
AcDbLine
  6
BYLAYER
370
13
 10
84.5836114555906
 20
160.478489370844
 11
84.5836114555906
 21
145.478489370844
  0
LINE
  5
2EF
100
AcDbEntity
  8
0-0
100
AcDbLine
  6
BYLAYER
370
13
 10
71.1836114555905
 20
160.478489370843
 11
71.1836114555905
 21
145.478489370843
  0
LINE
  5
2F0
100
AcDbEntity
  8
0-0
100
AcDbLine
  6
BYLAYER
370
13
 10
61.1836114555905
 20
132.478489370844
 11
61.1836114555907
 21
160.478489370843
  0
LINE
  5
2F1
100
AcDbEntity
  8
0-0
100
AcDbLine
  6
BYLAYER
370
13
 10
73.6836114555889
 20
145.478489370843
 11
73.6836114555889
 21
144.478489370846
  0
LINE
  5
2F2
100
AcDbEntity
  8
0-0
100
AcDbLine
  6
BYLAYER
370
13
 10
73.6836114555888
 20
141.006916495591
 11
73.6836114555888
 21
137.950062246096
  0
LINE
  5
2F3
100
AcDbEntity
  8
0-0
100
AcDbLine
  6
BYLAYER
370
13
 10
80.6836114555889
 20
145.478489370843
 11
80.6836114555889
 21
144.478489370846
  0
ARC
  5
2F4
100
AcDbEntity
  8
0-0
100
AcDbCircle
  6
BYLAYER
370
13
 10
65.1836114555905
 20
139.478489370844
 40
1
100
AcDbArc
 50
125.659087696141
 51
234.340912303859
  0
ARC
  5
2F5
100
AcDbEntity
  8
0-0
100
AcDbCircle
  6
BYLAYER
370
13
 10
65.1836114555905
 20
139.478489370844
 40
1
100
AcDbArc
 50
305.659087696141
 51
54.3409123038594
  0
ARC
  5
2F6
100
AcDbEntity
  8
0-0
100
AcDbCircle
  6
BYLAYER
370
13
 10
90.5836114555906
 20
139.478489370843
 40
1
100
AcDbArc
 50
305.659087696158
 51
54.3409123038594
  0
ARC
  5
2F7
100
AcDbEntity
  8
0-0
100
AcDbCircle
  6
BYLAYER
370
13
 10
90.5836114555906
 20
139.478489370843
 40
1
100
AcDbArc
 50
125.659087696141
 51
234.340912303842
  0
LINE
  5
2F8
100
AcDbEntity
  8
0-0
100
AcDbLine
  6
BYLAYER
370
13
 10
94.5836114555906
 20
155.978489370843
 11
94.5836114555906
 21
132.478489370845
  0
CIRCLE
  5
2F9
100
AcDbEntity
  8
0-0
100
AcDbCircle
  6
BYLAYER
370
13
 10
65.1836114555905
 20
142.978489370844
 40
2.75
  0
CIRCLE
  5
2FA
100
AcDbEntity
  8
0-0
100
AcDbCircle
  6
BYLAYER
370
13
 10
90.5836114555906
 20
142.978489370843
 40
2.75
  0
LINE
  5
2FB
100
AcDbEntity
  8
0-0
100
AcDbLine
  6
BYLAYER
370
13
 10
268.383611455587
 20
219.59369473916
 11
268.383611455587
 21
212.593694739159
  0
LINE
  5
2FC
100
AcDbEntity
  8
0-0
100
AcDbLine
  6
BYLAYER
370
13
 10
268.383611455587
 20
211.693694739163
 11
268.383611455587
 21
209.59369473916
  0
LINE
  5
2FD
100
AcDbEntity
  8
0-0
100
AcDbLine
  6
BYLAYER
370
13
 10
264.383611455587
 20
219.59369473916
 11
264.383611455587
 21
212.593694739159
  0
LINE
  5
2FE
100
AcDbEntity
  8
0-0
100
AcDbLine
  6
BYLAYER
370
13
 10
264.383611455587
 20
211.693694739162
 11
264.383611455587
 21
209.593694739159
  0
LINE
  5
2FF
100
AcDbEntity
  8
0-0
100
AcDbLine
  6
BYLAYER
370
13
 10
167.383611455587
 20
242.993694739159
 11
167.383611455587
 21
232.993694739159
  0
LINE
  5
300
100
AcDbEntity
  8
0-0
100
AcDbLine
  6
BYLAYER
370
13
 10
167.383611455587
 20
219.593694739159
 11
167.383611455587
 21
212.593694739159
  0
LINE
  5
301
100
AcDbEntity
  8
0-0
100
AcDbLine
  6
BYLAYER
370
13
 10
167.383611455587
 20
211.693694739161
 11
167.383611455587
 21
209.593694739159
  0
LINE
  5
302
100
AcDbEntity
  8
0-0
100
AcDbLine
  6
BYLAYER
370
13
 10
171.383611455586
 20
243.49369473916
 11
171.383611455587
 21
232.993694739159
  0
LINE
  5
303
100
AcDbEntity
  8
0-0
100
AcDbLine
  6
BYLAYER
370
13
 10
172.383611455586
 20
243.49369473916
 11
172.383611455587
 21
234.49369473916
  0
LINE
  5
304
100
AcDbEntity
  8
0-0
100
AcDbLine
  6
BYLAYER
370
13
 10
172.483611455586
 20
242.49369473916
 11
172.483611455586
 21
235.49369473916
  0
LINE
  5
305
100
AcDbEntity
  8
0-0
100
AcDbLine
  6
BYLAYER
370
13
 10
174.483611455586
 20
250.79369473916
 11
174.483611455587
 21
223.99369473916
  0
LINE
  5
306
100
AcDbEntity
  8
0-0
100
AcDbLine
  6
BYLAYER
370
13
 10
172.983611455586
 20
250.79369473916
 11
172.983611455586
 21
242.79369473916
  0
LINE
  5
307
100
AcDbEntity
  8
0-0
100
AcDbLine
  6
BYLAYER
370
13
 10
175.683611455586
 20
250.79369473916
 11
175.683611455586
 21
246.793694739159
  0
LINE
  5
308
100
AcDbEntity
  8
0-0
100
AcDbLine
  6
BYLAYER
370
13
 10
177.183611455586
 20
250.79369473916
 11
177.183611455586
 21
246.79369473916
  0
LINE
  5
309
100
AcDbEntity
  8
0-0
100
AcDbLine
  6
BYLAYER
370
13
 10
179.983611455587
 20
222.49369473916
 11
179.983611455588
 21
216.376127046081
  0
ARC
  5
30A
100
AcDbEntity
  8
0-0
100
AcDbCircle
  6
BYLAYER
370
13
 10
178.483611455587
 20
222.49369473916
 40
1.5
100
AcDbArc
 50
6.5138E-12
 51
90
  0
LINE
  5
30B
100
AcDbEntity
  8
0-0
100
AcDbLine
  6
BYLAYER
370
13
 10
166.683611455586
 20
240.793694739159
 11
166.683611455587
 21
237.19369473916
  0
ARC
  5
30C
100
AcDbEntity
  8
0-0
100
AcDbCircle
  6
BYLAYER
370
13
 10
166.883611455586
 20
240.793694739159
 40
0.2
100
AcDbArc
 50
90
 51
180
  0
LINE
  5
30D
100
AcDbEntity
  8
0-0
100
AcDbLine
  6
BYLAYER
370
13
 10
171.383611455587
 20
219.593694739159
 11
171.383611455588
 21
212.593694739159
  0
LINE
  5
30E
100
AcDbEntity
  8
0-0
100
AcDbLine
  6
BYLAYER
370
13
 10
171.383611455588
 20
211.693694739162
 11
171.383611455588
 21
209.593694739159
  0
LINE
  5
30F
100
AcDbEntity
  8
0-0
100
AcDbLine
  6
BYLAYER
370
13
 10
173.383611455587
 20
230.493694739159
 11
173.383611455587
 21
223.493694739159
  0
LINE
  5
310
100
AcDbEntity
  8
0-0
100
AcDbLine
  6
BYLAYER
370
13
 10
178.383611455587
 20
223.99369473916
 11
178.383611455587
 21
223.493694739159
  0
ARC
  5
311
100
AcDbEntity
  8
0-0
100
AcDbCircle
  6
BYLAYER
370
13
 10
175.883611455587
 20
224.493694739159
 40
6.50000000000014
100
AcDbArc
 50
102.438092815058
 51
112.619864948039
  0
ARC
  5
312
100
AcDbEntity
  8
0-0
100
AcDbCircle
  6
BYLAYER
370
13
 10
175.883611455587
 20
229.493694739159
 40
6.49999999999983
100
AcDbArc
 50
247.380135051961
 51
292.619864948046
  0
LINE
  5
313
100
AcDbEntity
  8
0-0
100
AcDbLine
  6
BYLAYER
370
13
 10
268.383611455587
 20
219.59369473916
 11
264.383611455587
 21
219.59369473916
  0
LINE
  5
314
100
AcDbEntity
  8
0-0
100
AcDbLine
  6
BYLAYER
370
13
 10
255.783611455587
 20
221.793694739162
 11
179.983611455587
 21
221.793694739161
  0
LINE
  5
315
100
AcDbEntity
  8
0-0
100
AcDbLine
  6
BYLAYER
370
13
 10
171.383611455587
 20
219.593694739159
 11
167.383611455587
 21
219.593694739159
  0
LINE
  5
316
100
AcDbEntity
  8
0-0
100
AcDbLine
  6
BYLAYER
370
13
 10
171.383611455587
 20
232.993694739159
 11
167.383611455587
 21
232.993694739159
  0
LINE
  5
317
100
AcDbEntity
  8
0-0
100
AcDbLine
  6
BYLAYER
370
13
 10
171.383611455588
 20
209.593694739159
 11
167.383611455587
 21
209.593694739159
  0
LINE
  5
318
100
AcDbEntity
  8
0-0
100
AcDbLine
  6
BYLAYER
370
13
 10
171.383611455588
 20
212.593694739159
 11
167.383611455587
 21
212.593694739159
  0
LINE
  5
319
100
AcDbEntity
  8
0-0
100
AcDbLine
  6
BYLAYER
370
13
 10
268.383611455587
 20
209.593694739159
 11
264.383611455587
 21
209.593694739159
  0
LINE
  5
31A
100
AcDbEntity
  8
0-0
100
AcDbLine
  6
BYLAYER
370
13
 10
268.383611455587
 20
212.593694739159
 11
264.383611455587
 21
212.593694739159
  0
LINE
  5
31B
100
AcDbEntity
  8
0-0
100
AcDbLine
  6
BYLAYER
370
13
 10
171.383611455586
 20
242.993694739161
 11
167.383611455587
 21
242.993694739161
  0
LINE
  5
31C
100
AcDbEntity
  8
0-0
100
AcDbLine
  6
BYLAYER
370
13
 10
174.483611455587
 20
223.99369473916
 11
178.483611455587
 21
223.99369473916
  0
LINE
  5
31D
100
AcDbEntity
  8
0-3
100
AcDbLine
  6
BYLAYER
370
13
 10
172.483611455586
 20
251.79369473916
 11
172.983611455586
 21
251.79369473916
  0
LINE
  5
31E
100
AcDbEntity
  8
0-3
100
AcDbLine
  6
BYLAYER
370
13
 10
262.783611455587
 20
251.793694739163
 11
263.283611455587
 21
251.793694739163
  0
LINE
  5
31F
100
AcDbEntity
  8
0-0
100
AcDbLine
  6
BYLAYER
370
13
 10
172.983611455586
 20
250.79369473916
 11
174.483611455586
 21
250.79369473916
  0
LINE
  5
320
100
AcDbEntity
  8
0-0
100
AcDbLine
  6
BYLAYER
370
13
 10
175.683611455586
 20
250.79369473916
 11
177.183611455586
 21
250.79369473916
  0
LINE
  5
321
100
AcDbEntity
  8
0-0
100
AcDbLine
  6
BYLAYER
370
13
 10
174.483611455586
 20
249.79369473916
 11
175.683611455586
 21
249.79369473916
  0
LINE
  5
322
100
AcDbEntity
  8
0-0
100
AcDbLine
  6
BYLAYER
370
13
 10
172.983611455586
 20
242.79369473916
 11
174.483611455586
 21
242.79369473916
  0
LINE
  5
323
100
AcDbEntity
  8
0-0
100
AcDbLine
  6
BYLAYER
370
13
 10
171.383611455587
 20
234.49369473916
 11
172.383611455587
 21
234.49369473916
  0
LINE
  5
324
100
AcDbEntity
  8
0-0
100
AcDbLine
  6
BYLAYER
370
13
 10
171.383611455586
 20
243.49369473916
 11
172.383611455586
 21
243.49369473916
  0
LINE
  5
325
100
AcDbEntity
  8
0-0
100
AcDbLine
  6
BYLAYER
370
13
 10
166.883611455587
 20
236.993694739159
 11
167.383611455587
 21
236.993694739159
  0
LINE
  5
326
100
AcDbEntity
  8
0-0
100
AcDbLine
  6
BYLAYER
370
13
 10
172.383611455587
 20
236.99369473916
 11
172.483611455586
 21
236.99369473916
  0
LINE
  5
327
100
AcDbEntity
  8
0-0
100
AcDbLine
  6
BYLAYER
370
13
 10
172.483611455586
 20
235.49369473916
 11
174.483611455587
 21
235.49369473916
  0
ARC
  5
328
100
AcDbEntity
  8
0-0
100
AcDbCircle
  6
BYLAYER
370
13
 10
166.883611455587
 20
237.19369473916
 40
0.2
100
AcDbArc
 50
180
 51
270
  0
LINE
  5
329
100
AcDbEntity
  8
0-0
100
AcDbLine
  6
BYLAYER
370
13
 10
166.883611455586
 20
240.993694739159
 11
167.383611455587
 21
240.993694739159
  0
LINE
  5
32A
100
AcDbEntity
  8
0-0
100
AcDbLine
  6
BYLAYER
370
13
 10
172.383611455586
 20
240.99369473916
 11
172.483611455586
 21
240.99369473916
  0
LINE
  5
32B
100
AcDbEntity
  8
0-0
100
AcDbLine
  6
BYLAYER
370
13
 10
172.483611455586
 20
242.49369473916
 11
174.483611455586
 21
242.49369473916
  0
LINE
  5
32C
100
AcDbEntity
  8
0-0
100
AcDbLine
  6
BYLAYER
370
13
 10
269.283611455588
 20
215.493694739163
 11
269.283611455588
 21
211.693694739163
  0
LINE
  5
32D
100
AcDbEntity
  8
0-0
100
AcDbLine
  6
BYLAYER
370
13
 10
166.483611455587
 20
215.493694739162
 11
166.483611455587
 21
211.693694739161
  0
LINE
  5
32E
100
AcDbEntity
  8
0-0
100
AcDbLine
  6
BYLAYER
370
13
 10
166.483611455587
 20
211.693694739161
 11
180.934863667213
 21
211.693694739162
  0
LINE
  5
32F
100
AcDbEntity
  8
0-0
100
AcDbLine
  6
BYLAYER
370
13
 10
254.832103169192
 20
211.693694739162
 11
269.283611455588
 21
211.693694739163
  0
LINE
  5
330
100
AcDbEntity
  8
0-0
100
AcDbLine
  6
BYLAYER
370
13
 10
166.483611455587
 20
215.493694739162
 11
167.383611455587
 21
215.493694739162
  0
LINE
  5
331
100
AcDbEntity
  8
0-0
100
AcDbLine
  6
BYLAYER
370
13
 10
171.383611455588
 20
215.493694739162
 11
180.016100719277
 21
215.493694739162
  0
LINE
  5
332
100
AcDbEntity
  8
0-0
100
AcDbLine
  6
BYLAYER
370
13
 10
255.751077626033
 20
215.493694739162
 11
264.383611455587
 21
215.493694739162
  0
LINE
  5
333
100
AcDbEntity
  8
0-0
100
AcDbLine
  6
BYLAYER
370
13
 10
268.383611455587
 20
215.493694739162
 11
269.283611455588
 21
215.493694739163
  0
LINE
  5
334
100
AcDbEntity
  8
0-0
100
AcDbLine
  6
BYLAYER
370
13
 10
268.383611455587
 20
242.99369473916
 11
268.383611455587
 21
232.99369473916
  0
LINE
  5
335
100
AcDbEntity
  8
0-0
100
AcDbLine
  6
BYLAYER
370
13
 10
264.383611455587
 20
243.493694739161
 11
264.383611455587
 21
232.99369473916
  0
LINE
  5
336
100
AcDbEntity
  8
0-0
100
AcDbLine
  6
BYLAYER
370
13
 10
263.383611455587
 20
243.493694739161
 11
263.383611455587
 21
234.493694739161
  0
LINE
  5
337
100
AcDbEntity
  8
0-0
100
AcDbLine
  6
BYLAYER
370
13
 10
263.283611455587
 20
242.493694739161
 11
263.283611455587
 21
235.493694739161
  0
LINE
  5
338
100
AcDbEntity
  8
0-0
100
AcDbLine
  6
BYLAYER
370
13
 10
269.083611455587
 20
240.793694739161
 11
269.083611455587
 21
237.193694739161
  0
ARC
  5
339
100
AcDbEntity
  8
0-0
100
AcDbCircle
  6
BYLAYER
370
13
 10
268.883611455587
 20
240.793694739161
 40
0.2
100
AcDbArc
 50
0
 51
90
  0
LINE
  5
33A
100
AcDbEntity
  8
0-0
100
AcDbLine
  6
BYLAYER
370
13
 10
264.383611455587
 20
232.99369473916
 11
268.383611455587
 21
232.99369473916
  0
LINE
  5
33B
100
AcDbEntity
  8
0-0
100
AcDbLine
  6
BYLAYER
370
13
 10
264.383611455588
 20
242.993694739162
 11
268.383611455587
 21
242.993694739162
  0
LINE
  5
33C
100
AcDbEntity
  8
0-0
100
AcDbLine
  6
BYLAYER
370
13
 10
264.383611455587
 20
234.493694739161
 11
263.383611455587
 21
234.493694739161
  0
LINE
  5
33D
100
AcDbEntity
  8
0-0
100
AcDbLine
  6
BYLAYER
370
13
 10
264.383611455587
 20
243.493694739161
 11
263.383611455587
 21
243.493694739161
  0
LINE
  5
33E
100
AcDbEntity
  8
0-0
100
AcDbLine
  6
BYLAYER
370
13
 10
268.883611455587
 20
236.993694739161
 11
268.383611455587
 21
236.993694739161
  0
LINE
  5
33F
100
AcDbEntity
  8
0-0
100
AcDbLine
  6
BYLAYER
370
13
 10
263.383611455587
 20
236.993694739161
 11
263.283611455587
 21
236.993694739161
  0
ARC
  5
340
100
AcDbEntity
  8
0-0
100
AcDbCircle
  6
BYLAYER
370
13
 10
268.883611455587
 20
237.193694739161
 40
0.2
100
AcDbArc
 50
270
 51
0
  0
LINE
  5
341
100
AcDbEntity
  8
0-0
100
AcDbLine
  6
BYLAYER
370
13
 10
268.883611455587
 20
240.993694739161
 11
268.383611455587
 21
240.993694739161
  0
LINE
  5
342
100
AcDbEntity
  8
0-0
100
AcDbLine
  6
BYLAYER
370
13
 10
263.383611455587
 20
240.993694739161
 11
263.283611455587
 21
240.993694739161
  0
LINE
  5
343
100
AcDbEntity
  8
0-0
100
AcDbLine
  6
BYLAYER
370
13
 10
257.383611455587
 20
223.993694739161
 11
257.383611455587
 21
223.49369473916
  0
LINE
  5
344
100
AcDbEntity
  8
0-0
100
AcDbLine
  6
BYLAYER
370
13
 10
262.383611455587
 20
230.49369473916
 11
262.383611455587
 21
223.49369473916
  0
ARC
  5
345
100
AcDbEntity
  8
0-0
100
AcDbCircle
  6
BYLAYER
370
13
 10
259.883611455587
 20
224.49369473916
 40
6.50000000000014
100
AcDbArc
 50
67.3801350519612
 51
77.5619071849419
  0
ARC
  5
346
100
AcDbEntity
  8
0-0
100
AcDbCircle
  6
BYLAYER
370
13
 10
259.883611455587
 20
229.49369473916
 40
6.49999999999983
100
AcDbArc
 50
247.380135051961
 51
292.619864948046
  0
LINE
  5
347
100
AcDbEntity
  8
0-0
100
AcDbLine
  6
BYLAYER
370
13
 10
261.283611455587
 20
250.793694739161
 11
261.283611455587
 21
223.993694739161
  0
LINE
  5
348
100
AcDbEntity
  8
0-0
100
AcDbLine
  6
BYLAYER
370
13
 10
262.783611455587
 20
250.793694739161
 11
262.783611455587
 21
242.793694739161
  0
LINE
  5
349
100
AcDbEntity
  8
0-0
100
AcDbLine
  6
BYLAYER
370
13
 10
260.083611455588
 20
250.793694739161
 11
260.083611455587
 21
246.793694739163
  0
LINE
  5
34A
100
AcDbEntity
  8
0-0
100
AcDbLine
  6
BYLAYER
370
13
 10
258.583611455588
 20
250.793694739161
 11
258.583611455587
 21
246.793694739163
  0
LINE
  5
34B
100
AcDbEntity
  8
0-0
100
AcDbLine
  6
BYLAYER
370
13
 10
255.783611455587
 20
222.493694739161
 11
255.783611455586
 21
216.376731238527
  0
ARC
  5
34C
100
AcDbEntity
  8
0-0
100
AcDbCircle
  6
BYLAYER
370
13
 10
257.283611455587
 20
222.493694739161
 40
1.5
100
AcDbArc
 50
90
 51
179.999999999994
  0
LINE
  5
34D
100
AcDbEntity
  8
0-0
100
AcDbLine
  6
BYLAYER
370
13
 10
261.283611455587
 20
223.993694739161
 11
257.283611455587
 21
223.993694739161
  0
LINE
  5
34E
100
AcDbEntity
  8
0-0
100
AcDbLine
  6
BYLAYER
370
13
 10
258.583611455587
 20
248.793694739161
 11
227.883611455587
 21
248.793694739161
  0
LINE
  5
34F
100
AcDbEntity
  8
0-0
100
AcDbLine
  6
BYLAYER
370
13
 10
262.783611455587
 20
250.793694739161
 11
261.283611455587
 21
250.793694739161
  0
LINE
  5
350
100
AcDbEntity
  8
0-0
100
AcDbLine
  6
BYLAYER
370
13
 10
260.083611455588
 20
250.793694739161
 11
258.583611455588
 21
250.793694739161
  0
LINE
  5
351
100
AcDbEntity
  8
0-0
100
AcDbLine
  6
BYLAYER
370
13
 10
261.283611455587
 20
249.793694739161
 11
260.083611455587
 21
249.793694739161
  0
LINE
  5
352
100
AcDbEntity
  8
0-0
100
AcDbLine
  6
BYLAYER
370
13
 10
262.783611455587
 20
242.793694739161
 11
261.283611455587
 21
242.793694739161
  0
LINE
  5
353
100
AcDbEntity
  8
0-0
100
AcDbLine
  6
BYLAYER
370
13
 10
263.283611455587
 20
235.493694739161
 11
261.283611455587
 21
235.493694739161
  0
LINE
  5
354
100
AcDbEntity
  8
0-0
100
AcDbLine
  6
BYLAYER
370
13
 10
263.283611455587
 20
242.493694739161
 11
261.283611455587
 21
242.493694739161
  0
ARC
  5
355
100
AcDbEntity
  8
0-0
100
AcDbCircle
  6
BYLAYER
370
13
 10
191.983611455588
 20
216.376127046081
 40
12
100
AcDbArc
 50
180
 51
270.000668294924
  0
ARC
  5
356
100
AcDbEntity
  8
0-0
100
AcDbCircle
  6
BYLAYER
370
13
 10
243.783611455586
 20
216.764959806209
 40
12
100
AcDbArc
 50
270.000668294924
 51
0
  0
LINE
  5
357
100
AcDbEntity
  8
0-0
100
AcDbLine
  6
BYLAYER
370
13
 10
243.783751422949
 20
204.764959807025
 11
191.98375142295
 21
204.764355614578
  0
ARC
  5
358
100
AcDbEntity
  8
0-0
100
AcDbCircle
  6
BYLAYER
370
13
 10
191.983611455588
 20
216.764355613762
 40
12
100
AcDbArc
 50
180
 51
270.000668294924
  0
LINE
  5
359
100
AcDbEntity
  8
0-0
100
AcDbLine
  6
BYLAYER
370
13
 10
243.783751422949
 20
204.376731239344
 11
191.98375142295
 21
204.376127046897
  0
ARC
  5
35A
100
AcDbEntity
  8
0-0
100
AcDbCircle
  6
BYLAYER
370
13
 10
243.783611455586
 20
216.376731238527
 40
12
100
AcDbArc
 50
270.000668294924
 51
0
  0
LINE
  5
35B
100
AcDbEntity
  8
0-0
100
AcDbLine
  6
BYLAYER
370
13
 10
174.483611455586
 20
246.79369473916
 11
261.283611455587
 21
246.793694739163
  0
LINE
  5
35C
100
AcDbEntity
  8
0-0
100
AcDbLine
  6
BYLAYER
370
13
 10
177.183611455586
 20
248.79369473916
 11
207.883611455587
 21
248.79369473916
  0
LINE
  5
35D
100
AcDbEntity
  8
0-0
100
AcDbLine
  6
BYLAYER
370
13
 10
166.58361145559
 20
156.078489370845
 11
207.88361145559
 21
156.078489370845
  0
LINE
  5
35E
100
AcDbEntity
  8
0-0
100
AcDbLine
  6
BYLAYER
370
13
 10
227.88361145559
 20
156.078489370846
 11
269.18361145559
 21
156.078489370846
  0
LINE
  5
35F
100
AcDbEntity
  8
0-0
100
AcDbLine
  6
BYLAYER
370
13
 10
208.08361145559
 20
155.078489370845
 11
227.68361145559
 21
155.078489370846
  0
LINE
  5
360
100
AcDbEntity
  8
0-0
100
AcDbLine
  6
BYLAYER
370
13
 10
207.88361145559
 20
155.278489370845
 11
208.08361145559
 21
155.078489370845
  0
LINE
  5
361
100
AcDbEntity
  8
0-0
100
AcDbLine
  6
BYLAYER
370
13
 10
269.38361145559
 20
156.278489370846
 11
269.18361145559
 21
156.078489370846
  0
LINE
  5
362
100
AcDbEntity
  8
0-0
100
AcDbLine
  6
BYLAYER
370
13
 10
166.58361145559
 20
159.878489370845
 11
207.88361145559
 21
159.878489370846
  0
LINE
  5
363
100
AcDbEntity
  8
0-0
100
AcDbLine
  6
BYLAYER
370
13
 10
227.88361145559
 20
159.878489370847
 11
269.18361145559
 21
159.878489370848
  0
LINE
  5
364
100
AcDbEntity
  8
0-0
100
AcDbLine
  6
BYLAYER
370
13
 10
208.08361145559
 20
160.878489370846
 11
227.68361145559
 21
160.878489370847
  0
LINE
  5
365
100
AcDbEntity
  8
0-0
100
AcDbLine
  6
BYLAYER
370
13
 10
227.88361145559
 20
160.678489370847
 11
227.68361145559
 21
160.878489370847
  0
LINE
  5
366
100
AcDbEntity
  8
0-0
100
AcDbLine
  6
BYLAYER
370
13
 10
166.38361145559
 20
159.678489370845
 11
166.58361145559
 21
159.878489370845
  0
LINE
  5
367
100
AcDbEntity
  8
0-0
100
AcDbLine
  6
BYLAYER
370
13
 10
269.383611455591
 20
159.678489370848
 11
269.38361145559
 21
156.278489370846
  0
LINE
  5
368
100
AcDbEntity
  8
0-0
100
AcDbLine
  6
BYLAYER
370
13
 10
269.18361145559
 20
159.878489370848
 11
269.383611455591
 21
159.678489370848
  0
LINE
  5
369
100
AcDbEntity
  8
0-0
100
AcDbLine
  6
BYLAYER
370
13
 10
166.38361145559
 20
159.678489370845
 11
166.38361145559
 21
156.278489370845
  0
LINE
  5
36A
100
AcDbEntity
  8
0-0
100
AcDbLine
  6
BYLAYER
370
13
 10
166.58361145559
 20
156.078489370845
 11
166.38361145559
 21
156.278489370845
  0
LINE
  5
36B
100
AcDbEntity
  8
0-0
100
AcDbLine
  6
BYLAYER
370
13
 10
227.88361145559
 20
163.071650008212
 11
227.88361145559
 21
155.278489370845
  0
LINE
  5
36C
100
AcDbEntity
  8
0-0
100
AcDbLine
  6
BYLAYER
370
13
 10
227.68361145559
 20
155.078489370846
 11
227.88361145559
 21
155.278489370845
  0
LINE
  5
36D
100
AcDbEntity
  8
0-0
100
AcDbLine
  6
BYLAYER
370
13
 10
207.88361145559
 20
163.071650008212
 11
207.88361145559
 21
155.278489370845
  0
LINE
  5
36E
100
AcDbEntity
  8
0-0
100
AcDbLine
  6
BYLAYER
370
13
 10
208.08361145559
 20
160.878489370846
 11
207.88361145559
 21
160.678489370846
  0
LINE
  5
36F
100
AcDbEntity
  8
0-0
100
AcDbLine
  6
BYLAYER
370
13
 10
166.58361145559
 20
156.078489370845
 11
166.58361145559
 21
159.878489370845
  0
LINE
  5
370
100
AcDbEntity
  8
0-0
100
AcDbLine
  6
BYLAYER
370
13
 10
269.18361145559
 20
156.078489370846
 11
269.18361145559
 21
159.878489370848
  0
LINE
  5
371
100
AcDbEntity
  8
0-0
100
AcDbLine
  6
BYLAYER
370
13
 10
91.5836114555907
 20
162.478489370844
 11
91.5836114555907
 21
159.978489370844
  0
LINE
  5
372
100
AcDbEntity
  8
0-0
100
AcDbLine
  6
BYLAYER
370
13
 10
63.1836114555907
 20
162.478489370843
 11
69.1836114555906
 21
162.478489370843
  0
LINE
  5
373
100
AcDbEntity
  8
0-0
100
AcDbLine
  6
BYLAYER
370
13
 10
61.1836114555907
 20
160.478489370843
 11
63.1836114555907
 21
162.478489370843
  0
LINE
  5
374
100
AcDbEntity
  8
0-0
100
AcDbLine
  6
BYLAYER
370
13
 10
90.5836114555907
 20
155.978489370843
 11
94.5836114555907
 21
155.978489370843
  0
LINE
  5
375
100
AcDbEntity
  8
0-0
100
AcDbLine
  6
BYLAYER
370
13
 10
69.1836114555906
 20
162.478489370843
 11
71.1836114555906
 21
160.478489370843
  0
CIRCLE
  5
376
100
AcDbEntity
  8
0-0
100
AcDbCircle
  6
BYLAYER
370
13
 10
90.5836114555908
 20
157.978489370843
 40
2
  0
LINE
  5
377
100
AcDbEntity
  8
0-0
100
AcDbLine
  6
BYLAYER
370
13
 10
90.5836114555908
 20
159.978489370843
 11
91.5836114555907
 21
159.978489370844
  0
LINE
  5
378
100
AcDbEntity
  8
0-0
100
AcDbLine
  6
BYLAYER
370
13
 10
86.5836114555907
 20
162.478489370844
 11
91.5836114555907
 21
162.478489370844
  0
LINE
  5
379
100
AcDbEntity
  8
0-0
100
AcDbLine
  6
BYLAYER
370
13
 10
84.5836114555907
 20
160.478489370844
 11
86.5836114555907
 21
162.478489370844
  0
CIRCLE
  5
37A
100
AcDbEntity
  8
0-0
100
AcDbCircle
  6
BYLAYER
370
13
 10
65.183611455591
 20
157.978489370843
 40
2
  0
CIRCLE
  5
37B
100
AcDbEntity
  8
0-0
100
AcDbCircle
  6
BYLAYER
370
13
 10
65.183611455591
 20
157.978489370843
 40
3
  0
CIRCLE
  5
37C
100
AcDbEntity
  8
0-0
100
AcDbCircle
  6
BYLAYER
370
13
 10
57.5308456703077
 20
159.486857971551
 40
2
  0
ARC
  5
37D
100
AcDbEntity
  8
0-0
100
AcDbCircle
  6
BYLAYER
370
13
 10
57.5308456703077
 20
159.486857971551
 40
4
100
AcDbArc
 50
16.938012108096
 51
335.950180121684
  0
LINE
  5
37E
100
AcDbEntity
  8
0-0
100
AcDbLine
  6
BYLAYER
370
13
 10
56.5639427211362
 20
154.581238878418
 11
61.1836114555907
 21
153.670697061221
  0
LINE
  5
37F
100
AcDbEntity
  8
0-0
100
AcDbLine
  6
BYLAYER
370
13
 10
71.1836114555905
 20
151.699686000608
 11
77.4618800578707
 21
150.462232314949
  0
LINE
  5
380
100
AcDbEntity
  8
0-5
100
AcDbLine
  6
BYLAYER
370
13
 10
58.8458336811806
 20
166.158499938206
 11
81.2154567458544
 21
161.749422489985
  0
LINE
  5
381
100
AcDbEntity
  8
0-0
100
AcDbLine
  6
BYLAYER
370
13
 10
59.0778903889817
 20
167.335848520557
 11
83.6059858546327
 21
162.5013337747
  0
LINE
  5
382
100
AcDbEntity
  8
0-0
100
AcDbLine
  6
BYLAYER
370
13
 10
81.4475134536554
 20
162.926771072336
 11
79.2236366705614
 21
151.643847158136
  0
ARC
  5
383
100
AcDbEntity
  8
0-0
100
AcDbCircle
  6
BYLAYER
370
13
 10
77.7519509426223
 20
151.933918042888
 40
1.5
100
AcDbArc
 50
258.849862336503
 51
348.849862336504
  0
LINE
  5
384
100
AcDbEntity
  8
0-0
100
AcDbLine
  6
BYLAYER
370
13
 10
59.0778903889817
 20
167.335848520557
 11
58.4977486194789
 21
164.392477064679
  0
LINE
  5
385
100
AcDbEntity
  8
0-0
100
AcDbLine
  6
BYLAYER
370
13
 10
101.391693505484
 20
165.270558099032
 11
101.576308460439
 21
164.084844255642
  0
LINE
  5
386
100
AcDbEntity
  8
0-0
100
AcDbLine
  6
BYLAYER
370
13
 10
81.2154567458544
 20
161.749422489985
 11
83.3739291468308
 21
161.323985192349
  0
LINE
  5
387
100
AcDbEntity
  8
0-0
100
AcDbLine
  6
BYLAYER
370
13
 10
55.4445956229834
 20
162.955778203716
 11
55.5151778103618
 21
162.941866376516
  0
ARC
  5
388
100
AcDbEntity
  8
0-0
100
AcDbCircle
  6
BYLAYER
370
13
 10
55.4832717409502
 20
163.152002967442
 40
0.2
100
AcDbArc
 50
108.849862336503
 51
258.849862336503
  0
LINE
  5
389
100
AcDbEntity
  8
0-0
100
AcDbLine
  6
BYLAYER
370
13
 10
55.4186538597666
 20
163.341276656663
 11
58.4977486194789
 21
164.392477064679
  0
LINE
  5
38A
100
AcDbEntity
  8
0-0
100
AcDbLine
  6
BYLAYER
370
13
 10
54.2843120839777
 20
157.06903529196
 11
54.3548942713601
 21
157.055123464759
  0
ARC
  5
38B
100
AcDbEntity
  8
0-0
100
AcDbCircle
  6
BYLAYER
370
13
 10
54.245635966011
 20
156.872810528235
 40
0.2
100
AcDbArc
 50
78.8498623365094
 51
228.849862336508
  0
LINE
  5
38C
100
AcDbEntity
  8
0-0
100
AcDbLine
  6
BYLAYER
370
13
 10
54.1140290834693
 20
156.722212956981
 11
56.5639427211362
 21
154.581238878418
  0
LINE
  5
38D
100
AcDbEntity
  8
0-0
100
AcDbLine
  6
BYLAYER
370
13
 10
83.6059858546327
 20
162.5013337747
 11
101.391693505484
 21
165.270558099032
  0
LINE
  5
38E
100
AcDbEntity
  8
0-0
100
AcDbLine
  6
BYLAYER
370
13
 10
83.7906008095875
 20
161.315619931311
 11
85.7213601157079
 21
161.616238030961
  0
LINE
  5
38F
100
AcDbEntity
  8
0-0
100
AcDbLine
  6
BYLAYER
370
13
 10
91.2592828177305
 20
162.478489370844
 11
101.576308460439
 21
164.084844255642
  0
ARC
  5
390
100
AcDbEntity
  8
0-0
100
AcDbCircle
  6
BYLAYER
370
13
 10
83.6059858546318
 20
162.501333774699
 40
1.19999999999858
100
AcDbArc
 50
258.849862336496
 51
278.849862336517
  0
LINE
  5
391
100
AcDbEntity
  8
0-0
100
AcDbLine
  6
BYLAYER
370
13
 10
54.3710397270239
 20
162.634178482841
 11
55.0246082192446
 21
162.604352773293
  0
LINE
  5
392
100
AcDbEntity
  8
0-0
100
AcDbLine
  6
BYLAYER
370
13
 10
81.1489824294118
 20
161.412162503113
 11
85.3266366264647
 21
161.221514541718
  0
LINE
  5
393
100
AcDbEntity
  8
0-0
100
AcDbLine
  6
BYLAYER
370
13
 10
91.5836114555906
 20
160.935976428842
 11
94.0169437510334
 21
160.824930894759
  0
LINE
  5
394
100
AcDbEntity
  8
0-0
100
AcDbLine
  6
BYLAYER
370
13
 10
53.8487656947435
 20
162.15749217592
 11
54.3710397270239
 21
162.634178482841
  0
LINE
  5
395
100
AcDbEntity
  8
0-0
100
AcDbLine
  6
BYLAYER
370
13
 10
54.097513374865
 20
156.640416447635
 11
54.2136957906252
 21
156.635114443288
  0
LINE
  5
396
100
AcDbEntity
  8
0-0
100
AcDbLine
  6
BYLAYER
370
13
 10
79.975698391565
 20
155.459461063264
 11
84.5836114555906
 21
155.249178165134
  0
LINE
  5
397
100
AcDbEntity
  8
0-0
100
AcDbLine
  6
BYLAYER
370
13
 10
53.6208270679444
 20
157.162690479916
 11
53.6778573306192
 21
158.41239026416
  0
LINE
  5
398
100
AcDbEntity
  8
0-0
100
AcDbLine
  6
BYLAYER
370
13
 10
53.7917354320686
 20
160.907792391676
 11
53.8487656947435
 21
162.15749217592
  0
LINE
  5
399
100
AcDbEntity
  8
0-0
100
AcDbLine
  6
BYLAYER
370
13
 10
54.097513374865
 20
156.640416447635
 11
53.6208270679444
 21
157.162690479916
  0
LINE
  5
39A
100
AcDbEntity
  8
0-0
100
AcDbLine
  6
BYLAYER
370
13
 10
94.2962959373861
 20
155.978489370843
 11
94.4936300579539
 21
160.302656862479
  0
LINE
  5
39B
100
AcDbEntity
  8
0-0
100
AcDbLine
  6
BYLAYER
370
13
 10
94.0169437510334
 20
160.824930894759
 11
94.4936300579539
 21
160.302656862479
  0
LINE
  5
39C
100
AcDbEntity
  8
0-0
100
AcDbLine
  6
BYLAYER
370
13
 10
227.883611455587
 20
249.993694739162
 11
227.883611455587
 21
246.793694739162
  0
LINE
  5
39D
100
AcDbEntity
  8
0-0
100
AcDbLine
  6
BYLAYER
370
13
 10
227.383611455587
 20
250.493694739162
 11
227.883611455587
 21
249.993694739162
  0
LINE
  5
39E
100
AcDbEntity
  8
0-0
100
AcDbLine
  6
BYLAYER
370
13
 10
207.883611455587
 20
249.993694739161
 11
207.883611455587
 21
246.793694739161
  0
LINE
  5
39F
100
AcDbEntity
  8
0-0
100
AcDbLine
  6
BYLAYER
370
13
 10
208.383611455587
 20
250.493694739161
 11
227.383611455587
 21
250.493694739162
  0
LINE
  5
3A0
100
AcDbEntity
  8
0-0
100
AcDbLine
  6
BYLAYER
370
13
 10
207.883611455587
 20
249.993694739161
 11
208.383611455587
 21
250.493694739161
  0
LINE
  5
3A1
100
AcDbEntity
  8
0-0
100
AcDbLine
  6
BYLAYER
370
13
 10
262.78361145559
 20
155.486857971549
 11
261.28361145559
 21
155.486857971549
  0
LINE
  5
3A2
100
AcDbEntity
  8
0-0
100
AcDbLine
  6
BYLAYER
370
13
 10
260.08361145559
 20
155.486857971549
 11
258.58361145559
 21
155.486857971549
  0
LINE
  5
3A3
100
AcDbEntity
  8
0-0
100
AcDbLine
  6
BYLAYER
370
13
 10
258.58361145559
 20
161.486857971549
 11
227.88361145559
 21
161.486857971549
  0
LINE
  5
3A4
100
AcDbEntity
  8
0-0
100
AcDbLine
  6
BYLAYER
370
13
 10
207.88361145559
 20
161.486857971549
 11
177.183611455589
 21
161.486857971549
  0
LINE
  5
3A5
100
AcDbEntity
  8
0-0
100
AcDbLine
  6
BYLAYER
370
13
 10
262.78361145559
 20
163.486857971549
 11
261.28361145559
 21
163.486857971549
  0
LINE
  5
3A6
100
AcDbEntity
  8
0-0
100
AcDbLine
  6
BYLAYER
370
13
 10
174.483611455589
 20
163.48685797155
 11
172.983611455589
 21
163.48685797155
  0
LINE
  5
3A7
100
AcDbEntity
  8
0-0
100
AcDbLine
  6
BYLAYER
370
13
 10
172.983611455589
 20
163.48685797155
 11
172.983611455589
 21
159.878489370845
  0
LINE
  5
3A8
100
AcDbEntity
  8
0-0
100
AcDbLine
  6
BYLAYER
370
13
 10
177.183611455589
 20
163.071650008211
 11
177.183611455589
 21
159.878489370845
  0
LINE
  5
3A9
100
AcDbEntity
  8
0-0
100
AcDbLine
  6
BYLAYER
370
13
 10
262.78361145559
 20
156.078489370846
 11
262.78361145559
 21
155.48685797155
  0
LINE
  5
3AA
100
AcDbEntity
  8
0-0
100
AcDbLine
  6
BYLAYER
370
13
 10
258.58361145559
 20
163.071650008213
 11
258.58361145559
 21
159.878489370848
  0
LINE
  5
3AB
100
AcDbEntity
  8
0-0
100
AcDbLine
  6
BYLAYER
370
13
 10
172.983611455589
 20
156.078489370845
 11
172.983611455589
 21
155.486857971548
  0
LINE
  5
3AC
100
AcDbEntity
  8
0-0
100
AcDbLine
  6
BYLAYER
370
13
 10
177.183611455589
 20
156.078489370845
 11
177.183611455589
 21
155.486857971548
  0
LINE
  5
3AD
100
AcDbEntity
  8
0-0
100
AcDbLine
  6
BYLAYER
370
13
 10
262.783611455591
 20
156.078489370846
 11
262.783611455591
 21
155.486857971549
  0
LINE
  5
3AE
100
AcDbEntity
  8
0-0
100
AcDbLine
  6
BYLAYER
370
13
 10
258.58361145559
 20
156.078489370846
 11
258.58361145559
 21
155.486857971549
  0
LINE
  5
3AF
100
AcDbEntity
  8
0-0
100
AcDbLine
  6
BYLAYER
370
13
 10
262.78361145559
 20
163.486857971549
 11
262.78361145559
 21
159.878489370848
  0
LINE
  5
3B0
100
AcDbEntity
  8
0-0
100
AcDbLine
  6
BYLAYER
370
13
 10
177.18361145559
 20
155.486857971548
 11
175.68361145559
 21
155.486857971548
  0
LINE
  5
3B1
100
AcDbEntity
  8
0-0
100
AcDbLine
  6
BYLAYER
370
13
 10
174.48361145559
 20
155.486857971548
 11
172.98361145559
 21
155.486857971548
  0
LINE
  5
3B2
100
AcDbEntity
  8
0-0
100
AcDbLine
  6
BYLAYER
370
13
 10
103.683611455591
 20
132.478489370845
 11
103.68361145559
 21
86.4784893708436
  0
LINE
  5
3B3
100
AcDbEntity
  8
0-0
100
AcDbLine
  6
BYLAYER
370
13
 10
52.0836114555905
 20
132.478489370844
 11
52.0836114555903
 21
86.4784893708432
  0
ARC
  5
3B4
100
AcDbEntity
  8
0-0
100
AcDbCircle
  6
BYLAYER
370
13
 10
54.0836114555903
 20
86.4784893708432
 40
2
100
AcDbArc
 50
180
 51
270
  0
LINE
  5
3B5
100
AcDbEntity
  8
0-0
100
AcDbLine
  6
BYLAYER
370
13
 10
54.0836114555904
 20
84.4784893708432
 11
101.68361145559
 21
84.4784893708436
  0
ARC
  5
3B6
100
AcDbEntity
  8
0-0
100
AcDbCircle
  6
BYLAYER
370
13
 10
101.68361145559
 20
86.4784893708436
 40
2
100
AcDbArc
 50
270
 51
0
  0
CIRCLE
  5
3B7
100
AcDbEntity
  8
0-0
100
AcDbCircle
  6
BYLAYER
370
13
 10
81.3836114555905
 20
127.978489370843
 40
2.75
  0
CIRCLE
  5
3B8
100
AcDbEntity
  8
0-0
100
AcDbCircle
  6
BYLAYER
370
13
 10
74.3836114555905
 20
127.978489370843
 40
2.75
  0
CIRCLE
  5
3B9
100
AcDbEntity
  8
0-0
100
AcDbCircle
  6
BYLAYER
370
13
 10
67.18361145559
 20
90.5331017097975
 40
2
  0
CIRCLE
  5
3BA
100
AcDbEntity
  8
0-0
100
AcDbCircle
  6
BYLAYER
370
13
 10
88.5836114555901
 20
90.533101709797
 40
2
  0
CIRCLE
  5
3BB
100
AcDbEntity
  8
0-0
100
AcDbCircle
  6
BYLAYER
370
13
 10
98.8836114555903
 20
88.9784893708436
 40
3
  0
CIRCLE
  5
3BC
100
AcDbEntity
  8
0-0
100
AcDbCircle
  6
BYLAYER
370
13
 10
56.8836114555902
 20
88.9784893708432
 40
3
  0
ARC
  5
3BD
100
AcDbEntity
  8
0-0
100
AcDbCircle
  6
BYLAYER
370
13
 10
77.8836114555903
 20
127.978489370844
 40
1
100
AcDbArc
 50
35.6590876961167
 51
144.340912303868
  0
ARC
  5
3BE
100
AcDbEntity
  8
0-0
100
AcDbCircle
  6
BYLAYER
370
13
 10
77.8836114555903
 20
127.978489370844
 40
1
100
AcDbArc
 50
215.659087696163
 51
324.340912303851
  0
CIRCLE
  5
3BF
100
AcDbEntity
  8
0-0
100
AcDbCircle
  6
BYLAYER
370
13
 10
79.8836114555904
 20
105.978489370844
 40
3
  0
CIRCLE
  5
3C0
100
AcDbEntity
  8
0-0
100
AcDbCircle
  6
BYLAYER
370
13
 10
79.8836114555904
 20
105.978489370844
 40
9.5
  0
CIRCLE
  5
3C1
100
AcDbEntity
  8
0-0
100
AcDbCircle
  6
BYLAYER
370
13
 10
67.1836114555902
 20
90.4784893708434
 40
3
  0
CIRCLE
  5
3C2
100
AcDbEntity
  8
0-0
100
AcDbCircle
  6
BYLAYER
370
13
 10
88.5836114555903
 20
90.4784893708427
 40
3
  0
CIRCLE
  5
3C3
100
AcDbEntity
  8
0-0
100
AcDbCircle
  6
BYLAYER
370
13
 10
57.8836114555905
 20
111.978489370844
 40
1.5
  0
CIRCLE
  5
3C4
100
AcDbEntity
  8
0-0
100
AcDbCircle
  6
BYLAYER
370
13
 10
57.8836114555904
 20
99.9784893708439
 40
1.5
  0
CIRCLE
  5
3C5
100
AcDbEntity
  8
0-0
100
AcDbCircle
  6
BYLAYER
370
13
 10
97.8836114555902
 20
99.978489370844
 40
1.5
  0
CIRCLE
  5
3C6
100
AcDbEntity
  8
0-0
100
AcDbCircle
  6
BYLAYER
370
13
 10
97.8836114555905
 20
111.978489370844
 40
1.5
  0
CIRCLE
  5
3C7
100
AcDbEntity
  8
0-0
100
AcDbCircle
  6
BYLAYER
370
13
 10
97.8836114555902
 20
99.978489370844
 40
1.2
  0
CIRCLE
  5
3C8
100
AcDbEntity
  8
0-0
100
AcDbCircle
  6
BYLAYER
370
13
 10
97.8836114555903
 20
111.978489370844
 40
1.2
  0
CIRCLE
  5
3C9
100
AcDbEntity
  8
0-0
100
AcDbCircle
  6
BYLAYER
370
13
 10
57.8836114555905
 20
111.978489370844
 40
1.2
  0
CIRCLE
  5
3CA
100
AcDbEntity
  8
0-0
100
AcDbCircle
  6
BYLAYER
370
13
 10
57.8836114555903
 20
99.9784893708439
 40
1.2
  0
LINE
  5
3CB
100
AcDbEntity
  8
0-4
100
AcDbLine
  6
BYLAYER
 62
0
370
13
 10
52.0836114555903
 20
86.1534893708432
 11
52.0836114555903
 21
72.128292854295
  0
LINE
  5
3CC
100
AcDbEntity
  8
0-4
100
AcDbLine
  6
BYLAYER
 62
0
370
13
 10
103.68361145559
 20
86.1534893708436
 11
103.68361145559
 21
72.128292854295
  0
ARC
  5
3CD
100
AcDbEntity
  8
0-2
100
AcDbCircle
  6
BYLAYER
370
13
 10
65.1836114555907
 20
157.978489370842
 40
36.9350710310462
100
AcDbArc
 50
11.386677154153
 51
90
  0
LINE
  5
3CE
100
AcDbEntity
  8
0-4
100
AcDbLine
  6
BYLAYER
 62
0
370
13
 10
152.383611455591
 20
131.953489370845
 11
152.383611455591
 21
71.528292854295
  0
LINE
  5
3CF
100
AcDbEntity
  8
0-4
100
AcDbLine
  6
BYLAYER
 62
0
370
13
 10
284.88361145559
 20
103.353489370847
 11
284.88361145559
 21
71.528292854295
  0
LINE
  5
3D0
100
AcDbEntity
  8
0-4
100
AcDbLine
  6
BYLAYER
 62
0
370
13
 10
64.8586114555907
 20
194.913560401888
 11
34.3836114555904
 21
194.913560401888
  0
LINE
  5
3D1
100
AcDbEntity
  8
0-4
100
AcDbLine
  6
BYLAYER
 62
0
370
13
 10
51.7586114555905
 20
132.478489370844
 11
34.3836114555904
 21
132.478489370844
  0
LINE
  5
3D2
100
AcDbEntity
  8
0-4
100
AcDbLine
  6
BYLAYER
 62
0
370
13
 10
51.7586114555905
 20
132.478489370844
 11
34.3836114555904
 21
132.478489370844
  0
LINE
  5
3D3
100
AcDbEntity
  8
0-4
100
AcDbLine
  6
BYLAYER
 62
0
370
13
 10
53.7586114555904
 20
84.4784893708432
 11
34.3836114555904
 21
84.4784893708432
  0
LINE
  5
3D4
100
AcDbEntity
  8
0-4
100
AcDbLine
  6
BYLAYER
 62
0
370
13
 10
154.883611455588
 20
202.168694739158
 11
154.883611455588
 21
184.478489370844
  0
LINE
  5
3D5
100
AcDbEntity
  8
0-4
100
AcDbLine
  6
BYLAYER
 62
0
370
13
 10
280.883611455587
 20
202.16869473916
 11
280.883611455587
 21
184.478489370844
  0
LINE
  5
3D6
100
AcDbEntity
  8
0-4
100
AcDbLine
  6
BYLAYER
 62
0
370
13
 10
154.808611455587
 20
206.293694739158
 11
135.43361145559
 21
206.293694739158
  0
LINE
  5
3D7
100
AcDbEntity
  8
0-4
100
AcDbLine
  6
BYLAYER
 62
0
370
13
 10
157.031875175114
 20
246.293694739158
 11
135.43361145559
 21
246.293694739158
  0
MTEXT
  5
3D8
100
AcDbEntity
  8
0-4
100
AcDbMText
 10
135.85861145559
 20
183.478489370844
 40
4
 41
  0.0
  1
モジュール 4- M3\Pパネル 4- φ3.5
 71
9
  7
Font_0
  0
CIRCLE
  5
3D9
100
AcDbEntity
  8
0-0
100
AcDbCircle
  6
BYLAYER
370
13
 10
65.1836114555905
 20
135.978489370844
 40
2.75
  0
CIRCLE
  5
3DA
100
AcDbEntity
  8
0-0
100
AcDbCircle
  6
BYLAYER
370
13
 10
90.5836114555906
 20
135.978489370843
 40
2.75
  0
CIRCLE
  5
3DB
100
AcDbEntity
  8
0-0
100
AcDbCircle
  6
BYLAYER
370
13
 10
100.883611455591
 20
127.978489370844
 40
2.75
  0
CIRCLE
  5
3DC
100
AcDbEntity
  8
0-0
100
AcDbCircle
  6
BYLAYER
370
13
 10
54.8836114555905
 20
127.978489370844
 40
2.75
  0
LINE
  5
3DD
100
AcDbEntity
  8
0-0
100
AcDbLine
  6
BYLAYER
370
13
 10
83.3836114555904
 20
143.978489370846
 11
83.3836114555904
 21
142.60691649559
  0
LINE
  5
3DE
100
AcDbEntity
  8
0-0
100
AcDbLine
  6
BYLAYER
370
13
 10
83.3836114555904
 20
143.978489370846
 11
82.8836114555904
 21
144.478489370846
  0
LINE
  5
3DF
100
AcDbEntity
  8
0-0
100
AcDbLine
  6
BYLAYER
370
13
 10
72.3836114555905
 20
143.978489370846
 11
72.3836114555905
 21
142.30691649559
  0
LINE
  5
3E0
100
AcDbEntity
  8
0-0
100
AcDbLine
  6
BYLAYER
370
13
 10
72.8836114555905
 20
144.478489370846
 11
72.3836114555905
 21
143.978489370846
  0
LINE
  5
3E1
100
AcDbEntity
  8
0-0
100
AcDbLine
  6
BYLAYER
370
13
 10
72.3836114555904
 20
136.650062246098
 11
72.3836114555904
 21
132.478489370845
  0
LINE
  5
3E2
100
AcDbEntity
  8
0-0
100
AcDbLine
  6
BYLAYER
370
13
 10
83.3836114555904
 20
143.978489370846
 11
83.3836114555904
 21
142.30691649559
  0
LINE
  5
3E3
100
AcDbEntity
  8
0-0
100
AcDbLine
  6
BYLAYER
370
13
 10
83.3836114555904
 20
143.978489370846
 11
82.8836114555904
 21
144.478489370846
  0
ARC
  5
3E4
100
AcDbEntity
  8
0-0
100
AcDbCircle
  6
BYLAYER
370
13
 10
83.3836114555904
 20
139.478489370844
 40
2
100
AcDbArc
 50
135.000000000006
 51
224.999999999994
  0
LINE
  5
3E5
100
AcDbEntity
  8
0-0
100
AcDbLine
  6
BYLAYER
370
13
 10
81.9693978932173
 20
138.06427580847
 11
83.3836114555903
 21
136.650062246097
  0
LINE
  5
3E6
100
AcDbEntity
  8
0-0
100
AcDbLine
  6
BYLAYER
370
13
 10
81.9693978932173
 20
140.892702933217
 11
83.3836114555904
 21
142.30691649559
  0
ARC
  5
3E7
100
AcDbEntity
  8
0-0
100
AcDbCircle
  6
BYLAYER
370
13
 10
72.3836114555904
 20
139.478489370844
 40
2
100
AcDbArc
 50
315.000000000006
 51
44.9999999999942
  0
LINE
  5
3E8
100
AcDbEntity
  8
0-0
100
AcDbLine
  6
BYLAYER
370
13
 10
73.7978250179634
 20
138.06427580847
 11
72.3836114555904
 21
136.650062246098
  0
LINE
  5
3E9
100
AcDbEntity
  8
0-0
100
AcDbLine
  6
BYLAYER
370
13
 10
73.7978250179635
 20
140.892702933217
 11
72.3836114555905
 21
142.30691649559
  0
LINE
  5
3EA
100
AcDbEntity
  8
0-0
100
AcDbLine
  6
BYLAYER
370
13
 10
83.3836114555903
 20
136.650062246097
 11
83.3836114555903
 21
132.478489370845
  0
LINE
  5
3EB
100
AcDbEntity
  8
0-0
100
AcDbLine
  6
BYLAYER
370
13
 10
72.3836114555904
 20
136.650062246098
 11
83.3836114555903
 21
136.650062246097
  0
LINE
  5
3EC
100
AcDbEntity
  8
0-0
100
AcDbLine
  6
BYLAYER
370
13
 10
83.3836114555904
 20
142.30691649559
 11
72.3836114555905
 21
142.30691649559
  0
LINE
  5
3ED
100
AcDbEntity
  8
0-0
100
AcDbLine
  6
BYLAYER
370
13
 10
72.3836114555905
 20
143.978489370846
 11
83.3836114555904
 21
143.978489370846
  0
LINE
  5
3EE
100
AcDbEntity
  8
0-0
100
AcDbLine
  6
BYLAYER
370
13
 10
82.8836114555904
 20
144.478489370846
 11
72.8836114555905
 21
144.478489370846
  0
LINE
  5
3EF
100
AcDbEntity
  8
0-0
100
AcDbLine
  6
BYLAYER
370
13
 10
82.1309635719083
 20
131.978489370846
 11
73.6362593392698
 21
131.978489370845
  0
LINE
  5
3F0
100
AcDbEntity
  8
0-0
100
AcDbLine
  6
BYLAYER
370
13
 10
73.2738392269424
 20
132.478489370845
 11
73.2738392269424
 21
132.278489370845
  0
LINE
  5
3F1
100
AcDbEntity
  8
0-0
100
AcDbLine
  6
BYLAYER
370
13
 10
82.4933836842356
 20
132.478489370845
 11
82.4933836842356
 21
132.278489370846
  0
LINE
  5
3F2
100
AcDbEntity
  8
0-0
100
AcDbLine
  6
BYLAYER
370
13
 10
82.4933836842356
 20
132.278489370846
 11
82.1309635719083
 21
131.978489370846
  0
LINE
  5
3F3
100
AcDbEntity
  8
0-0
100
AcDbLine
  6
BYLAYER
370
13
 10
73.6362593392698
 20
131.978489370845
 11
73.2738392269424
 21
132.278489370845
  0
LINE
  5
3F4
100
AcDbEntity
  8
0-0
100
AcDbLine
  6
BYLAYER
370
13
 10
82.4933836842356
 20
132.478489370845
 11
103.683611455591
 21
132.478489370845
  0
ARC
  5
3F5
100
AcDbEntity
  8
0-0
100
AcDbCircle
  6
BYLAYER
370
13
 10
272.08361145559
 20
131.278489370845
 40
1.2
100
AcDbArc
 50
90
 51
180
  0
LINE
  5
3F6
100
AcDbEntity
  8
0-0
100
AcDbLine
  6
BYLAYER
370
13
 10
164.88361145559
 20
130.478489370843
 11
270.88361145559
 21
130.478489370845
  0
LINE
  5
3F7
100
AcDbEntity
  8
0-0
100
AcDbLine
  6
BYLAYER
370
13
 10
164.88361145559
 20
125.478489370843
 11
270.88361145559
 21
125.478489370845
  0
ARC
  5
3F8
100
AcDbEntity
  8
0-0
100
AcDbCircle
  6
BYLAYER
370
13
 10
163.68361145559
 20
131.278489370845
 40
1.2
100
AcDbArc
 50
0
 51
90
  0
LINE
  5
3F9
100
AcDbEntity
  8
0-0
100
AcDbLine
  6
BYLAYER
370
13
 10
161.683611455591
 20
130.728489370843
 11
161.683611455591
 21
125.228489370843
  0
LINE
  5
3FA
100
AcDbEntity
  8
0-0
100
AcDbLine
  6
BYLAYER
370
13
 10
161.683611455591
 20
125.228489370843
 11
163.683611455591
 21
125.228489370843
  0
LINE
  5
3FB
100
AcDbEntity
  8
0-0
100
AcDbLine
  6
BYLAYER
370
13
 10
161.683611455591
 20
130.728489370843
 11
163.683611455591
 21
130.728489370843
  0
LINE
  5
3FC
100
AcDbEntity
  8
0-0
100
AcDbLine
  6
BYLAYER
370
13
 10
154.88361145559
 20
132.478489370845
 11
163.683611455591
 21
132.478489370844
  0
LINE
  5
3FD
100
AcDbEntity
  8
0-0
100
AcDbLine
  6
BYLAYER
370
13
 10
154.383611455592
 20
131.278489370843
 11
163.683611455591
 21
131.278489370845
  0
LINE
  5
3FE
100
AcDbEntity
  8
0-0
100
AcDbLine
  6
BYLAYER
370
13
 10
272.083611455591
 20
132.478489370845
 11
280.88361145559
 21
132.478489370845
  0
LINE
  5
3FF
100
AcDbEntity
  8
0-0
100
AcDbLine
  6
BYLAYER
370
13
 10
272.083611455591
 20
131.278489370845
 11
281.383611455591
 21
131.278489370845
  0
LINE
  5
400
100
AcDbEntity
  8
0-0
100
AcDbLine
  6
BYLAYER
370
13
 10
274.383611455591
 20
127.278489370845
 11
281.383611455591
 21
127.278489370845
  0
LINE
  5
401
100
AcDbEntity
  8
0-0
100
AcDbLine
  6
BYLAYER
370
13
 10
280.88361145559
 20
132.478489370845
 11
280.88361145559
 21
131.278489370845
  0
LINE
  5
402
100
AcDbEntity
  8
0-0
100
AcDbLine
  6
BYLAYER
370
13
 10
154.88361145559
 20
132.478489370845
 11
154.88361145559
 21
131.278489370845
  0
LINE
  5
403
100
AcDbEntity
  8
0-0
100
AcDbLine
  6
BYLAYER
370
13
 10
281.383611455591
 20
131.278489370845
 11
281.383611455591
 21
127.278489370845
  0
LINE
  5
404
100
AcDbEntity
  8
0-0
100
AcDbLine
  6
BYLAYER
370
13
 10
274.383611455591
 20
131.278489370845
 11
274.383611455591
 21
127.278489370845
  0
LINE
  5
405
100
AcDbEntity
  8
0-0
100
AcDbLine
  6
BYLAYER
370
13
 10
283.383611455591
 20
143.97848937085
 11
283.383611455591
 21
142.606916495594
  0
LINE
  5
406
100
AcDbEntity
  8
0-0
100
AcDbLine
  6
BYLAYER
370
13
 10
283.383611455591
 20
143.97848937085
 11
282.883611455591
 21
144.47848937085
  0
LINE
  5
407
100
AcDbEntity
  8
0-0
100
AcDbLine
  6
BYLAYER
370
13
 10
272.383611455591
 20
143.97848937085
 11
272.383611455591
 21
142.306916495594
  0
LINE
  5
408
100
AcDbEntity
  8
0-0
100
AcDbLine
  6
BYLAYER
370
13
 10
272.883611455591
 20
144.47848937085
 11
272.383611455591
 21
143.97848937085
  0
ARC
  5
409
100
AcDbEntity
  8
0-0
100
AcDbCircle
  6
BYLAYER
370
13
 10
272.383611455591
 20
139.478489370848
 40
2
100
AcDbArc
 50
315.000000000009
 51
44.9999999999908
  0
LINE
  5
40A
100
AcDbEntity
  8
0-0
100
AcDbLine
  6
BYLAYER
370
13
 10
272.383611455591
 20
136.650062246102
 11
272.383611455591
 21
132.478489370849
  0
LINE
  5
40B
100
AcDbEntity
  8
0-0
100
AcDbLine
  6
BYLAYER
370
13
 10
283.383611455591
 20
143.97848937085
 11
283.383611455591
 21
142.306916495594
  0
LINE
  5
40C
100
AcDbEntity
  8
0-0
100
AcDbLine
  6
BYLAYER
370
13
 10
283.383611455591
 20
143.97848937085
 11
282.883611455591
 21
144.47848937085
  0
ARC
  5
40D
100
AcDbEntity
  8
0-0
100
AcDbCircle
  6
BYLAYER
370
13
 10
283.383611455591
 20
139.478489370848
 40
2
100
AcDbArc
 50
135.000000000009
 51
224.999999999991
  0
LINE
  5
40E
100
AcDbEntity
  8
0-0
100
AcDbLine
  6
BYLAYER
370
13
 10
281.969397893218
 20
138.064275808475
 11
283.383611455591
 21
136.650062246101
  0
LINE
  5
40F
100
AcDbEntity
  8
0-0
100
AcDbLine
  6
BYLAYER
370
13
 10
281.969397893218
 20
140.892702933221
 11
283.383611455591
 21
142.306916495594
  0
ARC
  5
410
100
AcDbEntity
  8
0-0
100
AcDbCircle
  6
BYLAYER
370
13
 10
272.383611455591
 20
139.478489370848
 40
2
100
AcDbArc
 50
315.000000000009
 51
44.9999999999908
  0
LINE
  5
411
100
AcDbEntity
  8
0-0
100
AcDbLine
  6
BYLAYER
370
13
 10
273.797825017964
 20
138.064275808475
 11
272.383611455591
 21
136.650062246102
  0
LINE
  5
412
100
AcDbEntity
  8
0-0
100
AcDbLine
  6
BYLAYER
370
13
 10
273.797825017964
 20
140.892702933221
 11
272.383611455591
 21
142.306916495594
  0
LINE
  5
413
100
AcDbEntity
  8
0-0
100
AcDbLine
  6
BYLAYER
370
13
 10
283.383611455591
 20
136.650062246101
 11
283.383611455591
 21
132.278489370846
  0
LINE
  5
414
100
AcDbEntity
  8
0-0
100
AcDbLine
  6
BYLAYER
370
13
 10
272.383611455591
 20
136.650062246102
 11
283.383611455591
 21
136.650062246101
  0
LINE
  5
415
100
AcDbEntity
  8
0-0
100
AcDbLine
  6
BYLAYER
370
13
 10
283.383611455591
 20
142.306916495594
 11
272.383611455591
 21
142.306916495594
  0
LINE
  5
416
100
AcDbEntity
  8
0-0
100
AcDbLine
  6
BYLAYER
370
13
 10
272.383611455591
 20
143.97848937085
 11
283.383611455591
 21
143.97848937085
  0
LINE
  5
417
100
AcDbEntity
  8
0-0
100
AcDbLine
  6
BYLAYER
370
13
 10
282.883611455591
 20
144.47848937085
 11
272.883611455591
 21
144.47848937085
  0
LINE
  5
418
100
AcDbEntity
  8
0-0
100
AcDbLine
  6
BYLAYER
370
13
 10
283.08361145559
 20
131.978489370846
 11
280.88361145559
 21
131.978489370846
  0
LINE
  5
419
100
AcDbEntity
  8
0-0
100
AcDbLine
  6
BYLAYER
370
13
 10
283.08361145559
 20
131.978489370846
 11
283.38361145559
 21
132.278489370846
  0
LINE
  5
41A
100
AcDbEntity
  8
0-0
100
AcDbLine
  6
BYLAYER
370
13
 10
280.88361145559
 20
132.278489370846
 11
283.38361145559
 21
132.278489370846
  0
LINE
  5
41B
100
AcDbEntity
  8
0-0
100
AcDbLine
  6
BYLAYER
370
13
 10
270.583611455591
 20
121.278489370845
 11
270.583611455591
 21
125.478489370845
  0
LINE
  5
41C
100
AcDbEntity
  8
0-0
100
AcDbLine
  6
BYLAYER
370
13
 10
270.583611455591
 20
121.278489370845
 11
268.383611455591
 21
121.278489370845
  0
LINE
  5
41D
100
AcDbEntity
  8
0-0
100
AcDbLine
  6
BYLAYER
370
13
 10
270.883611455591
 20
121.578489370845
 11
270.583611455591
 21
121.278489370845
  0
LINE
  5
41E
100
AcDbEntity
  8
0-0
100
AcDbLine
  6
BYLAYER
370
13
 10
263.883611455592
 20
121.578489370845
 11
264.183611455592
 21
121.278489370845
  0
LINE
  5
41F
100
AcDbEntity
  8
0-0
100
AcDbLine
  6
BYLAYER
370
13
 10
263.883611455592
 20
121.578489370845
 11
263.883611455592
 21
125.478489370845
  0
LINE
  5
420
100
AcDbEntity
  8
0-0
100
AcDbLine
  6
BYLAYER
370
13
 10
264.183611455592
 20
121.278489370845
 11
264.183611455592
 21
125.478489370845
  0
LINE
  5
421
100
AcDbEntity
  8
0-0
100
AcDbLine
  6
BYLAYER
370
13
 10
161.383611455592
 20
127.278489370844
 11
154.383611455592
 21
127.278489370843
  0
LINE
  5
422
100
AcDbEntity
  8
0-0
100
AcDbLine
  6
BYLAYER
370
13
 10
154.383611455592
 20
131.278489370843
 11
154.383611455592
 21
127.278489370843
  0
LINE
  5
423
100
AcDbEntity
  8
0-0
100
AcDbLine
  6
BYLAYER
370
13
 10
161.383611455592
 20
131.278489370843
 11
161.383611455592
 21
127.278489370844
  0
LINE
  5
424
100
AcDbEntity
  8
0-0
100
AcDbLine
  6
BYLAYER
370
13
 10
152.383611455591
 20
143.978489370849
 11
152.383611455591
 21
142.606916495592
  0
LINE
  5
425
100
AcDbEntity
  8
0-0
100
AcDbLine
  6
BYLAYER
370
13
 10
152.383611455591
 20
143.978489370849
 11
152.883611455591
 21
144.478489370849
  0
LINE
  5
426
100
AcDbEntity
  8
0-0
100
AcDbLine
  6
BYLAYER
370
13
 10
163.383611455591
 20
143.978489370849
 11
163.383611455591
 21
142.306916495593
  0
LINE
  5
427
100
AcDbEntity
  8
0-0
100
AcDbLine
  6
BYLAYER
370
13
 10
162.883611455591
 20
144.478489370849
 11
163.383611455591
 21
143.978489370849
  0
ARC
  5
428
100
AcDbEntity
  8
0-0
100
AcDbCircle
  6
BYLAYER
370
13
 10
163.383611455591
 20
139.478489370846
 40
2
100
AcDbArc
 50
135.000000000009
 51
224.999999999991
  0
LINE
  5
429
100
AcDbEntity
  8
0-0
100
AcDbLine
  6
BYLAYER
370
13
 10
163.383611455591
 20
136.6500622461
 11
163.383611455591
 21
132.478489370847
  0
LINE
  5
42A
100
AcDbEntity
  8
0-0
100
AcDbLine
  6
BYLAYER
370
13
 10
152.383611455591
 20
143.978489370849
 11
152.383611455591
 21
142.306916495593
  0
LINE
  5
42B
100
AcDbEntity
  8
0-0
100
AcDbLine
  6
BYLAYER
370
13
 10
152.383611455591
 20
143.978489370849
 11
152.883611455591
 21
144.478489370849
  0
ARC
  5
42C
100
AcDbEntity
  8
0-0
100
AcDbCircle
  6
BYLAYER
370
13
 10
152.383611455591
 20
139.478489370846
 40
2
100
AcDbArc
 50
315.000000000009
 51
44.9999999999908
  0
LINE
  5
42D
100
AcDbEntity
  8
0-0
100
AcDbLine
  6
BYLAYER
370
13
 10
153.797825017964
 20
138.064275808473
 11
152.383611455591
 21
136.6500622461
  0
LINE
  5
42E
100
AcDbEntity
  8
0-0
100
AcDbLine
  6
BYLAYER
370
13
 10
153.797825017964
 20
140.892702933219
 11
152.383611455591
 21
142.306916495593
  0
ARC
  5
42F
100
AcDbEntity
  8
0-0
100
AcDbCircle
  6
BYLAYER
370
13
 10
163.383611455591
 20
139.478489370846
 40
2
100
AcDbArc
 50
135.000000000009
 51
224.999999999991
  0
LINE
  5
430
100
AcDbEntity
  8
0-0
100
AcDbLine
  6
BYLAYER
370
13
 10
161.969397893218
 20
138.064275808473
 11
163.383611455591
 21
136.6500622461
  0
LINE
  5
431
100
AcDbEntity
  8
0-0
100
AcDbLine
  6
BYLAYER
370
13
 10
161.969397893218
 20
140.892702933219
 11
163.383611455591
 21
142.306916495593
  0
LINE
  5
432
100
AcDbEntity
  8
0-0
100
AcDbLine
  6
BYLAYER
370
13
 10
152.383611455591
 20
136.6500622461
 11
152.383611455591
 21
132.278489370845
  0
LINE
  5
433
100
AcDbEntity
  8
0-0
100
AcDbLine
  6
BYLAYER
370
13
 10
163.383611455591
 20
136.6500622461
 11
152.383611455591
 21
136.6500622461
  0
LINE
  5
434
100
AcDbEntity
  8
0-0
100
AcDbLine
  6
BYLAYER
370
13
 10
152.383611455591
 20
142.306916495593
 11
163.383611455591
 21
142.306916495593
  0
LINE
  5
435
100
AcDbEntity
  8
0-0
100
AcDbLine
  6
BYLAYER
370
13
 10
163.383611455591
 20
143.978489370849
 11
152.383611455591
 21
143.978489370849
  0
LINE
  5
436
100
AcDbEntity
  8
0-0
100
AcDbLine
  6
BYLAYER
370
13
 10
152.883611455591
 20
144.478489370849
 11
162.883611455591
 21
144.478489370849
  0
LINE
  5
437
100
AcDbEntity
  8
0-0
100
AcDbLine
  6
BYLAYER
370
13
 10
152.683611455592
 20
131.978489370844
 11
154.883611455592
 21
131.978489370844
  0
LINE
  5
438
100
AcDbEntity
  8
0-0
100
AcDbLine
  6
BYLAYER
370
13
 10
152.683611455592
 20
131.978489370844
 11
152.383611455592
 21
132.278489370844
  0
LINE
  5
439
100
AcDbEntity
  8
0-0
100
AcDbLine
  6
BYLAYER
370
13
 10
154.883611455592
 20
132.278489370844
 11
152.383611455592
 21
132.278489370844
  0
LINE
  5
43A
100
AcDbEntity
  8
0-0
100
AcDbLine
  6
BYLAYER
370
13
 10
165.183611455592
 20
121.278489370844
 11
165.183611455591
 21
125.478489370843
  0
LINE
  5
43B
100
AcDbEntity
  8
0-0
100
AcDbLine
  6
BYLAYER
370
13
 10
165.183611455592
 20
121.278489370844
 11
167.38361145559
 21
121.278489370844
  0
LINE
  5
43C
100
AcDbEntity
  8
0-0
100
AcDbLine
  6
BYLAYER
370
13
 10
164.883611455591
 20
121.578489370844
 11
165.183611455592
 21
121.278489370844
  0
LINE
  5
43D
100
AcDbEntity
  8
0-0
100
AcDbLine
  6
BYLAYER
370
13
 10
171.88361145559
 20
121.578489370844
 11
171.58361145559
 21
121.278489370844
  0
LINE
  5
43E
100
AcDbEntity
  8
0-0
100
AcDbLine
  6
BYLAYER
370
13
 10
171.88361145559
 20
121.578489370844
 11
171.88361145559
 21
125.478489370844
  0
LINE
  5
43F
100
AcDbEntity
  8
0-0
100
AcDbLine
  6
BYLAYER
370
13
 10
171.58361145559
 20
121.278489370844
 11
171.58361145559
 21
125.478489370844
  0
LINE
  5
440
100
AcDbEntity
  8
0-0
100
AcDbLine
  6
BYLAYER
370
13
 10
274.083611455589
 20
130.728489370845
 11
274.083611455589
 21
125.228489370845
  0
LINE
  5
441
100
AcDbEntity
  8
0-0
100
AcDbLine
  6
BYLAYER
370
13
 10
274.083611455589
 20
125.228489370845
 11
272.083611455589
 21
125.228489370845
  0
LINE
  5
442
100
AcDbEntity
  8
0-0
100
AcDbLine
  6
BYLAYER
370
13
 10
178.383611455589
 20
133.478489370845
 11
178.383611455589
 21
130.478489370844
  0
LINE
  5
443
100
AcDbEntity
  8
0-0
100
AcDbLine
  6
BYLAYER
370
13
 10
173.383611455589
 20
133.478489370845
 11
173.383611455589
 21
130.478489370844
  0
LINE
  5
444
100
AcDbEntity
  8
0-0
100
AcDbLine
  6
BYLAYER
370
13
 10
171.383611455589
 20
133.478489370845
 11
264.38361145559
 21
133.478489370845
  0
LINE
  5
445
100
AcDbEntity
  8
0-0
100
AcDbLine
  6
BYLAYER
370
13
 10
184.383611455589
 20
133.478489370845
 11
184.383611455589
 21
130.478489370844
  0
LINE
  5
446
100
AcDbEntity
  8
0-0
100
AcDbLine
  6
BYLAYER
370
13
 10
179.383611455589
 20
133.478489370845
 11
179.383611455589
 21
130.478489370844
  0
LINE
  5
447
100
AcDbEntity
  8
0-0
100
AcDbLine
  6
BYLAYER
370
13
 10
190.383611455589
 20
133.478489370845
 11
190.383611455589
 21
130.478489370844
  0
LINE
  5
448
100
AcDbEntity
  8
0-0
100
AcDbLine
  6
BYLAYER
370
13
 10
185.383611455589
 20
133.478489370845
 11
185.383611455589
 21
130.478489370844
  0
LINE
  5
449
100
AcDbEntity
  8
0-0
100
AcDbLine
  6
BYLAYER
370
13
 10
196.383611455589
 20
133.478489370845
 11
196.383611455589
 21
130.478489370844
  0
LINE
  5
44A
100
AcDbEntity
  8
0-0
100
AcDbLine
  6
BYLAYER
370
13
 10
191.383611455589
 20
133.478489370845
 11
191.383611455589
 21
130.478489370844
  0
LINE
  5
44B
100
AcDbEntity
  8
0-0
100
AcDbLine
  6
BYLAYER
370
13
 10
202.383611455589
 20
133.478489370845
 11
202.383611455589
 21
130.478489370844
  0
LINE
  5
44C
100
AcDbEntity
  8
0-0
100
AcDbLine
  6
BYLAYER
370
13
 10
197.383611455589
 20
133.478489370845
 11
197.383611455589
 21
130.478489370844
  0
LINE
  5
44D
100
AcDbEntity
  8
0-0
100
AcDbLine
  6
BYLAYER
370
13
 10
208.383611455589
 20
133.478489370845
 11
208.383611455589
 21
130.478489370844
  0
LINE
  5
44E
100
AcDbEntity
  8
0-0
100
AcDbLine
  6
BYLAYER
370
13
 10
203.383611455589
 20
133.478489370845
 11
203.383611455589
 21
130.478489370844
  0
LINE
  5
44F
100
AcDbEntity
  8
0-0
100
AcDbLine
  6
BYLAYER
370
13
 10
214.383611455589
 20
133.478489370845
 11
214.383611455589
 21
130.478489370844
  0
LINE
  5
450
100
AcDbEntity
  8
0-0
100
AcDbLine
  6
BYLAYER
370
13
 10
209.383611455589
 20
133.478489370845
 11
209.383611455589
 21
130.478489370844
  0
LINE
  5
451
100
AcDbEntity
  8
0-0
100
AcDbLine
  6
BYLAYER
370
13
 10
220.383611455589
 20
133.478489370845
 11
220.383611455589
 21
130.478489370844
  0
LINE
  5
452
100
AcDbEntity
  8
0-0
100
AcDbLine
  6
BYLAYER
370
13
 10
215.383611455589
 20
133.478489370845
 11
215.383611455589
 21
130.478489370844
  0
LINE
  5
453
100
AcDbEntity
  8
0-0
100
AcDbLine
  6
BYLAYER
370
13
 10
226.383611455589
 20
133.478489370845
 11
226.383611455589
 21
130.478489370844
  0
LINE
  5
454
100
AcDbEntity
  8
0-0
100
AcDbLine
  6
BYLAYER
370
13
 10
221.383611455589
 20
133.478489370845
 11
221.383611455589
 21
130.478489370844
  0
LINE
  5
455
100
AcDbEntity
  8
0-0
100
AcDbLine
  6
BYLAYER
370
13
 10
232.383611455589
 20
133.478489370845
 11
232.38361145559
 21
130.478489370844
  0
LINE
  5
456
100
AcDbEntity
  8
0-0
100
AcDbLine
  6
BYLAYER
370
13
 10
227.383611455589
 20
133.478489370845
 11
227.383611455589
 21
130.478489370844
  0
LINE
  5
457
100
AcDbEntity
  8
0-0
100
AcDbLine
  6
BYLAYER
370
13
 10
238.383611455589
 20
133.478489370845
 11
238.383611455589
 21
130.478489370844
  0
LINE
  5
458
100
AcDbEntity
  8
0-0
100
AcDbLine
  6
BYLAYER
370
13
 10
233.383611455589
 20
133.478489370845
 11
233.383611455589
 21
130.478489370844
  0
LINE
  5
459
100
AcDbEntity
  8
0-0
100
AcDbLine
  6
BYLAYER
370
13
 10
244.383611455589
 20
133.478489370845
 11
244.383611455589
 21
130.478489370845
  0
LINE
  5
45A
100
AcDbEntity
  8
0-0
100
AcDbLine
  6
BYLAYER
370
13
 10
239.383611455589
 20
133.478489370845
 11
239.383611455589
 21
130.478489370844
  0
LINE
  5
45B
100
AcDbEntity
  8
0-0
100
AcDbLine
  6
BYLAYER
370
13
 10
250.383611455589
 20
133.478489370845
 11
250.383611455589
 21
130.478489370845
  0
LINE
  5
45C
100
AcDbEntity
  8
0-0
100
AcDbLine
  6
BYLAYER
370
13
 10
245.383611455589
 20
133.478489370845
 11
245.383611455589
 21
130.478489370845
  0
LINE
  5
45D
100
AcDbEntity
  8
0-0
100
AcDbLine
  6
BYLAYER
370
13
 10
256.383611455589
 20
133.478489370845
 11
256.38361145559
 21
130.478489370845
  0
LINE
  5
45E
100
AcDbEntity
  8
0-0
100
AcDbLine
  6
BYLAYER
370
13
 10
251.383611455589
 20
133.478489370845
 11
251.383611455589
 21
130.478489370845
  0
LINE
  5
45F
100
AcDbEntity
  8
0-0
100
AcDbLine
  6
BYLAYER
370
13
 10
262.383611455589
 20
133.478489370845
 11
262.38361145559
 21
130.478489370845
  0
LINE
  5
460
100
AcDbEntity
  8
0-0
100
AcDbLine
  6
BYLAYER
370
13
 10
257.383611455589
 20
133.478489370845
 11
257.38361145559
 21
130.478489370845
  0
LINE
  5
461
100
AcDbEntity
  8
0-0
100
AcDbLine
  6
BYLAYER
370
13
 10
164.38361145559
 20
138.728489370846
 11
164.38361145559
 21
133.228489370846
  0
LINE
  5
462
100
AcDbEntity
  8
0-0
100
AcDbLine
  6
BYLAYER
370
13
 10
164.38361145559
 20
133.228489370846
 11
167.38361145559
 21
133.228489370846
  0
LINE
  5
463
100
AcDbEntity
  8
0-0
100
AcDbLine
  6
BYLAYER
370
13
 10
271.38361145559
 20
138.728489370848
 11
271.38361145559
 21
133.228489370848
  0
LINE
  5
464
100
AcDbEntity
  8
0-0
100
AcDbLine
  6
BYLAYER
370
13
 10
271.38361145559
 20
133.228489370848
 11
268.38361145559
 21
133.228489370848
  0
LINE
  5
465
100
AcDbEntity
  8
0-0
100
AcDbLine
  6
BYLAYER
370
13
 10
272.08361145559
 20
130.478489370845
 11
274.08361145559
 21
130.478489370845
  0
LINE
  5
466
100
AcDbEntity
  8
0-0
100
AcDbLine
  6
BYLAYER
370
13
 10
264.38361145559
 20
121.278489370845
 11
264.183611455592
 21
121.278489370845
  0
LINE
  5
467
100
AcDbEntity
  8
0-0
100
AcDbLine
  6
BYLAYER
370
13
 10
264.183611455592
 20
130.478489370845
 11
264.183611455592
 21
133.478489370845
  0
LINE
  5
468
100
AcDbEntity
  8
0-0
100
AcDbLine
  6
BYLAYER
370
13
 10
263.883611455592
 20
130.478489370845
 11
263.883611455592
 21
133.478489370845
  0
LINE
  5
469
100
AcDbEntity
  8
0-0
100
AcDbLine
  6
BYLAYER
370
13
 10
270.583611455591
 20
130.478489370845
 11
270.583611455591
 21
133.228489370848
  0
LINE
  5
46A
100
AcDbEntity
  8
0-0
100
AcDbLine
  6
BYLAYER
370
13
 10
171.88361145559
 20
130.478489370844
 11
171.88361145559
 21
133.478489370845
  0
LINE
  5
46B
100
AcDbEntity
  8
0-0
100
AcDbLine
  6
BYLAYER
370
13
 10
171.58361145559
 20
130.478489370844
 11
171.58361145559
 21
133.478489370845
  0
LINE
  5
46C
100
AcDbEntity
  8
0-0
100
AcDbLine
  6
BYLAYER
370
13
 10
165.183611455591
 20
130.478489370843
 11
165.183611455591
 21
133.228489370846
  0
LINE
  5
46D
100
AcDbEntity
  8
0-0
100
AcDbLine
  6
BYLAYER
370
13
 10
171.38361145559
 20
121.278489370844
 11
171.58361145559
 21
121.278489370844
  0
LINE
  5
46E
100
AcDbEntity
  8
0-0
100
AcDbLine
  6
BYLAYER
370
13
 10
164.883611455587
 20
252.093694739158
 11
164.883611455587
 21
200.493694739159
  0
LINE
  5
46F
100
AcDbEntity
  8
0-0
100
AcDbLine
  6
BYLAYER
370
13
 10
163.683611455587
 20
252.093694739158
 11
163.683611455587
 21
200.493694739159
  0
LINE
  5
470
100
AcDbEntity
  8
0-0
100
AcDbLine
  6
BYLAYER
370
13
 10
270.883611455587
 20
252.09369473916
 11
270.883611455588
 21
200.49369473916
  0
LINE
  5
471
100
AcDbEntity
  8
0-0
100
AcDbLine
  6
BYLAYER
370
13
 10
272.083611455586
 20
252.09369473916
 11
272.083611455588
 21
200.49369473916
  0
LINE
  5
472
100
AcDbEntity
  8
0-3
100
AcDbLine
  6
BYLAYER
370
13
 10
164.883611455587
 20
249.293694739158
 11
270.883611455587
 21
249.293694739158
  0
LINE
  5
473
100
AcDbEntity
  8
0-0
100
AcDbLine
  6
BYLAYER
370
13
 10
164.883611455587
 20
246.793694739158
 11
172.983611455586
 21
246.793694739158
  0
LINE
  5
474
100
AcDbEntity
  8
0-0
100
AcDbLine
  6
BYLAYER
370
13
 10
262.783611455587
 20
246.793694739158
 11
270.883611455587
 21
246.793694739158
  0
LINE
  5
475
100
AcDbEntity
  8
0-0
100
AcDbLine
  6
BYLAYER
370
13
 10
164.883611455587
 20
251.793694739158
 11
270.883611455587
 21
251.793694739158
  0
LINE
  5
476
100
AcDbEntity
  8
0-3
100
AcDbLine
  6
BYLAYER
370
13
 10
164.883611455587
 20
203.293694739157
 11
270.883611455588
 21
203.293694739157
  0
LINE
  5
477
100
AcDbEntity
  8
0-0
100
AcDbLine
  6
BYLAYER
370
13
 10
164.883611455587
 20
200.793694739157
 11
270.883611455588
 21
200.793694739157
  0
LINE
  5
478
100
AcDbEntity
  8
0-0
100
AcDbLine
  6
BYLAYER
370
13
 10
164.883611455587
 20
205.793694739157
 11
186.325685469029
 21
205.793694739157
  0
LINE
  5
479
100
AcDbEntity
  8
0-0
100
AcDbLine
  6
BYLAYER
370
13
 10
249.44040723173
 20
205.793694739157
 11
270.883611455588
 21
205.793694739157
  0
CIRCLE
  5
47A
100
AcDbEntity
  8
0-0
100
AcDbCircle
  6
BYLAYER
370
13
 10
157.883611455586
 20
246.293694739158
 40
1.5
  0
CIRCLE
  5
47B
100
AcDbEntity
  8
0-0
100
AcDbCircle
  6
BYLAYER
370
13
 10
157.883611455586
 20
246.293694739158
 40
1.2
  0
CIRCLE
  5
47C
100
AcDbEntity
  8
0-0
100
AcDbCircle
  6
BYLAYER
370
13
 10
157.883611455587
 20
206.293694739158
 40
1.5
  0
CIRCLE
  5
47D
100
AcDbEntity
  8
0-0
100
AcDbCircle
  6
BYLAYER
370
13
 10
157.883611455587
 20
206.293694739158
 40
1.2
  0
LINE
  5
47E
100
AcDbEntity
  8
0-0
100
AcDbLine
  6
BYLAYER
370
13
 10
164.883611455586
 20
252.093694739159
 11
156.883611455586
 21
252.093694739158
  0
ARC
  5
47F
100
AcDbEntity
  8
0-0
100
AcDbCircle
  6
BYLAYER
370
13
 10
156.883611455586
 20
250.093694739158
 40
2
100
AcDbArc
 50
90
 51
180
  0
LINE
  5
480
100
AcDbEntity
  8
0-0
100
AcDbLine
  6
BYLAYER
370
13
 10
164.883611455587
 20
200.493694739159
 11
156.883611455588
 21
200.493694739158
  0
LINE
  5
481
100
AcDbEntity
  8
0-0
100
AcDbLine
  6
BYLAYER
370
13
 10
154.883611455588
 20
202.493694739158
 11
154.883611455587
 21
221.683922510512
  0
ARC
  5
482
100
AcDbEntity
  8
0-0
100
AcDbCircle
  6
BYLAYER
370
13
 10
156.883611455588
 20
202.493694739158
 40
2
100
AcDbArc
 50
180
 51
270
  0
CIRCLE
  5
483
100
AcDbEntity
  8
0-0
100
AcDbCircle
  6
BYLAYER
370
13
 10
277.883611455587
 20
246.29369473916
 40
1.5
  0
CIRCLE
  5
484
100
AcDbEntity
  8
0-0
100
AcDbCircle
  6
BYLAYER
370
13
 10
277.883611455587
 20
246.29369473916
 40
1.2
  0
CIRCLE
  5
485
100
AcDbEntity
  8
0-0
100
AcDbCircle
  6
BYLAYER
370
13
 10
277.883611455587
 20
206.29369473916
 40
1.5
  0
CIRCLE
  5
486
100
AcDbEntity
  8
0-0
100
AcDbCircle
  6
BYLAYER
370
13
 10
277.883611455587
 20
206.29369473916
 40
1.2
  0
LINE
  5
487
100
AcDbEntity
  8
0-0
100
AcDbLine
  6
BYLAYER
370
13
 10
270.883611455587
 20
252.09369473916
 11
278.883611455587
 21
252.09369473916
  0
ARC
  5
488
100
AcDbEntity
  8
0-0
100
AcDbCircle
  6
BYLAYER
370
13
 10
278.883611455587
 20
250.09369473916
 40
2
100
AcDbArc
 50
0
 51
90
  0
LINE
  5
489
100
AcDbEntity
  8
0-0
100
AcDbLine
  6
BYLAYER
370
13
 10
270.883611455587
 20
200.49369473916
 11
278.883611455587
 21
200.49369473916
  0
LINE
  5
48A
100
AcDbEntity
  8
0-0
100
AcDbLine
  6
BYLAYER
370
13
 10
280.883611455587
 20
202.49369473916
 11
280.883611455587
 21
221.683922510514
  0
ARC
  5
48B
100
AcDbEntity
  8
0-0
100
AcDbCircle
  6
BYLAYER
370
13
 10
278.883611455587
 20
202.49369473916
 40
2
100
AcDbArc
 50
270
 51
0
  0
LINE
  5
48C
100
AcDbEntity
  8
0-0
100
AcDbLine
  6
BYLAYER
370
13
 10
164.883611455586
 20
232.99369473916
 11
171.583611455587
 21
232.99369473916
  0
LINE
  5
48D
100
AcDbEntity
  8
0-0
100
AcDbLine
  6
BYLAYER
370
13
 10
171.883611455587
 20
232.69369473916
 11
171.583611455587
 21
232.99369473916
  0
LINE
  5
48E
100
AcDbEntity
  8
0-0
100
AcDbLine
  6
BYLAYER
370
13
 10
171.583611455587
 20
219.59369473916
 11
164.883611455587
 21
219.59369473916
  0
LINE
  5
48F
100
AcDbEntity
  8
0-0
100
AcDbLine
  6
BYLAYER
370
13
 10
171.883611455587
 20
232.69369473916
 11
171.883611455587
 21
219.89369473916
  0
LINE
  5
490
100
AcDbEntity
  8
0-0
100
AcDbLine
  6
BYLAYER
370
13
 10
171.583611455587
 20
219.59369473916
 11
171.883611455587
 21
219.89369473916
  0
CIRCLE
  5
491
100
AcDbEntity
  8
0-5
100
AcDbCircle
  6
BYLAYER
370
13
 10
157.883611455587
 20
226.293694739158
 40
3.5
  0
CIRCLE
  5
492
100
AcDbEntity
  8
0-0
100
AcDbCircle
  6
BYLAYER
370
13
 10
157.883611455587
 20
226.293694739158
 40
5.5
  0
LINE
  5
493
100
AcDbEntity
  8
0-0
100
AcDbLine
  6
BYLAYER
370
13
 10
270.883611455587
 20
232.993694739162
 11
264.183611455587
 21
232.993694739162
  0
LINE
  5
494
100
AcDbEntity
  8
0-0
100
AcDbLine
  6
BYLAYER
370
13
 10
263.883611455587
 20
232.693694739162
 11
264.183611455587
 21
232.993694739162
  0
LINE
  5
495
100
AcDbEntity
  8
0-0
100
AcDbLine
  6
BYLAYER
370
13
 10
264.183611455587
 20
219.593694739162
 11
270.883611455587
 21
219.593694739162
  0
LINE
  5
496
100
AcDbEntity
  8
0-0
100
AcDbLine
  6
BYLAYER
370
13
 10
263.883611455587
 20
232.693694739162
 11
263.883611455587
 21
219.893694739162
  0
LINE
  5
497
100
AcDbEntity
  8
0-0
100
AcDbLine
  6
BYLAYER
370
13
 10
264.183611455587
 20
219.593694739162
 11
263.883611455587
 21
219.893694739162
  0
CIRCLE
  5
498
100
AcDbEntity
  8
0-5
100
AcDbCircle
  6
BYLAYER
370
13
 10
277.883611455587
 20
226.29369473916
 40
3.5
  0
CIRCLE
  5
499
100
AcDbEntity
  8
0-0
100
AcDbCircle
  6
BYLAYER
370
13
 10
277.883611455587
 20
226.29369473916
 40
5.5
  0
LINE
  5
49A
100
AcDbEntity
  8
0-0
100
AcDbLine
  6
BYLAYER
370
13
 10
280.883611455587
 20
230.903466967807
 11
280.883611455587
 21
250.09369473916
  0
LINE
  5
49B
100
AcDbEntity
  8
0-0
100
AcDbLine
  6
BYLAYER
370
13
 10
154.883611455587
 20
230.903466967805
 11
154.883611455586
 21
250.093694739158
  0
LINE
  5
49C
100
AcDbEntity
  8
0-6
100
AcDbLine
  6
BYLAYER
370
13
 10
268.883611455587
 20
205.693694739159
 11
166.883611455587
 21
205.69369473916
  0
ARC
  5
49D
100
AcDbEntity
  8
0-6
100
AcDbCircle
  6
BYLAYER
370
13
 10
268.883611455587
 20
208.693694739159
 40
3
100
AcDbArc
 50
269.999999999999
 51
0
  0
LINE
  5
49E
100
AcDbEntity
  8
0-6
100
AcDbLine
  6
BYLAYER
370
13
 10
268.883611455587
 20
246.893694739158
 11
166.883611455587
 21
246.89369473916
  0
ARC
  5
49F
100
AcDbEntity
  8
0-6
100
AcDbCircle
  6
BYLAYER
370
13
 10
166.883611455587
 20
243.89369473916
 40
3
100
AcDbArc
 50
89.9999999999992
 51
180
  0
LINE
  5
4A0
100
AcDbEntity
  8
0-6
100
AcDbLine
  6
BYLAYER
370
13
 10
163.883611455587
 20
208.69369473916
 11
163.883611455587
 21
218.293694739159
  0
ARC
  5
4A1
100
AcDbEntity
  8
0-6
100
AcDbCircle
  6
BYLAYER
370
13
 10
161.883611455587
 20
218.293694739159
 40
2
100
AcDbArc
 50
0
 51
89.9999999999992
  0
ARC
  5
4A2
100
AcDbEntity
  8
0-6
100
AcDbCircle
  6
BYLAYER
370
13
 10
166.883611455587
 20
208.69369473916
 40
3
100
AcDbArc
 50
180
 51
269.999999999999
  0
LINE
  5
4A3
100
AcDbEntity
  8
0-6
100
AcDbLine
  6
BYLAYER
370
13
 10
163.883611455587
 20
234.284810461445
 11
163.883611455587
 21
243.89369473916
  0
LINE
  5
4A4
100
AcDbEntity
  8
0-6
100
AcDbLine
  6
BYLAYER
370
13
 10
271.883611455587
 20
208.693694739159
 11
271.883611455587
 21
218.293694739164
  0
ARC
  5
4A5
100
AcDbEntity
  8
0-6
100
AcDbCircle
  6
BYLAYER
370
13
 10
273.883611455587
 20
218.293694739163
 40
2
100
AcDbArc
 50
89.9999999999992
 51
180
  0
LINE
  5
4A6
100
AcDbEntity
  8
0-6
100
AcDbLine
  6
BYLAYER
370
13
 10
271.883611455587
 20
234.293694739163
 11
271.883611455587
 21
243.893694739158
  0
ARC
  5
4A7
100
AcDbEntity
  8
0-6
100
AcDbCircle
  6
BYLAYER
370
13
 10
273.883611455587
 20
234.293694739163
 40
2
100
AcDbArc
 50
180.000000000003
 51
269.999999999999
  0
ARC
  5
4A8
100
AcDbEntity
  8
0-6
100
AcDbCircle
  6
BYLAYER
370
13
 10
268.883611455587
 20
243.893694739158
 40
3
100
AcDbArc
 50
3.2569E-12
 51
89.9999999999992
  0
ARC
  5
4A9
100
AcDbEntity
  8
0-6
100
AcDbCircle
  6
BYLAYER
370
13
 10
277.883611455587
 20
226.293694739163
 40
6
100
AcDbArc
 50
270.000000000001
 51
90.0000000000008
  0
ARC
  5
4AA
100
AcDbEntity
  8
0-6
100
AcDbCircle
  6
BYLAYER
370
13
 10
157.883611455587
 20
226.29369473916
 40
6
100
AcDbArc
 50
90
 51
270
  0
LINE
  5
4AB
100
AcDbEntity
  8
0-6
100
AcDbLine
  6
BYLAYER
370
13
 10
161.883611455587
 20
220.293694739159
 11
157.883611455587
 21
220.29369473916
  0
LINE
  5
4AC
100
AcDbEntity
  8
0-6
100
AcDbLine
  6
BYLAYER
370
13
 10
161.883611455587
 20
232.284810461445
 11
157.557218437608
 21
232.284810461445
  0
ARC
  5
4AD
100
AcDbEntity
  8
0-6
100
AcDbCircle
  6
BYLAYER
370
13
 10
161.883611455587
 20
234.284810461445
 40
2
100
AcDbArc
 50
269.999999999999
 51
3.2569E-12
  0
LINE
  5
4AE
100
AcDbEntity
  8
0-6
100
AcDbLine
  6
BYLAYER
370
13
 10
277.883611455587
 20
220.293694739163
 11
273.883611455587
 21
220.293694739163
  0
LINE
  5
4AF
100
AcDbEntity
  8
0-6
100
AcDbLine
  6
BYLAYER
370
13
 10
277.883611455587
 20
232.293694739163
 11
273.883611455587
 21
232.293694739163
  0
LINE
  5
4B0
100
AcDbEntity
  8
0-4
100
AcDbLine
  6
BYLAYER
 62
0
370
13
 10
280.883611455587
 20
202.16869473916
 11
280.883611455587
 21
184.478489370844
  0
LINE
  5
4B1
100
AcDbEntity
  8
0-4
100
AcDbLine
  6
BYLAYER
 62
0
370
13
 10
284.883611455586
 20
221.66869473916
 11
284.883611455586
 21
184.478489370844
  0
LINE
  5
4B2
100
AcDbEntity
  8
0-4
100
AcDbLine
  6
BYLAYER
 62
0
370
13
 10
157.883611455586
 20
251.818694739158
 11
157.883611455586
 21
269.578489370843
  0
LINE
  5
4B3
100
AcDbEntity
  8
0-4
100
AcDbLine
  6
BYLAYER
 62
0
370
13
 10
277.883611455587
 20
248.520840215153
 11
277.883611455587
 21
269.578489370843
  0
SOLID
  5
4B4
100
AcDbEntity
  8
0-0
 62
250
100
AcDbTrace
 10
152.414741633003
 20
219.773336315366
 30
0.0
 11
153.078679602453
 21
219.269718586164
 31
0.0
 12
154.257563805334
 22
221.513341359116
 32
0.0
 13
154.257563805334
 23
221.513341359116
 33
0.0
  0
CIRCLE
  5
4B5
100
AcDbEntity
  8
0-6
100
AcDbCircle
  6
BYLAYER
370
13
 10
157.883611455587
 20
206.293694739158
 40
1.75
  0
CIRCLE
  5
4B6
100
AcDbEntity
  8
0-6
100
AcDbCircle
  6
BYLAYER
370
13
 10
157.883611455586
 20
246.293694739158
 40
1.75
  0
CIRCLE
  5
4B7
100
AcDbEntity
  8
0-6
100
AcDbCircle
  6
BYLAYER
370
13
 10
277.883611455587
 20
246.29369473916
 40
1.75
  0
CIRCLE
  5
4B8
100
AcDbEntity
  8
0-6
100
AcDbCircle
  6
BYLAYER
370
13
 10
277.883611455587
 20
206.29369473916
 40
1.75
  0
LINE
  5
4B9
100
AcDbEntity
  8
0-0
100
AcDbLine
  6
BYLAYER
370
13
 10
284.88361145559
 20
103.678489370847
 11
284.88361145559
 21
108.278489370847
  0
LINE
  5
4BA
100
AcDbEntity
  8
0-0
100
AcDbLine
  6
BYLAYER
370
13
 10
284.68361145559
 20
103.478489370847
 11
284.88361145559
 21
103.678489370847
  0
LINE
  5
4BB
100
AcDbEntity
  8
0-0
100
AcDbLine
  6
BYLAYER
370
13
 10
275.38361145559
 20
108.478489370847
 11
284.68361145559
 21
108.478489370847
  0
LINE
  5
4BC
100
AcDbEntity
  8
0-0
100
AcDbLine
  6
BYLAYER
370
13
 10
284.88361145559
 20
108.278489370847
 11
284.68361145559
 21
108.478489370847
  0
LINE
  5
4BD
100
AcDbEntity
  8
0-0
100
AcDbLine
  6
BYLAYER
370
13
 10
275.38361145559
 20
103.478489370847
 11
284.68361145559
 21
103.478489370847
  0
LINE
  5
4BE
100
AcDbEntity
  8
0-0
100
AcDbLine
  6
BYLAYER
370
13
 10
284.68361145559
 20
108.478489370847
 11
284.68361145559
 21
103.478489370847
  0
LINE
  5
4BF
100
AcDbEntity
  8
0-0
100
AcDbLine
  6
BYLAYER
370
13
 10
272.083611455593
 20
96.4784893708492
 11
275.383611455592
 21
96.4784893708479
  0
LINE
  5
4C0
100
AcDbEntity
  8
0-0
100
AcDbLine
  6
BYLAYER
370
13
 10
272.08361145559
 20
115.478489370849
 11
275.383611455591
 21
115.478489370849
  0
LINE
  5
4C1
100
AcDbEntity
  8
0-0
100
AcDbLine
  6
BYLAYER
370
13
 10
275.383611455591
 20
115.478489370849
 11
275.383611455592
 21
96.4784893708494
  0
LINE
  5
4C2
100
AcDbEntity
  8
0-0
100
AcDbLine
  6
BYLAYER
370
13
 10
284.883611455586
 20
221.99369473916
 11
284.883611455586
 21
226.59369473916
  0
LINE
  5
4C3
100
AcDbEntity
  8
0-0
100
AcDbLine
  6
BYLAYER
370
13
 10
284.683611455587
 20
221.79369473916
 11
284.883611455586
 21
221.99369473916
  0
LINE
  5
4C4
100
AcDbEntity
  8
0-0
100
AcDbLine
  6
BYLAYER
370
13
 10
283.360837030638
 20
226.79369473916
 11
284.683611455587
 21
226.79369473916
  0
LINE
  5
4C5
100
AcDbEntity
  8
0-0
100
AcDbLine
  6
BYLAYER
370
13
 10
284.883611455586
 20
226.59369473916
 11
284.683611455587
 21
226.79369473916
  0
LINE
  5
4C6
100
AcDbEntity
  8
0-0
100
AcDbLine
  6
BYLAYER
370
13
 10
281.045889115756
 20
221.79369473916
 11
284.683611455587
 21
221.79369473916
  0
LINE
  5
4C7
100
AcDbEntity
  8
0-0
100
AcDbLine
  6
BYLAYER
370
13
 10
284.683611455587
 20
226.79369473916
 11
284.683611455587
 21
221.79369473916
  0
LINE
  5
4C8
100
AcDbEntity
  8
0-4
100
AcDbLine
  6
BYLAYER
 62
0
370
13
 10
285.00861145559
 20
103.478489370847
 11
298.33361145559
 21
103.478489370847
  0
LINE
  5
4C9
100
AcDbEntity
  8
0-4
100
AcDbLine
  6
BYLAYER
 62
0
370
13
 10
285.00861145559
 20
108.478489370847
 11
298.33361145559
 21
108.478489370847
  0
LINE
  5
4CA
100
AcDbEntity
  8
0-4
100
AcDbLine
  6
BYLAYER
 62
0
370
13
 10
275.383611455592
 20
96.1534893708494
 11
275.383611455592
 21
77.9784893708435
  0
LINE
  5
4CB
100
AcDbEntity
  8
0-4
100
AcDbLine
  6
BYLAYER
 62
0
370
13
 10
284.88361145559
 20
103.353489370847
 11
284.88361145559
 21
77.9784893708435
  0
LINE
  5
4CC
100
AcDbEntity
  8
0-0
100
AcDbLine
  6
BYLAYER
370
13
 10
373.68361145559
 20
132.478489370849
 11
352.493383684238
 21
132.478489370849
  0
LINE
  5
4CD
100
AcDbEntity
  8
0-0
100
AcDbLine
  6
BYLAYER
370
13
 10
343.273839226944
 20
132.478489370848
 11
322.083611455589
 21
132.478489370848
  0
LINE
  5
4CE
100
AcDbEntity
  8
0-0
100
AcDbLine
  6
BYLAYER
370
13
 10
341.183611455589
 20
145.478489370847
 11
341.18361145559
 21
132.478489370848
  0
LINE
  5
4CF
100
AcDbEntity
  8
0-0
100
AcDbLine
  6
BYLAYER
370
13
 10
354.583611455589
 20
145.478489370847
 11
354.58361145559
 21
132.478489370849
  0
LINE
  5
4D0
100
AcDbEntity
  8
0-0
100
AcDbLine
  6
BYLAYER
370
13
 10
344.583611455589
 20
145.478489370847
 11
344.583611455589
 21
144.47848937085
  0
LINE
  5
4D1
100
AcDbEntity
  8
0-0
100
AcDbLine
  6
BYLAYER
370
13
 10
352.583611455589
 20
145.478489370847
 11
352.583611455589
 21
144.47848937085
  0
LINE
  5
4D2
100
AcDbEntity
  8
0-0
100
AcDbLine
  6
BYLAYER
370
13
 10
352.583611455589
 20
141.506916495594
 11
352.583611455589
 21
137.450062246101
  0
LINE
  5
4D3
100
AcDbEntity
  8
0-0
100
AcDbLine
  6
BYLAYER
370
13
 10
352.583611455589
 20
145.478489370847
 11
344.583611455589
 21
145.478489370847
  0
LINE
  5
4D4
100
AcDbEntity
  8
0-0
100
AcDbLine
  6
BYLAYER
370
13
 10
341.183611455589
 20
160.478489370847
 11
341.183611455589
 21
145.478489370847
  0
LINE
  5
4D5
100
AcDbEntity
  8
0-0
100
AcDbLine
  6
BYLAYER
370
13
 10
354.583611455589
 20
160.478489370847
 11
354.583611455589
 21
145.478489370847
  0
LINE
  5
4D6
100
AcDbEntity
  8
0-0
100
AcDbLine
  6
BYLAYER
370
13
 10
364.58361145559
 20
132.478489370849
 11
364.583611455589
 21
160.478489370847
  0
LINE
  5
4D7
100
AcDbEntity
  8
0-0
100
AcDbLine
  6
BYLAYER
370
13
 10
352.083611455591
 20
145.478489370847
 11
352.083611455591
 21
144.47848937085
  0
LINE
  5
4D8
100
AcDbEntity
  8
0-0
100
AcDbLine
  6
BYLAYER
370
13
 10
352.083611455591
 20
141.006916495595
 11
352.083611455591
 21
137.9500622461
  0
LINE
  5
4D9
100
AcDbEntity
  8
0-0
100
AcDbLine
  6
BYLAYER
370
13
 10
345.083611455591
 20
145.478489370847
 11
345.083611455591
 21
144.47848937085
  0
ARC
  5
4DA
100
AcDbEntity
  8
0-0
100
AcDbCircle
  6
BYLAYER
370
13
 10
360.583611455589
 20
139.478489370848
 40
1
100
AcDbArc
 50
305.659087696141
 51
54.3409123038597
  0
ARC
  5
4DB
100
AcDbEntity
  8
0-0
100
AcDbCircle
  6
BYLAYER
370
13
 10
360.583611455589
 20
139.478489370848
 40
1
100
AcDbArc
 50
125.659087696141
 51
234.34091230386
  0
ARC
  5
4DC
100
AcDbEntity
  8
0-0
100
AcDbCircle
  6
BYLAYER
370
13
 10
335.183611455589
 20
139.478489370847
 40
1
100
AcDbArc
 50
125.659087696141
 51
234.340912303843
  0
ARC
  5
4DD
100
AcDbEntity
  8
0-0
100
AcDbCircle
  6
BYLAYER
370
13
 10
335.183611455589
 20
139.478489370847
 40
1
100
AcDbArc
 50
305.65908769616
 51
54.3409123038597
  0
LINE
  5
4DE
100
AcDbEntity
  8
0-0
100
AcDbLine
  6
BYLAYER
370
13
 10
331.183611455589
 20
155.978489370847
 11
331.183611455589
 21
132.478489370848
  0
CIRCLE
  5
4DF
100
AcDbEntity
  8
0-0
100
AcDbCircle
  6
BYLAYER
370
13
 10
360.583611455589
 20
142.978489370848
 40
2.75
  0
CIRCLE
  5
4E0
100
AcDbEntity
  8
0-0
100
AcDbCircle
  6
BYLAYER
370
13
 10
335.183611455589
 20
142.978489370847
 40
2.75
  0
LINE
  5
4E1
100
AcDbEntity
  8
0-0
100
AcDbLine
  6
BYLAYER
370
13
 10
334.183611455589
 20
162.478489370847
 11
334.183611455589
 21
159.978489370847
  0
LINE
  5
4E2
100
AcDbEntity
  8
0-0
100
AcDbLine
  6
BYLAYER
370
13
 10
362.583611455589
 20
162.478489370847
 11
356.583611455589
 21
162.478489370847
  0
LINE
  5
4E3
100
AcDbEntity
  8
0-0
100
AcDbLine
  6
BYLAYER
370
13
 10
364.583611455589
 20
160.478489370847
 11
362.583611455589
 21
162.478489370847
  0
LINE
  5
4E4
100
AcDbEntity
  8
0-0
100
AcDbLine
  6
BYLAYER
370
13
 10
335.183611455589
 20
155.978489370847
 11
331.183611455589
 21
155.978489370847
  0
LINE
  5
4E5
100
AcDbEntity
  8
0-0
100
AcDbLine
  6
BYLAYER
370
13
 10
356.583611455589
 20
162.478489370847
 11
354.583611455589
 21
160.478489370847
  0
CIRCLE
  5
4E6
100
AcDbEntity
  8
0-0
100
AcDbCircle
  6
BYLAYER
370
13
 10
335.183611455589
 20
157.978489370847
 40
2
  0
LINE
  5
4E7
100
AcDbEntity
  8
0-0
100
AcDbLine
  6
BYLAYER
370
13
 10
335.183611455589
 20
159.978489370847
 11
334.183611455589
 21
159.978489370847
  0
LINE
  5
4E8
100
AcDbEntity
  8
0-0
100
AcDbLine
  6
BYLAYER
370
13
 10
339.183611455589
 20
162.478489370847
 11
334.183611455589
 21
162.478489370847
  0
LINE
  5
4E9
100
AcDbEntity
  8
0-0
100
AcDbLine
  6
BYLAYER
370
13
 10
341.183611455589
 20
160.478489370847
 11
339.183611455589
 21
162.478489370847
  0
CIRCLE
  5
4EA
100
AcDbEntity
  8
0-0
100
AcDbCircle
  6
BYLAYER
370
13
 10
360.583611455588
 20
157.978489370847
 40
2
  0
CIRCLE
  5
4EB
100
AcDbEntity
  8
0-0
100
AcDbCircle
  6
BYLAYER
370
13
 10
360.583611455588
 20
157.978489370847
 40
3
  0
CIRCLE
  5
4EC
100
AcDbEntity
  8
0-0
100
AcDbCircle
  6
BYLAYER
370
13
 10
368.236377240872
 20
159.486857971555
 40
2
  0
ARC
  5
4ED
100
AcDbEntity
  8
0-0
100
AcDbCircle
  6
BYLAYER
370
13
 10
368.236377240872
 20
159.486857971555
 40
4
100
AcDbArc
 50
204.049819878317
 51
163.061987891905
  0
LINE
  5
4EE
100
AcDbEntity
  8
0-0
100
AcDbLine
  6
BYLAYER
370
13
 10
369.203280190043
 20
154.581238878423
 11
364.583611455589
 21
153.670697061225
  0
LINE
  5
4EF
100
AcDbEntity
  8
0-0
100
AcDbLine
  6
BYLAYER
370
13
 10
354.583611455589
 20
151.699686000612
 11
348.305342853309
 21
150.462232314952
  0
LINE
  5
4F0
100
AcDbEntity
  8
0-5
100
AcDbLine
  6
BYLAYER
370
13
 10
366.921389229999
 20
166.15849993821
 11
344.551766165325
 21
161.749422489988
  0
LINE
  5
4F1
100
AcDbEntity
  8
0-0
100
AcDbLine
  6
BYLAYER
370
13
 10
366.689332522197
 20
167.335848520561
 11
342.161237056547
 21
162.501333774704
  0
LINE
  5
4F2
100
AcDbEntity
  8
0-0
100
AcDbLine
  6
BYLAYER
370
13
 10
344.319709457524
 20
162.926771072339
 11
346.543586240618
 21
151.64384715814
  0
ARC
  5
4F3
100
AcDbEntity
  8
0-0
100
AcDbCircle
  6
BYLAYER
370
13
 10
348.015271968557
 20
151.933918042891
 40
1.5
100
AcDbArc
 50
191.150137663498
 51
281.150137663497
  0
LINE
  5
4F4
100
AcDbEntity
  8
0-0
100
AcDbLine
  6
BYLAYER
370
13
 10
366.689332522197
 20
167.335848520561
 11
367.2694742917
 21
164.392477064683
  0
LINE
  5
4F5
100
AcDbEntity
  8
0-0
100
AcDbLine
  6
BYLAYER
370
13
 10
324.375529405696
 20
165.270558099035
 11
324.19091445074
 21
164.084844255645
  0
LINE
  5
4F6
100
AcDbEntity
  8
0-0
100
AcDbLine
  6
BYLAYER
370
13
 10
344.551766165325
 20
161.749422489988
 11
342.393293764349
 21
161.323985192353
  0
LINE
  5
4F7
100
AcDbEntity
  8
0-0
100
AcDbLine
  6
BYLAYER
370
13
 10
370.322627288196
 20
162.955778203721
 11
370.252045100818
 21
162.94186637652
  0
ARC
  5
4F8
100
AcDbEntity
  8
0-0
100
AcDbCircle
  6
BYLAYER
370
13
 10
370.283951170229
 20
163.152002967446
 40
0.2
100
AcDbArc
 50
281.150137663497
 51
71.150137663497
  0
LINE
  5
4F9
100
AcDbEntity
  8
0-0
100
AcDbLine
  6
BYLAYER
370
13
 10
370.348569051413
 20
163.341276656667
 11
367.2694742917
 21
164.392477064683
  0
LINE
  5
4FA
100
AcDbEntity
  8
0-0
100
AcDbLine
  6
BYLAYER
370
13
 10
371.482910827202
 20
157.069035291964
 11
371.412328639819
 21
157.055123464763
  0
ARC
  5
4FB
100
AcDbEntity
  8
0-0
100
AcDbCircle
  6
BYLAYER
370
13
 10
371.521586945168
 20
156.872810528239
 40
0.2
100
AcDbArc
 50
311.150137663493
 51
101.150137663491
  0
LINE
  5
4FC
100
AcDbEntity
  8
0-0
100
AcDbLine
  6
BYLAYER
370
13
 10
371.65319382771
 20
156.722212956985
 11
369.203280190043
 21
154.581238878423
  0
LINE
  5
4FD
100
AcDbEntity
  8
0-0
100
AcDbLine
  6
BYLAYER
370
13
 10
342.161237056547
 20
162.501333774704
 11
324.375529405696
 21
165.270558099035
  0
LINE
  5
4FE
100
AcDbEntity
  8
0-0
100
AcDbLine
  6
BYLAYER
370
13
 10
341.976622101592
 20
161.315619931314
 11
340.045862795471
 21
161.616238030964
  0
LINE
  5
4FF
100
AcDbEntity
  8
0-0
100
AcDbLine
  6
BYLAYER
370
13
 10
334.507940093449
 20
162.478489370847
 11
324.19091445074
 21
164.084844255645
  0
ARC
  5
500
100
AcDbEntity
  8
0-0
100
AcDbCircle
  6
BYLAYER
370
13
 10
342.161237056548
 20
162.501333774702
 40
1.19999999999858
100
AcDbArc
 50
261.150137663483
 51
281.150137663504
  0
LINE
  5
501
100
AcDbEntity
  8
0-0
100
AcDbLine
  6
BYLAYER
370
13
 10
371.396183184155
 20
162.634178482845
 11
370.742614691935
 21
162.604352773297
  0
LINE
  5
502
100
AcDbEntity
  8
0-0
100
AcDbLine
  6
BYLAYER
370
13
 10
344.618240481768
 20
161.412162503117
 11
340.440586284715
 21
161.221514541721
  0
LINE
  5
503
100
AcDbEntity
  8
0-0
100
AcDbLine
  6
BYLAYER
370
13
 10
334.183611455589
 20
160.935976428845
 11
331.750279160146
 21
160.824930894762
  0
LINE
  5
504
100
AcDbEntity
  8
0-0
100
AcDbLine
  6
BYLAYER
370
13
 10
371.918457216436
 20
162.157492175925
 11
371.396183184155
 21
162.634178482845
  0
LINE
  5
505
100
AcDbEntity
  8
0-0
100
AcDbLine
  6
BYLAYER
370
13
 10
371.669709536314
 20
156.640416447639
 11
371.553527120554
 21
156.635114443292
  0
LINE
  5
506
100
AcDbEntity
  8
0-0
100
AcDbLine
  6
BYLAYER
370
13
 10
345.791524519615
 20
155.459461063268
 11
341.183611455589
 21
155.249178165137
  0
LINE
  5
507
100
AcDbEntity
  8
0-0
100
AcDbLine
  6
BYLAYER
370
13
 10
372.146395843235
 20
157.16269047992
 11
372.08936558056
 21
158.412390264165
  0
LINE
  5
508
100
AcDbEntity
  8
0-0
100
AcDbLine
  6
BYLAYER
370
13
 10
371.975487479111
 20
160.90779239168
 11
371.918457216436
 21
162.157492175925
  0
LINE
  5
509
100
AcDbEntity
  8
0-0
100
AcDbLine
  6
BYLAYER
370
13
 10
371.669709536314
 20
156.640416447639
 11
372.146395843235
 21
157.16269047992
  0
LINE
  5
50A
100
AcDbEntity
  8
0-0
100
AcDbLine
  6
BYLAYER
370
13
 10
331.470926973793
 20
155.978489370847
 11
331.273592853226
 21
160.302656862482
  0
LINE
  5
50B
100
AcDbEntity
  8
0-0
100
AcDbLine
  6
BYLAYER
370
13
 10
331.750279160146
 20
160.824930894762
 11
331.273592853226
 21
160.302656862482
  0
LINE
  5
50C
100
AcDbEntity
  8
0-0
100
AcDbLine
  6
BYLAYER
370
13
 10
322.083611455589
 20
132.478489370848
 11
322.083611455591
 21
86.4784893708467
  0
LINE
  5
50D
100
AcDbEntity
  8
0-0
100
AcDbLine
  6
BYLAYER
370
13
 10
373.68361145559
 20
132.478489370849
 11
373.683611455591
 21
86.4784893708476
  0
ARC
  5
50E
100
AcDbEntity
  8
0-0
100
AcDbCircle
  6
BYLAYER
370
13
 10
371.683611455591
 20
86.4784893708475
 40
2
100
AcDbArc
 50
270
 51
1.5322E-12
  0
LINE
  5
50F
100
AcDbEntity
  8
0-0
100
AcDbLine
  6
BYLAYER
370
13
 10
371.683611455591
 20
84.4784893708475
 11
324.083611455591
 21
84.4784893708467
  0
ARC
  5
510
100
AcDbEntity
  8
0-0
100
AcDbCircle
  6
BYLAYER
370
13
 10
324.083611455591
 20
86.4784893708467
 40
2
100
AcDbArc
 50
180.000000000002
 51
270
  0
LINE
  5
511
100
AcDbEntity
  8
0-0
100
AcDbLine
  6
BYLAYER
370
13
 10
373.68361145559
 20
131.278489370849
 11
322.083611455589
 21
131.278489370848
  0
CIRCLE
  5
512
100
AcDbEntity
  8
0-0
100
AcDbCircle
  6
BYLAYER
370
13
 10
344.38361145559
 20
127.978489370847
 40
2.75
  0
CIRCLE
  5
513
100
AcDbEntity
  8
0-0
100
AcDbCircle
  6
BYLAYER
370
13
 10
351.38361145559
 20
127.978489370847
 40
2.75
  0
CIRCLE
  5
514
100
AcDbEntity
  8
0-0
100
AcDbCircle
  6
BYLAYER
370
13
 10
358.583611455591
 20
90.5331017098015
 40
2
  0
CIRCLE
  5
515
100
AcDbEntity
  8
0-0
100
AcDbCircle
  6
BYLAYER
370
13
 10
337.183611455591
 20
90.5331017098004
 40
2
  0
CIRCLE
  5
516
100
AcDbEntity
  8
0-0
100
AcDbCircle
  6
BYLAYER
370
13
 10
326.883611455591
 20
88.9784893708468
 40
3
  0
CIRCLE
  5
517
100
AcDbEntity
  8
0-0
100
AcDbCircle
  6
BYLAYER
370
13
 10
368.883611455591
 20
88.9784893708475
 40
3
  0
ARC
  5
518
100
AcDbEntity
  8
0-0
100
AcDbCircle
  6
BYLAYER
370
13
 10
347.88361145559
 20
127.978489370848
 40
1
100
AcDbArc
 50
35.6590876961334
 51
144.340912303884
  0
ARC
  5
519
100
AcDbEntity
  8
0-0
100
AcDbCircle
  6
BYLAYER
370
13
 10
347.88361145559
 20
127.978489370848
 40
1
100
AcDbArc
 50
215.659087696151
 51
324.340912303838
  0
CIRCLE
  5
51A
100
AcDbEntity
  8
0-0
100
AcDbCircle
  6
BYLAYER
370
13
 10
345.883611455591
 20
105.978489370847
 40
3
  0
CIRCLE
  5
51B
100
AcDbEntity
  8
0-0
100
AcDbCircle
  6
BYLAYER
370
13
 10
345.883611455591
 20
105.978489370847
 40
9.5
  0
CIRCLE
  5
51C
100
AcDbEntity
  8
0-0
100
AcDbCircle
  6
BYLAYER
370
13
 10
358.583611455591
 20
90.4784893708474
 40
3
  0
CIRCLE
  5
51D
100
AcDbEntity
  8
0-0
100
AcDbCircle
  6
BYLAYER
370
13
 10
337.183611455591
 20
90.4784893708462
 40
3
  0
CIRCLE
  5
51E
100
AcDbEntity
  8
0-0
100
AcDbCircle
  6
BYLAYER
370
13
 10
367.88361145559
 20
111.978489370848
 40
1.5
  0
CIRCLE
  5
51F
100
AcDbEntity
  8
0-0
100
AcDbCircle
  6
BYLAYER
370
13
 10
367.883611455591
 20
99.9784893708481
 40
1.5
  0
CIRCLE
  5
520
100
AcDbEntity
  8
0-0
100
AcDbCircle
  6
BYLAYER
370
13
 10
327.883611455591
 20
99.9784893708472
 40
1.5
  0
CIRCLE
  5
521
100
AcDbEntity
  8
0-0
100
AcDbCircle
  6
BYLAYER
370
13
 10
327.88361145559
 20
111.978489370847
 40
1.5
  0
CIRCLE
  5
522
100
AcDbEntity
  8
0-0
100
AcDbCircle
  6
BYLAYER
370
13
 10
327.883611455591
 20
99.9784893708472
 40
1.2
  0
CIRCLE
  5
523
100
AcDbEntity
  8
0-0
100
AcDbCircle
  6
BYLAYER
370
13
 10
327.88361145559
 20
111.978489370847
 40
1.2
  0
CIRCLE
  5
524
100
AcDbEntity
  8
0-0
100
AcDbCircle
  6
BYLAYER
370
13
 10
367.88361145559
 20
111.978489370848
 40
1.2
  0
CIRCLE
  5
525
100
AcDbEntity
  8
0-0
100
AcDbCircle
  6
BYLAYER
370
13
 10
367.883611455591
 20
99.9784893708481
 40
1.2
  0
CIRCLE
  5
526
100
AcDbEntity
  8
0-0
100
AcDbCircle
  6
BYLAYER
370
13
 10
360.583611455589
 20
135.978489370848
 40
2.75
  0
CIRCLE
  5
527
100
AcDbEntity
  8
0-0
100
AcDbCircle
  6
BYLAYER
370
13
 10
335.183611455589
 20
135.978489370847
 40
2.75
  0
CIRCLE
  5
528
100
AcDbEntity
  8
0-0
100
AcDbCircle
  6
BYLAYER
370
13
 10
324.88361145559
 20
127.978489370847
 40
2.75
  0
CIRCLE
  5
529
100
AcDbEntity
  8
0-0
100
AcDbCircle
  6
BYLAYER
370
13
 10
370.88361145559
 20
127.978489370848
 40
2.75
  0
LINE
  5
52A
100
AcDbEntity
  8
0-0
100
AcDbLine
  6
BYLAYER
370
13
 10
342.383611455589
 20
143.97848937085
 11
342.383611455589
 21
142.606916495593
  0
LINE
  5
52B
100
AcDbEntity
  8
0-0
100
AcDbLine
  6
BYLAYER
370
13
 10
342.383611455589
 20
143.97848937085
 11
342.883611455589
 21
144.47848937085
  0
LINE
  5
52C
100
AcDbEntity
  8
0-0
100
AcDbLine
  6
BYLAYER
370
13
 10
353.383611455589
 20
143.97848937085
 11
353.383611455589
 21
142.306916495594
  0
LINE
  5
52D
100
AcDbEntity
  8
0-0
100
AcDbLine
  6
BYLAYER
370
13
 10
352.883611455589
 20
144.47848937085
 11
353.383611455589
 21
143.97848937085
  0
LINE
  5
52E
100
AcDbEntity
  8
0-0
100
AcDbLine
  6
BYLAYER
370
13
 10
353.38361145559
 20
136.650062246101
 11
353.38361145559
 21
132.478489370849
  0
LINE
  5
52F
100
AcDbEntity
  8
0-0
100
AcDbLine
  6
BYLAYER
370
13
 10
342.383611455589
 20
143.97848937085
 11
342.38361145559
 21
142.306916495594
  0
LINE
  5
530
100
AcDbEntity
  8
0-0
100
AcDbLine
  6
BYLAYER
370
13
 10
342.383611455589
 20
143.97848937085
 11
342.883611455589
 21
144.47848937085
  0
ARC
  5
531
100
AcDbEntity
  8
0-0
100
AcDbCircle
  6
BYLAYER
370
13
 10
342.38361145559
 20
139.478489370847
 40
2
100
AcDbArc
 50
315.000000000006
 51
44.9999999999954
  0
LINE
  5
532
100
AcDbEntity
  8
0-0
100
AcDbLine
  6
BYLAYER
370
13
 10
343.797825017963
 20
138.064275808474
 11
342.38361145559
 21
136.650062246101
  0
LINE
  5
533
100
AcDbEntity
  8
0-0
100
AcDbLine
  6
BYLAYER
370
13
 10
343.797825017963
 20
140.89270293322
 11
342.38361145559
 21
142.306916495594
  0
ARC
  5
534
100
AcDbEntity
  8
0-0
100
AcDbCircle
  6
BYLAYER
370
13
 10
353.38361145559
 20
139.478489370847
 40
2
100
AcDbArc
 50
135.000000000006
 51
224.999999999995
  0
LINE
  5
535
100
AcDbEntity
  8
0-0
100
AcDbLine
  6
BYLAYER
370
13
 10
351.969397893217
 20
138.064275808474
 11
353.38361145559
 21
136.650062246101
  0
LINE
  5
536
100
AcDbEntity
  8
0-0
100
AcDbLine
  6
BYLAYER
370
13
 10
351.969397893216
 20
140.892702933221
 11
353.383611455589
 21
142.306916495594
  0
LINE
  5
537
100
AcDbEntity
  8
0-0
100
AcDbLine
  6
BYLAYER
370
13
 10
342.38361145559
 20
136.650062246101
 11
342.38361145559
 21
132.478489370849
  0
LINE
  5
538
100
AcDbEntity
  8
0-0
100
AcDbLine
  6
BYLAYER
370
13
 10
353.38361145559
 20
136.650062246101
 11
342.38361145559
 21
136.650062246101
  0
LINE
  5
539
100
AcDbEntity
  8
0-0
100
AcDbLine
  6
BYLAYER
370
13
 10
342.38361145559
 20
142.306916495594
 11
353.383611455589
 21
142.306916495594
  0
LINE
  5
53A
100
AcDbEntity
  8
0-0
100
AcDbLine
  6
BYLAYER
370
13
 10
353.383611455589
 20
143.97848937085
 11
342.383611455589
 21
143.97848937085
  0
LINE
  5
53B
100
AcDbEntity
  8
0-0
100
AcDbLine
  6
BYLAYER
370
13
 10
342.883611455589
 20
144.47848937085
 11
352.883611455589
 21
144.47848937085
  0
LINE
  5
53C
100
AcDbEntity
  8
0-0
100
AcDbLine
  6
BYLAYER
370
13
 10
343.636259339272
 20
131.978489370849
 11
352.13096357191
 21
131.978489370849
  0
LINE
  5
53D
100
AcDbEntity
  8
0-0
100
AcDbLine
  6
BYLAYER
370
13
 10
352.493383684238
 20
132.478489370849
 11
352.493383684238
 21
132.278489370849
  0
LINE
  5
53E
100
AcDbEntity
  8
0-0
100
AcDbLine
  6
BYLAYER
370
13
 10
343.273839226944
 20
132.478489370849
 11
343.273839226944
 21
132.278489370849
  0
LINE
  5
53F
100
AcDbEntity
  8
0-0
100
AcDbLine
  6
BYLAYER
370
13
 10
343.273839226944
 20
132.278489370849
 11
343.636259339272
 21
131.978489370849
  0
LINE
  5
540
100
AcDbEntity
  8
0-0
100
AcDbLine
  6
BYLAYER
370
13
 10
352.13096357191
 20
131.978489370849
 11
352.493383684238
 21
132.278489370849
  0
LINE
  5
541
100
AcDbEntity
  8
0-2
100
AcDbLine
  6
CONTINUOUS
370
13
 10
156.827960283802
 20
205.228049111612
 11
135.206605248032
 21
183.401992293499
  0
LINE
  5
542
100
AcDbEntity
  8
0-2
100
AcDbLine
  6
CONTINUOUS
370
13
 10
156.827960283802
 20
205.228049111612
 11
155.340217590521
 21
202.622934588489
  0
LINE
  5
543
100
AcDbEntity
  8
0-2
100
AcDbLine
  6
CONTINUOUS
370
13
 10
156.827960283802
 20
205.228049111612
 11
154.236980055564
 21
203.71582510146
  0
LINE
  5
544
100
AcDbEntity
  8
0-2
100
AcDbLine
  6
CONTINUOUS
370
13
 10
135.206605248032
 20
183.401992293499
 11
103.424507298161
 21
183.401992293499
  0
LINE
  5
545
100
AcDbEntity
  8
0-2
100
AcDbLine
  6
CONTINUOUS
370
13
 10
284.93361145559
 20
108.478489370847
 11
301.912180351866
 21
108.478489370847
  0
LINE
  5
546
100
AcDbEntity
  8
0-2
100
AcDbLine
  6
CONTINUOUS
370
13
 10
301.412180351866
 20
108.478489370847
 11
301.412180351866
 21
103.478489370847
  0
LINE
  5
547
100
AcDbEntity
  8
0-2
100
AcDbLine
  6
CONTINUOUS
370
13
 10
301.412180351866
 20
108.478489370847
 11
300.635723216559
 21
111.376266849714
  0
LINE
  5
548
100
AcDbEntity
  8
0-2
100
AcDbLine
  6
CONTINUOUS
370
13
 10
301.412180351866
 20
108.478489370847
 11
302.188637487174
 21
111.376266849714
  0
LINE
  5
549
100
AcDbEntity
  8
0-2
100
AcDbLine
  6
CONTINUOUS
370
13
 10
301.412180351866
 20
103.478489370847
 11
302.188637487174
 21
100.580711891979
  0
LINE
  5
54A
100
AcDbEntity
  8
0-2
100
AcDbLine
  6
CONTINUOUS
370
13
 10
301.412180351866
 20
103.478489370847
 11
300.635723216559
 21
100.580711891979
  0
TEXT
  5
54B
100
AcDbEntity
  8
0-2
100
AcDbText
  6
CONTINUOUS
 10
301.162180351866
 20
111.166193467201
 40
6
  1
φ5
  7
Font_0
 50
90
 72
1
 11
301.162180351866
 21
116.166193467201
100
AcDbText
  0
LINE
  5
54C
100
AcDbEntity
  8
0-2
100
AcDbLine
  6
CONTINUOUS
370
13
 10
284.93361145559
 20
103.478489370847
 11
301.912180351866
 21
103.478489370847
  0
LINE
  5
54D
100
AcDbEntity
  8
0-2
100
AcDbLine
  6
CONTINUOUS
370
13
 10
275.383611455592
 20
96.2284893708494
 11
275.383611455592
 21
76.2084518281151
  0
LINE
  5
54E
100
AcDbEntity
  8
0-2
100
AcDbLine
  6
CONTINUOUS
370
13
 10
275.383611455592
 20
76.7084518281151
 11
284.88361145559
 21
76.7084518281151
  0
LINE
  5
54F
100
AcDbEntity
  8
0-2
100
AcDbLine
  6
CONTINUOUS
370
13
 10
275.383611455592
 20
76.7084518281151
 11
272.485833976725
 21
75.9319946928075
  0
LINE
  5
550
100
AcDbEntity
  8
0-2
100
AcDbLine
  6
CONTINUOUS
370
13
 10
275.383611455592
 20
76.7084518281151
 11
272.485833976725
 21
77.4849089634226
  0
LINE
  5
551
100
AcDbEntity
  8
0-2
100
AcDbLine
  6
CONTINUOUS
370
13
 10
284.88361145559
 20
76.7084518281151
 11
287.781388934457
 21
77.4849089634226
  0
LINE
  5
552
100
AcDbEntity
  8
0-2
100
AcDbLine
  6
CONTINUOUS
370
13
 10
284.88361145559
 20
76.7084518281151
 11
287.781388934457
 21
75.9319946928075
  0
TEXT
  5
553
100
AcDbEntity
  8
0-2
100
AcDbText
  6
CONTINUOUS
 10
288.442946567481
 20
76.2255125758258
 40
6
  1
9.5
  7
Font_0
 72
1
 11
293.942946567481
 21
76.2255125758258
100
AcDbText
  0
LINE
  5
554
100
AcDbEntity
  8
0-2
100
AcDbLine
  6
CONTINUOUS
370
13
 10
284.88361145559
 20
95.6887704557004
 11
284.88361145559
 21
76.2084518281151
  0
LINE
  5
555
100
AcDbEntity
  8
0-2
100
AcDbLine
  6
CONTINUOUS
370
13
 10
152.383611455591
 20
132.028489370845
 11
152.383611455591
 21
68.3894671924695
  0
LINE
  5
556
100
AcDbEntity
  8
0-2
100
AcDbLine
  6
CONTINUOUS
370
13
 10
152.383611455591
 20
68.8894671924695
 11
284.88361145559
 21
68.8894671924695
  0
LINE
  5
557
100
AcDbEntity
  8
0-2
100
AcDbLine
  6
CONTINUOUS
370
13
 10
152.383611455591
 20
68.8894671924695
 11
155.281388934458
 21
69.665924327777
  0
LINE
  5
558
100
AcDbEntity
  8
0-2
100
AcDbLine
  6
CONTINUOUS
370
13
 10
152.383611455591
 20
68.8894671924695
 11
155.281388934458
 21
68.1130100571619
  0
LINE
  5
559
100
AcDbEntity
  8
0-2
100
AcDbLine
  6
CONTINUOUS
370
13
 10
284.88361145559
 20
68.8894671924695
 11
281.985833976723
 21
68.1130100571619
  0
LINE
  5
55A
100
AcDbEntity
  8
0-2
100
AcDbLine
  6
CONTINUOUS
370
13
 10
284.88361145559
 20
68.8894671924695
 11
281.985833976723
 21
69.665924327777
  0
TEXT
  5
55B
100
AcDbEntity
  8
0-2
100
AcDbText
  6
CONTINUOUS
 10
209.133611455591
 20
69.1394671924695
 40
6
  1
132.5
  7
Font_0
 72
1
 11
218.633611455591
 21
69.1394671924695
100
AcDbText
  0
LINE
  5
55C
100
AcDbEntity
  8
0-2
100
AcDbLine
  6
CONTINUOUS
370
13
 10
284.88361145559
 20
103.428489370847
 11
284.88361145559
 21
68.3894671924695
  0
LINE
  5
55D
100
AcDbEntity
  8
0-2
100
AcDbLine
  6
CONTINUOUS
370
13
 10
52.0836114555903
 20
86.2284893708432
 11
52.0836114555903
 21
68.5352989341996
  0
LINE
  5
55E
100
AcDbEntity
  8
0-2
100
AcDbLine
  6
CONTINUOUS
370
13
 10
52.0836114555903
 20
69.0352989341996
 11
103.68361145559
 21
69.0352989341996
  0
LINE
  5
55F
100
AcDbEntity
  8
0-2
100
AcDbLine
  6
CONTINUOUS
370
13
 10
52.0836114555903
 20
69.0352989341996
 11
54.9813889344575
 21
69.8117560695071
  0
LINE
  5
560
100
AcDbEntity
  8
0-2
100
AcDbLine
  6
CONTINUOUS
370
13
 10
52.0836114555903
 20
69.0352989341996
 11
54.9813889344575
 21
68.258841798892
  0
LINE
  5
561
100
AcDbEntity
  8
0-2
100
AcDbLine
  6
CONTINUOUS
370
13
 10
103.68361145559
 20
69.0352989341996
 11
100.785833976723
 21
68.258841798892
  0
LINE
  5
562
100
AcDbEntity
  8
0-2
100
AcDbLine
  6
CONTINUOUS
370
13
 10
103.68361145559
 20
69.0352989341996
 11
100.785833976723
 21
69.8117560695071
  0
TEXT
  5
563
100
AcDbEntity
  8
0-2
100
AcDbText
  6
CONTINUOUS
 10
70.3836114555904
 20
69.2852989341996
 40
6
  1
51.6
  7
Font_0
 72
1
 11
77.8836114555904
 21
69.2852989341996
100
AcDbText
  0
LINE
  5
564
100
AcDbEntity
  8
0-2
100
AcDbLine
  6
CONTINUOUS
370
13
 10
103.68361145559
 20
86.2284893708436
 11
103.68361145559
 21
68.5352989341996
  0
LINE
  5
565
100
AcDbEntity
  8
0-2
100
AcDbLine
  6
CONTINUOUS
370
13
 10
53.8336114555904
 20
84.4784893708432
 11
31.3121064730245
 21
84.4784893708432
  0
LINE
  5
566
100
AcDbEntity
  8
0-2
100
AcDbLine
  6
CONTINUOUS
370
13
 10
31.8121064730245
 20
84.4784893708432
 11
31.8121064730245
 21
132.478489370844
  0
LINE
  5
567
100
AcDbEntity
  8
0-2
100
AcDbLine
  6
CONTINUOUS
370
13
 10
31.8121064730245
 20
84.4784893708432
 11
31.035649337717
 21
87.3762668497104
  0
LINE
  5
568
100
AcDbEntity
  8
0-2
100
AcDbLine
  6
CONTINUOUS
370
13
 10
31.8121064730245
 20
84.4784893708432
 11
32.5885636083321
 21
87.3762668497104
  0
LINE
  5
569
100
AcDbEntity
  8
0-2
100
AcDbLine
  6
CONTINUOUS
370
13
 10
31.8121064730245
 20
132.478489370844
 11
32.5885636083321
 21
129.580711891977
  0
LINE
  5
56A
100
AcDbEntity
  8
0-2
100
AcDbLine
  6
CONTINUOUS
370
13
 10
31.8121064730245
 20
132.478489370844
 11
31.035649337717
 21
129.580711891977
  0
TEXT
  5
56B
100
AcDbEntity
  8
0-2
100
AcDbText
  6
CONTINUOUS
 10
31.5621064730245
 20
104.978489370844
 40
6
  1
48
  7
Font_0
 50
90
 72
1
 11
31.5621064730245
 21
108.478489370844
100
AcDbText
  0
LINE
  5
56C
100
AcDbEntity
  8
0-2
100
AcDbLine
  6
CONTINUOUS
370
13
 10
51.8336114555905
 20
132.478489370844
 11
31.3121064730245
 21
132.478489370844
  0
LINE
  5
56D
100
AcDbEntity
  8
0-2
100
AcDbLine
  6
CONTINUOUS
370
13
 10
31.8121064730245
 20
132.478489370844
 11
31.8121064730245
 21
194.913560401888
  0
LINE
  5
56E
100
AcDbEntity
  8
0-2
100
AcDbLine
  6
CONTINUOUS
370
13
 10
31.8121064730245
 20
132.478489370844
 11
31.035649337717
 21
135.376266849712
  0
LINE
  5
56F
100
AcDbEntity
  8
0-2
100
AcDbLine
  6
CONTINUOUS
370
13
 10
31.8121064730245
 20
132.478489370844
 11
32.5885636083321
 21
135.376266849712
  0
LINE
  5
570
100
AcDbEntity
  8
0-2
100
AcDbLine
  6
CONTINUOUS
370
13
 10
31.8121064730245
 20
194.913560401888
 11
32.5885636083321
 21
192.015782923021
  0
LINE
  5
571
100
AcDbEntity
  8
0-2
100
AcDbLine
  6
CONTINUOUS
370
13
 10
31.8121064730245
 20
194.913560401888
 11
31.035649337717
 21
192.015782923021
  0
TEXT
  5
572
100
AcDbEntity
  8
0-2
100
AcDbText
  6
CONTINUOUS
 10
31.5621064730245
 20
160.196024886366
 40
6
  1
63
  7
Font_0
 50
90
 72
1
 11
31.5621064730245
 21
163.696024886366
100
AcDbText
  0
LINE
  5
573
100
AcDbEntity
  8
0-2
100
AcDbLine
  6
CONTINUOUS
370
13
 10
34.7336114555904
 20
194.913560401888
 11
31.3121064730245
 21
194.913560401888
  0
LINE
  5
574
100
AcDbEntity
  8
0-2
100
AcDbLine
  6
CONTINUOUS
370
13
 10
154.883611455586
 20
246.293694739158
 11
132.94720062994
 21
246.293694739158
  0
LINE
  5
575
100
AcDbEntity
  8
0-2
100
AcDbLine
  6
CONTINUOUS
370
13
 10
133.44720062994
 20
246.293694739158
 11
133.44720062994
 21
206.293694739158
  0
LINE
  5
576
100
AcDbEntity
  8
0-2
100
AcDbLine
  6
CONTINUOUS
370
13
 10
133.44720062994
 20
246.293694739158
 11
134.223657765247
 21
243.395917260291
  0
LINE
  5
577
100
AcDbEntity
  8
0-2
100
AcDbLine
  6
CONTINUOUS
370
13
 10
133.44720062994
 20
246.293694739158
 11
132.670743494632
 21
243.395917260291
  0
LINE
  5
578
100
AcDbEntity
  8
0-2
100
AcDbLine
  6
CONTINUOUS
370
13
 10
133.44720062994
 20
206.293694739158
 11
132.670743494632
 21
209.191472218026
  0
LINE
  5
579
100
AcDbEntity
  8
0-2
100
AcDbLine
  6
CONTINUOUS
370
13
 10
133.44720062994
 20
206.293694739158
 11
134.223657765247
 21
209.191472218026
  0
TEXT
  5
57A
100
AcDbEntity
  8
0-2
100
AcDbText
  6
CONTINUOUS
 10
133.19720062994
 20
222.793694739158
 40
6
  1
40
  7
Font_0
 50
90
 72
1
 11
133.19720062994
 21
226.293694739158
100
AcDbText
  0
LINE
  5
57B
100
AcDbEntity
  8
0-2
100
AcDbLine
  6
CONTINUOUS
370
13
 10
156.700961512418
 20
206.293694739158
 11
132.94720062994
 21
206.293694739158
  0
LINE
  5
57C
100
AcDbEntity
  8
0-2
100
AcDbLine
  6
CONTINUOUS
370
13
 10
157.883611455586
 20
248.368218918736
 11
157.883611455586
 21
273.924396870511
  0
LINE
  5
57D
100
AcDbEntity
  8
0-2
100
AcDbLine
  6
CONTINUOUS
370
13
 10
157.883611455586
 20
273.424396870511
 11
277.883611455587
 21
273.424396870511
  0
LINE
  5
57E
100
AcDbEntity
  8
0-2
100
AcDbLine
  6
CONTINUOUS
370
13
 10
157.883611455586
 20
273.424396870511
 11
160.781388934453
 21
274.200854005819
  0
LINE
  5
57F
100
AcDbEntity
  8
0-2
100
AcDbLine
  6
CONTINUOUS
370
13
 10
157.883611455586
 20
273.424396870511
 11
160.781388934453
 21
272.647939735204
  0
LINE
  5
580
100
AcDbEntity
  8
0-2
100
AcDbLine
  6
CONTINUOUS
370
13
 10
277.883611455587
 20
273.424396870511
 11
274.98583397672
 21
272.647939735204
  0
LINE
  5
581
100
AcDbEntity
  8
0-2
100
AcDbLine
  6
CONTINUOUS
370
13
 10
277.883611455587
 20
273.424396870511
 11
274.98583397672
 21
274.200854005819
  0
TEXT
  5
582
100
AcDbEntity
  8
0-2
100
AcDbText
  6
CONTINUOUS
 10
212.383611455587
 20
273.674396870511
 40
6
  1
120
  7
Font_0
 72
1
 11
217.883611455587
 21
273.674396870511
100
AcDbText
  0
LINE
  5
583
100
AcDbEntity
  8
0-2
100
AcDbLine
  6
CONTINUOUS
370
13
 10
277.883611455587
 20
251.74369473916
 11
277.883611455587
 21
273.924396870511
  0
LINE
  5
584
100
AcDbEntity
  8
0-2
100
AcDbLine
  6
CONTINUOUS
370
13
 10
154.883611455588
 20
202.243694739158
 11
154.883611455588
 21
179.59341617909
  0
LINE
  5
585
100
AcDbEntity
  8
0-2
100
AcDbLine
  6
CONTINUOUS
370
13
 10
154.883611455588
 20
180.09341617909
 11
280.883611455587
 21
180.09341617909
  0
LINE
  5
586
100
AcDbEntity
  8
0-2
100
AcDbLine
  6
CONTINUOUS
370
13
 10
154.883611455588
 20
180.09341617909
 11
157.781388934455
 21
180.869873314397
  0
LINE
  5
587
100
AcDbEntity
  8
0-2
100
AcDbLine
  6
CONTINUOUS
370
13
 10
154.883611455588
 20
180.09341617909
 11
157.781388934455
 21
179.316959043782
  0
LINE
  5
588
100
AcDbEntity
  8
0-2
100
AcDbLine
  6
CONTINUOUS
370
13
 10
280.883611455587
 20
180.09341617909
 11
277.98583397672
 21
179.316959043782
  0
LINE
  5
589
100
AcDbEntity
  8
0-2
100
AcDbLine
  6
CONTINUOUS
370
13
 10
280.883611455587
 20
180.09341617909
 11
277.98583397672
 21
180.869873314397
  0
TEXT
  5
58A
100
AcDbEntity
  8
0-2
100
AcDbText
  6
CONTINUOUS
 10
212.383611455587
 20
180.34341617909
 40
6
  1
126
  7
Font_0
 72
1
 11
217.883611455587
 21
180.34341617909
100
AcDbText
  0
LINE
  5
58B
100
AcDbEntity
  8
0-2
100
AcDbLine
  6
CONTINUOUS
370
13
 10
280.883611455587
 20
201.91869473916
 11
280.883611455587
 21
179.59341617909
  0
LINE
  5
58C
100
AcDbEntity
  8
0-2
100
AcDbLine
  6
CONTINUOUS
370
13
 10
280.883611455587
 20
199.007934223005
 11
280.883611455587
 21
179.59341617909
  0
LINE
  5
58D
100
AcDbEntity
  8
0-2
100
AcDbLine
  6
CONTINUOUS
370
13
 10
280.883611455587
 20
180.09341617909
 11
284.883611455586
 21
180.09341617909
  0
LINE
  5
58E
100
AcDbEntity
  8
0-2
100
AcDbLine
  6
CONTINUOUS
370
13
 10
280.883611455587
 20
180.09341617909
 11
283.781388934454
 21
180.869873314397
  0
LINE
  5
58F
100
AcDbEntity
  8
0-2
100
AcDbLine
  6
CONTINUOUS
370
13
 10
280.883611455587
 20
180.09341617909
 11
283.781388934454
 21
179.316959043782
  0
LINE
  5
590
100
AcDbEntity
  8
0-2
100
AcDbLine
  6
CONTINUOUS
370
13
 10
284.883611455586
 20
180.09341617909
 11
281.985833976719
 21
179.316959043782
  0
LINE
  5
591
100
AcDbEntity
  8
0-2
100
AcDbLine
  6
CONTINUOUS
370
13
 10
284.883611455586
 20
180.09341617909
 11
281.985833976719
 21
180.869873314397
  0
TEXT
  5
592
100
AcDbEntity
  8
0-2
100
AcDbText
  6
CONTINUOUS
 10
281.383611455587
 20
180.34341617909
 40
6
  1
4
  7
Font_0
 72
1
 11
282.883611455587
 21
180.34341617909
100
AcDbText
  0
LINE
  5
593
100
AcDbEntity
  8
0-2
100
AcDbLine
  6
CONTINUOUS
370
13
 10
284.883611455586
 20
221.74369473916
 11
284.883611455586
 21
179.59341617909
  0
LINE
  5
594
100
AcDbEntity
  8
0-2
100
AcDbLine
  6
CONTINUOUS
370
13
 10
301.412180351866
 20
108.478489370847
 11
301.412180351866
 21
122.379844504451
  0
LINE
  5
595
100
AcDbEntity
  8
0-2
100
AcDbLine
  6
CONTINUOUS
370
13
 10
284.88361145559
 20
76.7084518281151
 11
300.088345049006
 21
76.7084518281151
  0
TEXT
  5
596
100
AcDbEntity
  8
0-2
100
AcDbText
  6
CONTINUOUS
 10
300.521113033957
 20
24.5755902149633
 40
4
  1
フィンガーポンプモジュール
  7
Font_0
 11
300.521113033957
 21
28.5755902149633
100
AcDbText
 73
3
  0
TEXT
  5
597
100
AcDbEntity
  8
0-2
100
AcDbText
  6
CONTINUOUS
 10
300.757414917646
 20
15.3785664734691
 40
4
  1
ＮＷＰＤ－６０外観図
  7
Font_0
 11
300.757414917646
 21
19.3785664734691
100
AcDbText
 73
3
  0
ENDSEC
  0
SECTION
  2
OBJECTS
  0
DICTIONARY
  5
598
100
AcDbDictionary
  3
ACAD_GROUP
350
599
  3
ACAD_MLINESTYLE
350
59A
  0
DICTIONARY
  5
599
102
{ACAD_REACTORS
330
598
102
}
100
AcDbDictionary
  0
DICTIONARY
  5
59A
102
{ACAD_REACTORS
330
598
102
}
100
AcDbDictionary
  3
STANDARD
350
59B
  0
MLINESTYLE
  5
59B
102
{ACAD_REACTORS
330
59A
102
}
100
AcDbMlineStyle
  2
Standard
 70
     0
  3

 62
     0
 51
90.0
 52
90.0
 71
     2
 49
0.5
 62
   256
  6
ByLayer
 49
-0.5
 62
   256
  6
ByLayer
  0
ENDSEC
  0
EOF
