999
Outputted By AR_CAD Ver.1.7.0
  0
SECTION
  2
HEADER
  9
$ACADVER
  1
AC1014
  9
$DWGCODEPAGE
  3
ANSI_932
  9
$EXTMIN
 10
0
 20
0
  9
$EXTMAX
 10
297
 20
210
  9
$INSBASE
 10
0.0
 20
0.0
 30
0.0
  9
$HANDLING
 70
     1
  9
$HANDSEED
  5
70C
  9
$LTSCALE
 40
1
  0
ENDSEC
  0
SECTION
  2
TABLES
  0
TABLE
  2
VPORT
  5
1
100
AcDbSymbolTable
 70
     1
  0
VPORT
  5
30
100
AcDbSymbolTableRecord
100
AcDbViewportTableRecord
  2
*ACTIVE
 70
     0
 10
0.0
 20
0.0
 11
1.0
 21
1.0
 12
210.0
 22
148.5
 13
0.0
 23
0.0
 14
10.0
 24
10.0
 15
10.0
 25
10.0
 16
0.0
 26
0.0
 36
1.0
 17
0.0
 27
0.0
 37
0.0
 40
302.94
 41
1.333333
 42
50.0
 43
0.0
 44
0.0
 50
0.0
 51
0.0
 71
     0
 72
   100
 73
     1
 74
     1
 75
     0
 76
     0
 77
     0
 78
     0
  0
ENDTAB
  0
TABLE
  2
LTYPE
  5
2
100
AcDbSymbolTable
 70
     11
  0
LTYPE
  5
31
100
AcDbSymbolTableRecord
100
AcDbLinetypeTableRecord
  2
BYBLOCK
 70
    64
 3

 72
    65
 73
    0
 40
    0
  0
LTYPE
  5
32
100
AcDbSymbolTableRecord
100
AcDbLinetypeTableRecord
  2
BYLAYER
 70
    64
 3

 72
    65
 73
    0
 40
    0
  0
LTYPE
  5
33
100
AcDbSymbolTableRecord
100
AcDbLinetypeTableRecord
  2
CONTINUOUS
 70
    64
 3
CONTINUOUS
 72
    65
 73
    0
 40
    0
  0
LTYPE
  5
34
100
AcDbSymbolTableRecord
100
AcDbLinetypeTableRecord
  2
DASHED
 70
    64
 3

 72
    65
 73
    2
 40
    0.75
 49
    0.5
 74
    0
 49
    -0.25
 74
    0
  0
LTYPE
  5
35
100
AcDbSymbolTableRecord
100
AcDbLinetypeTableRecord
  2
DOT
 70
    64
 3

 72
    65
 73
    2
 40
    0.5
 49
    0.25
 74
    0
 49
    -0.25
 74
    0
  0
LTYPE
  5
36
100
AcDbSymbolTableRecord
100
AcDbLinetypeTableRecord
  2
DASHDOT
 70
    64
 3

 72
    65
 73
    4
 40
    3.5
 49
    1.841
 74
    0
 49
    -0.553
 74
    0
 49
    0.553
 74
    0
 49
    -0.553
 74
    0
  0
LTYPE
  5
37
100
AcDbSymbolTableRecord
100
AcDbLinetypeTableRecord
  2
DIVIDE
 70
    64
 3

 72
    65
 73
    6
 40
    3.5
 49
    1.4
 74
    0
 49
    -0.42
 74
    0
 49
    0.42
 74
    0
 49
    -0.42
 74
    0
 49
    0.42
 74
    0
 49
    -0.42
 74
    0
  0
LTYPE
  5
38
100
AcDbSymbolTableRecord
100
AcDbLinetypeTableRecord
  2
HIDDEN
 70
    64
 3

 72
    65
 73
    2
 40
    4
 49
    2
 74
    0
 49
    -2
 74
    0
  0
LTYPE
  5
39
100
AcDbSymbolTableRecord
100
AcDbLinetypeTableRecord
  2
CENTER
 70
    64
 3

 72
    65
 73
    4
 40
    2
 49
    1.25
 74
    0
 49
    -0.25
 74
    0
 49
    0.25
 74
    0
 49
    -0.25
 74
    0
  0
LTYPE
  5
3A
100
AcDbSymbolTableRecord
100
AcDbLinetypeTableRecord
  2
PHANTOM
 70
    64
 3

 72
    65
 73
    6
 40
    2.5
 49
    1.25
 74
    0
 49
    -0.25
 74
    0
 49
    0.25
 74
    0
 49
    -0.25
 74
    0
 49
    0.25
 74
    0
 49
    -0.25
 74
    0
  0
LTYPE
  5
3B
100
AcDbSymbolTableRecord
100
AcDbLinetypeTableRecord
  2
BORDER
 70
    64
 3

 72
    65
 73
    6
 40
    1.75
 49
    0.5
 74
    0
 49
    -0.25
 74
    0
 49
    0.5
 74
    0
 49
    -0.25
 74
    0
 49
    0
 74
    0
 49
    -0.25
 74
    0
  0
LTYPE
  5
3C
100
AcDbSymbolTableRecord
100
AcDbLinetypeTableRecord
  2

 70
    64
 3

 72
    65
 73
    2
 40
    6
 49
    4
 74
    0
 49
    -2
 74
    0
  0
ENDTAB
  0
TABLE
  2
LAYER
  5
3
100
AcDbSymbolTable
 70
   257
  0
LAYER
  5
3D
100
AcDbSymbolTableRecord
100
AcDbLayerTableRecord
  2
0-0
 70
    0
 62
250
  6
CONTINUOUS
  0
LAYER
  5
3E
100
AcDbSymbolTableRecord
100
AcDbLayerTableRecord
  2
0-1
 70
    0
 62
3
  6
CONTINUOUS
  0
LAYER
  5
3F
100
AcDbSymbolTableRecord
100
AcDbLayerTableRecord
  2
0-2
 70
    0
 62
9
  6
CONTINUOUS
  0
LAYER
  5
40
100
AcDbSymbolTableRecord
100
AcDbLayerTableRecord
  2
0-3
 70
    0
 62
250
  6
CONTINUOUS
  0
LAYER
  5
41
100
AcDbSymbolTableRecord
100
AcDbLayerTableRecord
  2
0-4
 70
    0
 62
6
  6
CONTINUOUS
  0
LAYER
  5
42
100
AcDbSymbolTableRecord
100
AcDbLayerTableRecord
  2
0-5
 70
    0
 62
1
  6
CONTINUOUS
  0
LAYER
  5
43
100
AcDbSymbolTableRecord
100
AcDbLayerTableRecord
  2
0-6
 70
    0
 62
7
  6
CONTINUOUS
  0
LAYER
  5
44
100
AcDbSymbolTableRecord
100
AcDbLayerTableRecord
  2
0-7
 70
    0
 62
51
  6
CONTINUOUS
  0
LAYER
  5
45
100
AcDbSymbolTableRecord
100
AcDbLayerTableRecord
  2
0-8
 70
    0
 62
61
  6
CONTINUOUS
  0
LAYER
  5
46
100
AcDbSymbolTableRecord
100
AcDbLayerTableRecord
  2
0-9
 70
    0
 62
111
  6
CONTINUOUS
  0
LAYER
  5
47
100
AcDbSymbolTableRecord
100
AcDbLayerTableRecord
  2
0-a
 70
    0
 62
91
  6
CONTINUOUS
  0
LAYER
  5
48
100
AcDbSymbolTableRecord
100
AcDbLayerTableRecord
  2
0-b
 70
    0
 62
131
  6
CONTINUOUS
  0
LAYER
  5
49
100
AcDbSymbolTableRecord
100
AcDbLayerTableRecord
  2
0-c
 70
    0
 62
161
  6
CONTINUOUS
  0
LAYER
  5
4A
100
AcDbSymbolTableRecord
100
AcDbLayerTableRecord
  2
0-d
 70
    0
 62
5
  6
CONTINUOUS
  0
LAYER
  5
4B
100
AcDbSymbolTableRecord
100
AcDbLayerTableRecord
  2
0-e
 70
    0
 62
7
  6
CONTINUOUS
  0
LAYER
  5
4C
100
AcDbSymbolTableRecord
100
AcDbLayerTableRecord
  2
0-f
 70
    0
 62
11
  6
CONTINUOUS
  0
LAYER
  5
4D
100
AcDbSymbolTableRecord
100
AcDbLayerTableRecord
  2
1-0
 70
    0
 62
250
  6
CONTINUOUS
  0
LAYER
  5
4E
100
AcDbSymbolTableRecord
100
AcDbLayerTableRecord
  2
1-1
 70
    0
 62
70
  6
CONTINUOUS
  0
LAYER
  5
4F
100
AcDbSymbolTableRecord
100
AcDbLayerTableRecord
  2
1-2
 70
    0
 62
211
  6
CONTINUOUS
  0
LAYER
  5
50
100
AcDbSymbolTableRecord
100
AcDbLayerTableRecord
  2
1-3
 70
    0
 62
137
  6
CONTINUOUS
  0
LAYER
  5
51
100
AcDbSymbolTableRecord
100
AcDbLayerTableRecord
  2
1-4
 70
    0
 62
4
  6
CONTINUOUS
  0
LAYER
  5
52
100
AcDbSymbolTableRecord
100
AcDbLayerTableRecord
  2
1-5
 70
    0
 62
131
  6
CONTINUOUS
  0
LAYER
  5
53
100
AcDbSymbolTableRecord
100
AcDbLayerTableRecord
  2
1-6
 70
    0
 62
4
  6
CONTINUOUS
  0
LAYER
  5
54
100
AcDbSymbolTableRecord
100
AcDbLayerTableRecord
  2
1-7
 70
    0
 62
4
  6
CONTINUOUS
  0
LAYER
  5
55
100
AcDbSymbolTableRecord
100
AcDbLayerTableRecord
  2
1-8
 70
    0
 62
250
  6
CONTINUOUS
  0
LAYER
  5
56
100
AcDbSymbolTableRecord
100
AcDbLayerTableRecord
  2
1-9
 70
    0
 62
250
  6
CONTINUOUS
  0
LAYER
  5
57
100
AcDbSymbolTableRecord
100
AcDbLayerTableRecord
  2
1-a
 70
    0
 62
250
  6
CONTINUOUS
  0
LAYER
  5
58
100
AcDbSymbolTableRecord
100
AcDbLayerTableRecord
  2
1-b
 70
    0
 62
250
  6
CONTINUOUS
  0
LAYER
  5
59
100
AcDbSymbolTableRecord
100
AcDbLayerTableRecord
  2
1-c
 70
    0
 62
250
  6
CONTINUOUS
  0
LAYER
  5
5A
100
AcDbSymbolTableRecord
100
AcDbLayerTableRecord
  2
1-d
 70
    0
 62
250
  6
CONTINUOUS
  0
LAYER
  5
5B
100
AcDbSymbolTableRecord
100
AcDbLayerTableRecord
  2
1-e
 70
    0
 62
250
  6
CONTINUOUS
  0
LAYER
  5
5C
100
AcDbSymbolTableRecord
100
AcDbLayerTableRecord
  2
1-f
 70
    0
 62
250
  6
CONTINUOUS
  0
LAYER
  5
5D
100
AcDbSymbolTableRecord
100
AcDbLayerTableRecord
  2
2-0
 70
    0
 62
250
  6
CONTINUOUS
  0
LAYER
  5
5E
100
AcDbSymbolTableRecord
100
AcDbLayerTableRecord
  2
2-1
 70
    0
 62
250
  6
CONTINUOUS
  0
LAYER
  5
5F
100
AcDbSymbolTableRecord
100
AcDbLayerTableRecord
  2
2-2
 70
    0
 62
250
  6
CONTINUOUS
  0
LAYER
  5
60
100
AcDbSymbolTableRecord
100
AcDbLayerTableRecord
  2
2-3
 70
    0
 62
250
  6
CONTINUOUS
  0
LAYER
  5
61
100
AcDbSymbolTableRecord
100
AcDbLayerTableRecord
  2
2-4
 70
    0
 62
250
  6
CONTINUOUS
  0
LAYER
  5
62
100
AcDbSymbolTableRecord
100
AcDbLayerTableRecord
  2
2-5
 70
    0
 62
250
  6
CONTINUOUS
  0
LAYER
  5
63
100
AcDbSymbolTableRecord
100
AcDbLayerTableRecord
  2
2-6
 70
    0
 62
250
  6
CONTINUOUS
  0
LAYER
  5
64
100
AcDbSymbolTableRecord
100
AcDbLayerTableRecord
  2
2-7
 70
    0
 62
250
  6
CONTINUOUS
  0
LAYER
  5
65
100
AcDbSymbolTableRecord
100
AcDbLayerTableRecord
  2
2-8
 70
    0
 62
250
  6
CONTINUOUS
  0
LAYER
  5
66
100
AcDbSymbolTableRecord
100
AcDbLayerTableRecord
  2
2-9
 70
    0
 62
250
  6
CONTINUOUS
  0
LAYER
  5
67
100
AcDbSymbolTableRecord
100
AcDbLayerTableRecord
  2
2-a
 70
    0
 62
250
  6
CONTINUOUS
  0
LAYER
  5
68
100
AcDbSymbolTableRecord
100
AcDbLayerTableRecord
  2
2-b
 70
    0
 62
250
  6
CONTINUOUS
  0
LAYER
  5
69
100
AcDbSymbolTableRecord
100
AcDbLayerTableRecord
  2
2-c
 70
    0
 62
250
  6
CONTINUOUS
  0
LAYER
  5
6A
100
AcDbSymbolTableRecord
100
AcDbLayerTableRecord
  2
2-d
 70
    0
 62
250
  6
CONTINUOUS
  0
LAYER
  5
6B
100
AcDbSymbolTableRecord
100
AcDbLayerTableRecord
  2
2-e
 70
    0
 62
250
  6
CONTINUOUS
  0
LAYER
  5
6C
100
AcDbSymbolTableRecord
100
AcDbLayerTableRecord
  2
2-f
 70
    0
 62
250
  6
CONTINUOUS
  0
LAYER
  5
6D
100
AcDbSymbolTableRecord
100
AcDbLayerTableRecord
  2
3-0
 70
    0
 62
250
  6
CONTINUOUS
  0
LAYER
  5
6E
100
AcDbSymbolTableRecord
100
AcDbLayerTableRecord
  2
3-1
 70
    0
 62
250
  6
CONTINUOUS
  0
LAYER
  5
6F
100
AcDbSymbolTableRecord
100
AcDbLayerTableRecord
  2
3-2
 70
    0
 62
250
  6
CONTINUOUS
  0
LAYER
  5
70
100
AcDbSymbolTableRecord
100
AcDbLayerTableRecord
  2
3-3
 70
    0
 62
250
  6
CONTINUOUS
  0
LAYER
  5
71
100
AcDbSymbolTableRecord
100
AcDbLayerTableRecord
  2
3-4
 70
    0
 62
250
  6
CONTINUOUS
  0
LAYER
  5
72
100
AcDbSymbolTableRecord
100
AcDbLayerTableRecord
  2
3-5
 70
    0
 62
250
  6
CONTINUOUS
  0
LAYER
  5
73
100
AcDbSymbolTableRecord
100
AcDbLayerTableRecord
  2
3-6
 70
    0
 62
250
  6
CONTINUOUS
  0
LAYER
  5
74
100
AcDbSymbolTableRecord
100
AcDbLayerTableRecord
  2
3-7
 70
    0
 62
250
  6
CONTINUOUS
  0
LAYER
  5
75
100
AcDbSymbolTableRecord
100
AcDbLayerTableRecord
  2
3-8
 70
    0
 62
250
  6
CONTINUOUS
  0
LAYER
  5
76
100
AcDbSymbolTableRecord
100
AcDbLayerTableRecord
  2
3-9
 70
    0
 62
250
  6
CONTINUOUS
  0
LAYER
  5
77
100
AcDbSymbolTableRecord
100
AcDbLayerTableRecord
  2
3-a
 70
    0
 62
250
  6
CONTINUOUS
  0
LAYER
  5
78
100
AcDbSymbolTableRecord
100
AcDbLayerTableRecord
  2
3-b
 70
    0
 62
250
  6
CONTINUOUS
  0
LAYER
  5
79
100
AcDbSymbolTableRecord
100
AcDbLayerTableRecord
  2
3-c
 70
    0
 62
250
  6
CONTINUOUS
  0
LAYER
  5
7A
100
AcDbSymbolTableRecord
100
AcDbLayerTableRecord
  2
3-d
 70
    0
 62
250
  6
CONTINUOUS
  0
LAYER
  5
7B
100
AcDbSymbolTableRecord
100
AcDbLayerTableRecord
  2
3-e
 70
    0
 62
250
  6
CONTINUOUS
  0
LAYER
  5
7C
100
AcDbSymbolTableRecord
100
AcDbLayerTableRecord
  2
3-f
 70
    0
 62
250
  6
CONTINUOUS
  0
LAYER
  5
7D
100
AcDbSymbolTableRecord
100
AcDbLayerTableRecord
  2
4-0
 70
    0
 62
250
  6
CONTINUOUS
  0
LAYER
  5
7E
100
AcDbSymbolTableRecord
100
AcDbLayerTableRecord
  2
4-1
 70
    0
 62
250
  6
CONTINUOUS
  0
LAYER
  5
7F
100
AcDbSymbolTableRecord
100
AcDbLayerTableRecord
  2
4-2
 70
    0
 62
250
  6
CONTINUOUS
  0
LAYER
  5
80
100
AcDbSymbolTableRecord
100
AcDbLayerTableRecord
  2
4-3
 70
    0
 62
250
  6
CONTINUOUS
  0
LAYER
  5
81
100
AcDbSymbolTableRecord
100
AcDbLayerTableRecord
  2
4-4
 70
    0
 62
250
  6
CONTINUOUS
  0
LAYER
  5
82
100
AcDbSymbolTableRecord
100
AcDbLayerTableRecord
  2
4-5
 70
    0
 62
250
  6
CONTINUOUS
  0
LAYER
  5
83
100
AcDbSymbolTableRecord
100
AcDbLayerTableRecord
  2
4-6
 70
    0
 62
250
  6
CONTINUOUS
  0
LAYER
  5
84
100
AcDbSymbolTableRecord
100
AcDbLayerTableRecord
  2
4-7
 70
    0
 62
250
  6
CONTINUOUS
  0
LAYER
  5
85
100
AcDbSymbolTableRecord
100
AcDbLayerTableRecord
  2
4-8
 70
    0
 62
250
  6
CONTINUOUS
  0
LAYER
  5
86
100
AcDbSymbolTableRecord
100
AcDbLayerTableRecord
  2
4-9
 70
    0
 62
250
  6
CONTINUOUS
  0
LAYER
  5
87
100
AcDbSymbolTableRecord
100
AcDbLayerTableRecord
  2
4-a
 70
    0
 62
250
  6
CONTINUOUS
  0
LAYER
  5
88
100
AcDbSymbolTableRecord
100
AcDbLayerTableRecord
  2
4-b
 70
    0
 62
250
  6
CONTINUOUS
  0
LAYER
  5
89
100
AcDbSymbolTableRecord
100
AcDbLayerTableRecord
  2
4-c
 70
    0
 62
250
  6
CONTINUOUS
  0
LAYER
  5
8A
100
AcDbSymbolTableRecord
100
AcDbLayerTableRecord
  2
4-d
 70
    0
 62
250
  6
CONTINUOUS
  0
LAYER
  5
8B
100
AcDbSymbolTableRecord
100
AcDbLayerTableRecord
  2
4-e
 70
    0
 62
250
  6
CONTINUOUS
  0
LAYER
  5
8C
100
AcDbSymbolTableRecord
100
AcDbLayerTableRecord
  2
4-f
 70
    0
 62
250
  6
CONTINUOUS
  0
LAYER
  5
8D
100
AcDbSymbolTableRecord
100
AcDbLayerTableRecord
  2
5-0
 70
    0
 62
250
  6
CONTINUOUS
  0
LAYER
  5
8E
100
AcDbSymbolTableRecord
100
AcDbLayerTableRecord
  2
5-1
 70
    0
 62
250
  6
CONTINUOUS
  0
LAYER
  5
8F
100
AcDbSymbolTableRecord
100
AcDbLayerTableRecord
  2
5-2
 70
    0
 62
250
  6
CONTINUOUS
  0
LAYER
  5
90
100
AcDbSymbolTableRecord
100
AcDbLayerTableRecord
  2
5-3
 70
    0
 62
250
  6
CONTINUOUS
  0
LAYER
  5
91
100
AcDbSymbolTableRecord
100
AcDbLayerTableRecord
  2
5-4
 70
    0
 62
250
  6
CONTINUOUS
  0
LAYER
  5
92
100
AcDbSymbolTableRecord
100
AcDbLayerTableRecord
  2
5-5
 70
    0
 62
250
  6
CONTINUOUS
  0
LAYER
  5
93
100
AcDbSymbolTableRecord
100
AcDbLayerTableRecord
  2
5-6
 70
    0
 62
250
  6
CONTINUOUS
  0
LAYER
  5
94
100
AcDbSymbolTableRecord
100
AcDbLayerTableRecord
  2
5-7
 70
    0
 62
250
  6
CONTINUOUS
  0
LAYER
  5
95
100
AcDbSymbolTableRecord
100
AcDbLayerTableRecord
  2
5-8
 70
    0
 62
250
  6
CONTINUOUS
  0
LAYER
  5
96
100
AcDbSymbolTableRecord
100
AcDbLayerTableRecord
  2
5-9
 70
    0
 62
250
  6
CONTINUOUS
  0
LAYER
  5
97
100
AcDbSymbolTableRecord
100
AcDbLayerTableRecord
  2
5-a
 70
    0
 62
250
  6
CONTINUOUS
  0
LAYER
  5
98
100
AcDbSymbolTableRecord
100
AcDbLayerTableRecord
  2
5-b
 70
    0
 62
250
  6
CONTINUOUS
  0
LAYER
  5
99
100
AcDbSymbolTableRecord
100
AcDbLayerTableRecord
  2
5-c
 70
    0
 62
250
  6
CONTINUOUS
  0
LAYER
  5
9A
100
AcDbSymbolTableRecord
100
AcDbLayerTableRecord
  2
5-d
 70
    0
 62
250
  6
CONTINUOUS
  0
LAYER
  5
9B
100
AcDbSymbolTableRecord
100
AcDbLayerTableRecord
  2
5-e
 70
    0
 62
250
  6
CONTINUOUS
  0
LAYER
  5
9C
100
AcDbSymbolTableRecord
100
AcDbLayerTableRecord
  2
5-f
 70
    0
 62
250
  6
CONTINUOUS
  0
LAYER
  5
9D
100
AcDbSymbolTableRecord
100
AcDbLayerTableRecord
  2
6-0
 70
    0
 62
250
  6
CONTINUOUS
  0
LAYER
  5
9E
100
AcDbSymbolTableRecord
100
AcDbLayerTableRecord
  2
6-1
 70
    0
 62
250
  6
CONTINUOUS
  0
LAYER
  5
9F
100
AcDbSymbolTableRecord
100
AcDbLayerTableRecord
  2
6-2
 70
    0
 62
250
  6
CONTINUOUS
  0
LAYER
  5
A0
100
AcDbSymbolTableRecord
100
AcDbLayerTableRecord
  2
6-3
 70
    0
 62
250
  6
CONTINUOUS
  0
LAYER
  5
A1
100
AcDbSymbolTableRecord
100
AcDbLayerTableRecord
  2
6-4
 70
    0
 62
250
  6
CONTINUOUS
  0
LAYER
  5
A2
100
AcDbSymbolTableRecord
100
AcDbLayerTableRecord
  2
6-5
 70
    0
 62
250
  6
CONTINUOUS
  0
LAYER
  5
A3
100
AcDbSymbolTableRecord
100
AcDbLayerTableRecord
  2
6-6
 70
    0
 62
250
  6
CONTINUOUS
  0
LAYER
  5
A4
100
AcDbSymbolTableRecord
100
AcDbLayerTableRecord
  2
6-7
 70
    0
 62
250
  6
CONTINUOUS
  0
LAYER
  5
A5
100
AcDbSymbolTableRecord
100
AcDbLayerTableRecord
  2
6-8
 70
    0
 62
250
  6
CONTINUOUS
  0
LAYER
  5
A6
100
AcDbSymbolTableRecord
100
AcDbLayerTableRecord
  2
6-9
 70
    0
 62
250
  6
CONTINUOUS
  0
LAYER
  5
A7
100
AcDbSymbolTableRecord
100
AcDbLayerTableRecord
  2
6-a
 70
    0
 62
250
  6
CONTINUOUS
  0
LAYER
  5
A8
100
AcDbSymbolTableRecord
100
AcDbLayerTableRecord
  2
6-b
 70
    0
 62
250
  6
CONTINUOUS
  0
LAYER
  5
A9
100
AcDbSymbolTableRecord
100
AcDbLayerTableRecord
  2
6-c
 70
    0
 62
250
  6
CONTINUOUS
  0
LAYER
  5
AA
100
AcDbSymbolTableRecord
100
AcDbLayerTableRecord
  2
6-d
 70
    0
 62
250
  6
CONTINUOUS
  0
LAYER
  5
AB
100
AcDbSymbolTableRecord
100
AcDbLayerTableRecord
  2
6-e
 70
    0
 62
250
  6
CONTINUOUS
  0
LAYER
  5
AC
100
AcDbSymbolTableRecord
100
AcDbLayerTableRecord
  2
6-f
 70
    0
 62
250
  6
CONTINUOUS
  0
LAYER
  5
AD
100
AcDbSymbolTableRecord
100
AcDbLayerTableRecord
  2
7-0
 70
    0
 62
250
  6
CONTINUOUS
  0
LAYER
  5
AE
100
AcDbSymbolTableRecord
100
AcDbLayerTableRecord
  2
7-1
 70
    0
 62
250
  6
CONTINUOUS
  0
LAYER
  5
AF
100
AcDbSymbolTableRecord
100
AcDbLayerTableRecord
  2
7-2
 70
    0
 62
250
  6
CONTINUOUS
  0
LAYER
  5
B0
100
AcDbSymbolTableRecord
100
AcDbLayerTableRecord
  2
7-3
 70
    0
 62
250
  6
CONTINUOUS
  0
LAYER
  5
B1
100
AcDbSymbolTableRecord
100
AcDbLayerTableRecord
  2
7-4
 70
    0
 62
250
  6
CONTINUOUS
  0
LAYER
  5
B2
100
AcDbSymbolTableRecord
100
AcDbLayerTableRecord
  2
7-5
 70
    0
 62
250
  6
CONTINUOUS
  0
LAYER
  5
B3
100
AcDbSymbolTableRecord
100
AcDbLayerTableRecord
  2
7-6
 70
    0
 62
250
  6
CONTINUOUS
  0
LAYER
  5
B4
100
AcDbSymbolTableRecord
100
AcDbLayerTableRecord
  2
7-7
 70
    0
 62
250
  6
CONTINUOUS
  0
LAYER
  5
B5
100
AcDbSymbolTableRecord
100
AcDbLayerTableRecord
  2
7-8
 70
    0
 62
250
  6
CONTINUOUS
  0
LAYER
  5
B6
100
AcDbSymbolTableRecord
100
AcDbLayerTableRecord
  2
7-9
 70
    0
 62
250
  6
CONTINUOUS
  0
LAYER
  5
B7
100
AcDbSymbolTableRecord
100
AcDbLayerTableRecord
  2
7-a
 70
    0
 62
250
  6
CONTINUOUS
  0
LAYER
  5
B8
100
AcDbSymbolTableRecord
100
AcDbLayerTableRecord
  2
7-b
 70
    0
 62
250
  6
CONTINUOUS
  0
LAYER
  5
B9
100
AcDbSymbolTableRecord
100
AcDbLayerTableRecord
  2
7-c
 70
    0
 62
250
  6
CONTINUOUS
  0
LAYER
  5
BA
100
AcDbSymbolTableRecord
100
AcDbLayerTableRecord
  2
7-d
 70
    0
 62
250
  6
CONTINUOUS
  0
LAYER
  5
BB
100
AcDbSymbolTableRecord
100
AcDbLayerTableRecord
  2
7-e
 70
    0
 62
250
  6
CONTINUOUS
  0
LAYER
  5
BC
100
AcDbSymbolTableRecord
100
AcDbLayerTableRecord
  2
7-f
 70
    0
 62
250
  6
CONTINUOUS
  0
LAYER
  5
BD
100
AcDbSymbolTableRecord
100
AcDbLayerTableRecord
  2
8-0
 70
    0
 62
250
  6
CONTINUOUS
  0
LAYER
  5
BE
100
AcDbSymbolTableRecord
100
AcDbLayerTableRecord
  2
8-1
 70
    0
 62
250
  6
CONTINUOUS
  0
LAYER
  5
BF
100
AcDbSymbolTableRecord
100
AcDbLayerTableRecord
  2
8-2
 70
    0
 62
250
  6
CONTINUOUS
  0
LAYER
  5
C0
100
AcDbSymbolTableRecord
100
AcDbLayerTableRecord
  2
8-3
 70
    0
 62
250
  6
CONTINUOUS
  0
LAYER
  5
C1
100
AcDbSymbolTableRecord
100
AcDbLayerTableRecord
  2
8-4
 70
    0
 62
250
  6
CONTINUOUS
  0
LAYER
  5
C2
100
AcDbSymbolTableRecord
100
AcDbLayerTableRecord
  2
8-5
 70
    0
 62
250
  6
CONTINUOUS
  0
LAYER
  5
C3
100
AcDbSymbolTableRecord
100
AcDbLayerTableRecord
  2
8-6
 70
    0
 62
250
  6
CONTINUOUS
  0
LAYER
  5
C4
100
AcDbSymbolTableRecord
100
AcDbLayerTableRecord
  2
8-7
 70
    0
 62
250
  6
CONTINUOUS
  0
LAYER
  5
C5
100
AcDbSymbolTableRecord
100
AcDbLayerTableRecord
  2
8-8
 70
    0
 62
250
  6
CONTINUOUS
  0
LAYER
  5
C6
100
AcDbSymbolTableRecord
100
AcDbLayerTableRecord
  2
8-9
 70
    0
 62
250
  6
CONTINUOUS
  0
LAYER
  5
C7
100
AcDbSymbolTableRecord
100
AcDbLayerTableRecord
  2
8-a
 70
    0
 62
250
  6
CONTINUOUS
  0
LAYER
  5
C8
100
AcDbSymbolTableRecord
100
AcDbLayerTableRecord
  2
8-b
 70
    0
 62
250
  6
CONTINUOUS
  0
LAYER
  5
C9
100
AcDbSymbolTableRecord
100
AcDbLayerTableRecord
  2
8-c
 70
    0
 62
250
  6
CONTINUOUS
  0
LAYER
  5
CA
100
AcDbSymbolTableRecord
100
AcDbLayerTableRecord
  2
8-d
 70
    0
 62
250
  6
CONTINUOUS
  0
LAYER
  5
CB
100
AcDbSymbolTableRecord
100
AcDbLayerTableRecord
  2
8-e
 70
    0
 62
250
  6
CONTINUOUS
  0
LAYER
  5
CC
100
AcDbSymbolTableRecord
100
AcDbLayerTableRecord
  2
8-f
 70
    0
 62
250
  6
CONTINUOUS
  0
LAYER
  5
CD
100
AcDbSymbolTableRecord
100
AcDbLayerTableRecord
  2
9-0
 70
    0
 62
250
  6
CONTINUOUS
  0
LAYER
  5
CE
100
AcDbSymbolTableRecord
100
AcDbLayerTableRecord
  2
9-1
 70
    0
 62
250
  6
CONTINUOUS
  0
LAYER
  5
CF
100
AcDbSymbolTableRecord
100
AcDbLayerTableRecord
  2
9-2
 70
    0
 62
250
  6
CONTINUOUS
  0
LAYER
  5
D0
100
AcDbSymbolTableRecord
100
AcDbLayerTableRecord
  2
9-3
 70
    0
 62
250
  6
CONTINUOUS
  0
LAYER
  5
D1
100
AcDbSymbolTableRecord
100
AcDbLayerTableRecord
  2
9-4
 70
    0
 62
250
  6
CONTINUOUS
  0
LAYER
  5
D2
100
AcDbSymbolTableRecord
100
AcDbLayerTableRecord
  2
9-5
 70
    0
 62
250
  6
CONTINUOUS
  0
LAYER
  5
D3
100
AcDbSymbolTableRecord
100
AcDbLayerTableRecord
  2
9-6
 70
    0
 62
250
  6
CONTINUOUS
  0
LAYER
  5
D4
100
AcDbSymbolTableRecord
100
AcDbLayerTableRecord
  2
9-7
 70
    0
 62
250
  6
CONTINUOUS
  0
LAYER
  5
D5
100
AcDbSymbolTableRecord
100
AcDbLayerTableRecord
  2
9-8
 70
    0
 62
250
  6
CONTINUOUS
  0
LAYER
  5
D6
100
AcDbSymbolTableRecord
100
AcDbLayerTableRecord
  2
9-9
 70
    0
 62
250
  6
CONTINUOUS
  0
LAYER
  5
D7
100
AcDbSymbolTableRecord
100
AcDbLayerTableRecord
  2
9-a
 70
    0
 62
250
  6
CONTINUOUS
  0
LAYER
  5
D8
100
AcDbSymbolTableRecord
100
AcDbLayerTableRecord
  2
9-b
 70
    0
 62
250
  6
CONTINUOUS
  0
LAYER
  5
D9
100
AcDbSymbolTableRecord
100
AcDbLayerTableRecord
  2
9-c
 70
    0
 62
250
  6
CONTINUOUS
  0
LAYER
  5
DA
100
AcDbSymbolTableRecord
100
AcDbLayerTableRecord
  2
9-d
 70
    0
 62
250
  6
CONTINUOUS
  0
LAYER
  5
DB
100
AcDbSymbolTableRecord
100
AcDbLayerTableRecord
  2
9-e
 70
    0
 62
250
  6
CONTINUOUS
  0
LAYER
  5
DC
100
AcDbSymbolTableRecord
100
AcDbLayerTableRecord
  2
9-f
 70
    0
 62
250
  6
CONTINUOUS
  0
LAYER
  5
DD
100
AcDbSymbolTableRecord
100
AcDbLayerTableRecord
  2
a-0
 70
    0
 62
250
  6
CONTINUOUS
  0
LAYER
  5
DE
100
AcDbSymbolTableRecord
100
AcDbLayerTableRecord
  2
a-1
 70
    0
 62
250
  6
CONTINUOUS
  0
LAYER
  5
DF
100
AcDbSymbolTableRecord
100
AcDbLayerTableRecord
  2
a-2
 70
    0
 62
250
  6
CONTINUOUS
  0
LAYER
  5
E0
100
AcDbSymbolTableRecord
100
AcDbLayerTableRecord
  2
a-3
 70
    0
 62
250
  6
CONTINUOUS
  0
LAYER
  5
E1
100
AcDbSymbolTableRecord
100
AcDbLayerTableRecord
  2
a-4
 70
    0
 62
250
  6
CONTINUOUS
  0
LAYER
  5
E2
100
AcDbSymbolTableRecord
100
AcDbLayerTableRecord
  2
a-5
 70
    0
 62
250
  6
CONTINUOUS
  0
LAYER
  5
E3
100
AcDbSymbolTableRecord
100
AcDbLayerTableRecord
  2
a-6
 70
    0
 62
250
  6
CONTINUOUS
  0
LAYER
  5
E4
100
AcDbSymbolTableRecord
100
AcDbLayerTableRecord
  2
a-7
 70
    0
 62
250
  6
CONTINUOUS
  0
LAYER
  5
E5
100
AcDbSymbolTableRecord
100
AcDbLayerTableRecord
  2
a-8
 70
    0
 62
250
  6
CONTINUOUS
  0
LAYER
  5
E6
100
AcDbSymbolTableRecord
100
AcDbLayerTableRecord
  2
a-9
 70
    0
 62
250
  6
CONTINUOUS
  0
LAYER
  5
E7
100
AcDbSymbolTableRecord
100
AcDbLayerTableRecord
  2
a-a
 70
    0
 62
250
  6
CONTINUOUS
  0
LAYER
  5
E8
100
AcDbSymbolTableRecord
100
AcDbLayerTableRecord
  2
a-b
 70
    0
 62
250
  6
CONTINUOUS
  0
LAYER
  5
E9
100
AcDbSymbolTableRecord
100
AcDbLayerTableRecord
  2
a-c
 70
    0
 62
250
  6
CONTINUOUS
  0
LAYER
  5
EA
100
AcDbSymbolTableRecord
100
AcDbLayerTableRecord
  2
a-d
 70
    0
 62
250
  6
CONTINUOUS
  0
LAYER
  5
EB
100
AcDbSymbolTableRecord
100
AcDbLayerTableRecord
  2
a-e
 70
    0
 62
250
  6
CONTINUOUS
  0
LAYER
  5
EC
100
AcDbSymbolTableRecord
100
AcDbLayerTableRecord
  2
a-f
 70
    0
 62
250
  6
CONTINUOUS
  0
LAYER
  5
ED
100
AcDbSymbolTableRecord
100
AcDbLayerTableRecord
  2
b-0
 70
    0
 62
250
  6
CONTINUOUS
  0
LAYER
  5
EE
100
AcDbSymbolTableRecord
100
AcDbLayerTableRecord
  2
b-1
 70
    0
 62
250
  6
CONTINUOUS
  0
LAYER
  5
EF
100
AcDbSymbolTableRecord
100
AcDbLayerTableRecord
  2
b-2
 70
    0
 62
250
  6
CONTINUOUS
  0
LAYER
  5
F0
100
AcDbSymbolTableRecord
100
AcDbLayerTableRecord
  2
b-3
 70
    0
 62
250
  6
CONTINUOUS
  0
LAYER
  5
F1
100
AcDbSymbolTableRecord
100
AcDbLayerTableRecord
  2
b-4
 70
    0
 62
250
  6
CONTINUOUS
  0
LAYER
  5
F2
100
AcDbSymbolTableRecord
100
AcDbLayerTableRecord
  2
b-5
 70
    0
 62
250
  6
CONTINUOUS
  0
LAYER
  5
F3
100
AcDbSymbolTableRecord
100
AcDbLayerTableRecord
  2
b-6
 70
    0
 62
250
  6
CONTINUOUS
  0
LAYER
  5
F4
100
AcDbSymbolTableRecord
100
AcDbLayerTableRecord
  2
b-7
 70
    0
 62
250
  6
CONTINUOUS
  0
LAYER
  5
F5
100
AcDbSymbolTableRecord
100
AcDbLayerTableRecord
  2
b-8
 70
    0
 62
250
  6
CONTINUOUS
  0
LAYER
  5
F6
100
AcDbSymbolTableRecord
100
AcDbLayerTableRecord
  2
b-9
 70
    0
 62
250
  6
CONTINUOUS
  0
LAYER
  5
F7
100
AcDbSymbolTableRecord
100
AcDbLayerTableRecord
  2
b-a
 70
    0
 62
250
  6
CONTINUOUS
  0
LAYER
  5
F8
100
AcDbSymbolTableRecord
100
AcDbLayerTableRecord
  2
b-b
 70
    0
 62
250
  6
CONTINUOUS
  0
LAYER
  5
F9
100
AcDbSymbolTableRecord
100
AcDbLayerTableRecord
  2
b-c
 70
    0
 62
250
  6
CONTINUOUS
  0
LAYER
  5
FA
100
AcDbSymbolTableRecord
100
AcDbLayerTableRecord
  2
b-d
 70
    0
 62
250
  6
CONTINUOUS
  0
LAYER
  5
FB
100
AcDbSymbolTableRecord
100
AcDbLayerTableRecord
  2
b-e
 70
    0
 62
250
  6
CONTINUOUS
  0
LAYER
  5
FC
100
AcDbSymbolTableRecord
100
AcDbLayerTableRecord
  2
b-f
 70
    0
 62
250
  6
CONTINUOUS
  0
LAYER
  5
FD
100
AcDbSymbolTableRecord
100
AcDbLayerTableRecord
  2
c-0
 70
    0
 62
250
  6
CONTINUOUS
  0
LAYER
  5
FE
100
AcDbSymbolTableRecord
100
AcDbLayerTableRecord
  2
c-1
 70
    0
 62
250
  6
CONTINUOUS
  0
LAYER
  5
FF
100
AcDbSymbolTableRecord
100
AcDbLayerTableRecord
  2
c-2
 70
    0
 62
250
  6
CONTINUOUS
  0
LAYER
  5
100
100
AcDbSymbolTableRecord
100
AcDbLayerTableRecord
  2
c-3
 70
    0
 62
250
  6
CONTINUOUS
  0
LAYER
  5
101
100
AcDbSymbolTableRecord
100
AcDbLayerTableRecord
  2
c-4
 70
    0
 62
250
  6
CONTINUOUS
  0
LAYER
  5
102
100
AcDbSymbolTableRecord
100
AcDbLayerTableRecord
  2
c-5
 70
    0
 62
250
  6
CONTINUOUS
  0
LAYER
  5
103
100
AcDbSymbolTableRecord
100
AcDbLayerTableRecord
  2
c-6
 70
    0
 62
250
  6
CONTINUOUS
  0
LAYER
  5
104
100
AcDbSymbolTableRecord
100
AcDbLayerTableRecord
  2
c-7
 70
    0
 62
250
  6
CONTINUOUS
  0
LAYER
  5
105
100
AcDbSymbolTableRecord
100
AcDbLayerTableRecord
  2
c-8
 70
    0
 62
250
  6
CONTINUOUS
  0
LAYER
  5
106
100
AcDbSymbolTableRecord
100
AcDbLayerTableRecord
  2
c-9
 70
    0
 62
250
  6
CONTINUOUS
  0
LAYER
  5
107
100
AcDbSymbolTableRecord
100
AcDbLayerTableRecord
  2
c-a
 70
    0
 62
250
  6
CONTINUOUS
  0
LAYER
  5
108
100
AcDbSymbolTableRecord
100
AcDbLayerTableRecord
  2
c-b
 70
    0
 62
250
  6
CONTINUOUS
  0
LAYER
  5
109
100
AcDbSymbolTableRecord
100
AcDbLayerTableRecord
  2
c-c
 70
    0
 62
250
  6
CONTINUOUS
  0
LAYER
  5
10A
100
AcDbSymbolTableRecord
100
AcDbLayerTableRecord
  2
c-d
 70
    0
 62
250
  6
CONTINUOUS
  0
LAYER
  5
10B
100
AcDbSymbolTableRecord
100
AcDbLayerTableRecord
  2
c-e
 70
    0
 62
250
  6
CONTINUOUS
  0
LAYER
  5
10C
100
AcDbSymbolTableRecord
100
AcDbLayerTableRecord
  2
c-f
 70
    0
 62
250
  6
CONTINUOUS
  0
LAYER
  5
10D
100
AcDbSymbolTableRecord
100
AcDbLayerTableRecord
  2
d-0
 70
    0
 62
250
  6
CONTINUOUS
  0
LAYER
  5
10E
100
AcDbSymbolTableRecord
100
AcDbLayerTableRecord
  2
d-1
 70
    0
 62
250
  6
CONTINUOUS
  0
LAYER
  5
10F
100
AcDbSymbolTableRecord
100
AcDbLayerTableRecord
  2
d-2
 70
    0
 62
250
  6
CONTINUOUS
  0
LAYER
  5
110
100
AcDbSymbolTableRecord
100
AcDbLayerTableRecord
  2
d-3
 70
    0
 62
250
  6
CONTINUOUS
  0
LAYER
  5
111
100
AcDbSymbolTableRecord
100
AcDbLayerTableRecord
  2
d-4
 70
    0
 62
250
  6
CONTINUOUS
  0
LAYER
  5
112
100
AcDbSymbolTableRecord
100
AcDbLayerTableRecord
  2
d-5
 70
    0
 62
250
  6
CONTINUOUS
  0
LAYER
  5
113
100
AcDbSymbolTableRecord
100
AcDbLayerTableRecord
  2
d-6
 70
    0
 62
250
  6
CONTINUOUS
  0
LAYER
  5
114
100
AcDbSymbolTableRecord
100
AcDbLayerTableRecord
  2
d-7
 70
    0
 62
250
  6
CONTINUOUS
  0
LAYER
  5
115
100
AcDbSymbolTableRecord
100
AcDbLayerTableRecord
  2
d-8
 70
    0
 62
250
  6
CONTINUOUS
  0
LAYER
  5
116
100
AcDbSymbolTableRecord
100
AcDbLayerTableRecord
  2
d-9
 70
    0
 62
250
  6
CONTINUOUS
  0
LAYER
  5
117
100
AcDbSymbolTableRecord
100
AcDbLayerTableRecord
  2
d-a
 70
    0
 62
250
  6
CONTINUOUS
  0
LAYER
  5
118
100
AcDbSymbolTableRecord
100
AcDbLayerTableRecord
  2
d-b
 70
    0
 62
250
  6
CONTINUOUS
  0
LAYER
  5
119
100
AcDbSymbolTableRecord
100
AcDbLayerTableRecord
  2
d-c
 70
    0
 62
250
  6
CONTINUOUS
  0
LAYER
  5
11A
100
AcDbSymbolTableRecord
100
AcDbLayerTableRecord
  2
d-d
 70
    0
 62
250
  6
CONTINUOUS
  0
LAYER
  5
11B
100
AcDbSymbolTableRecord
100
AcDbLayerTableRecord
  2
d-e
 70
    0
 62
250
  6
CONTINUOUS
  0
LAYER
  5
11C
100
AcDbSymbolTableRecord
100
AcDbLayerTableRecord
  2
d-f
 70
    0
 62
250
  6
CONTINUOUS
  0
LAYER
  5
11D
100
AcDbSymbolTableRecord
100
AcDbLayerTableRecord
  2
e-0
 70
    0
 62
250
  6
CONTINUOUS
  0
LAYER
  5
11E
100
AcDbSymbolTableRecord
100
AcDbLayerTableRecord
  2
e-1
 70
    0
 62
250
  6
CONTINUOUS
  0
LAYER
  5
11F
100
AcDbSymbolTableRecord
100
AcDbLayerTableRecord
  2
e-2
 70
    0
 62
250
  6
CONTINUOUS
  0
LAYER
  5
120
100
AcDbSymbolTableRecord
100
AcDbLayerTableRecord
  2
e-3
 70
    0
 62
250
  6
CONTINUOUS
  0
LAYER
  5
121
100
AcDbSymbolTableRecord
100
AcDbLayerTableRecord
  2
e-4
 70
    0
 62
250
  6
CONTINUOUS
  0
LAYER
  5
122
100
AcDbSymbolTableRecord
100
AcDbLayerTableRecord
  2
e-5
 70
    0
 62
250
  6
CONTINUOUS
  0
LAYER
  5
123
100
AcDbSymbolTableRecord
100
AcDbLayerTableRecord
  2
e-6
 70
    0
 62
250
  6
CONTINUOUS
  0
LAYER
  5
124
100
AcDbSymbolTableRecord
100
AcDbLayerTableRecord
  2
e-7
 70
    0
 62
250
  6
CONTINUOUS
  0
LAYER
  5
125
100
AcDbSymbolTableRecord
100
AcDbLayerTableRecord
  2
e-8
 70
    0
 62
250
  6
CONTINUOUS
  0
LAYER
  5
126
100
AcDbSymbolTableRecord
100
AcDbLayerTableRecord
  2
e-9
 70
    0
 62
250
  6
CONTINUOUS
  0
LAYER
  5
127
100
AcDbSymbolTableRecord
100
AcDbLayerTableRecord
  2
e-a
 70
    0
 62
250
  6
CONTINUOUS
  0
LAYER
  5
128
100
AcDbSymbolTableRecord
100
AcDbLayerTableRecord
  2
e-b
 70
    0
 62
250
  6
CONTINUOUS
  0
LAYER
  5
129
100
AcDbSymbolTableRecord
100
AcDbLayerTableRecord
  2
e-c
 70
    0
 62
250
  6
CONTINUOUS
  0
LAYER
  5
12A
100
AcDbSymbolTableRecord
100
AcDbLayerTableRecord
  2
e-d
 70
    0
 62
250
  6
CONTINUOUS
  0
LAYER
  5
12B
100
AcDbSymbolTableRecord
100
AcDbLayerTableRecord
  2
e-e
 70
    0
 62
250
  6
CONTINUOUS
  0
LAYER
  5
12C
100
AcDbSymbolTableRecord
100
AcDbLayerTableRecord
  2
e-f
 70
    0
 62
250
  6
CONTINUOUS
  0
LAYER
  5
12D
100
AcDbSymbolTableRecord
100
AcDbLayerTableRecord
  2
f-0
 70
    0
 62
250
  6
CONTINUOUS
  0
LAYER
  5
12E
100
AcDbSymbolTableRecord
100
AcDbLayerTableRecord
  2
f-1
 70
    0
 62
250
  6
CONTINUOUS
  0
LAYER
  5
12F
100
AcDbSymbolTableRecord
100
AcDbLayerTableRecord
  2
f-2
 70
    0
 62
250
  6
CONTINUOUS
  0
LAYER
  5
130
100
AcDbSymbolTableRecord
100
AcDbLayerTableRecord
  2
f-3
 70
    0
 62
250
  6
CONTINUOUS
  0
LAYER
  5
131
100
AcDbSymbolTableRecord
100
AcDbLayerTableRecord
  2
f-4
 70
    0
 62
250
  6
CONTINUOUS
  0
LAYER
  5
132
100
AcDbSymbolTableRecord
100
AcDbLayerTableRecord
  2
f-5
 70
    0
 62
250
  6
CONTINUOUS
  0
LAYER
  5
133
100
AcDbSymbolTableRecord
100
AcDbLayerTableRecord
  2
f-6
 70
    0
 62
250
  6
CONTINUOUS
  0
LAYER
  5
134
100
AcDbSymbolTableRecord
100
AcDbLayerTableRecord
  2
f-7
 70
    0
 62
250
  6
CONTINUOUS
  0
LAYER
  5
135
100
AcDbSymbolTableRecord
100
AcDbLayerTableRecord
  2
f-8
 70
    0
 62
250
  6
CONTINUOUS
  0
LAYER
  5
136
100
AcDbSymbolTableRecord
100
AcDbLayerTableRecord
  2
f-9
 70
    0
 62
250
  6
CONTINUOUS
  0
LAYER
  5
137
100
AcDbSymbolTableRecord
100
AcDbLayerTableRecord
  2
f-a
 70
    0
 62
250
  6
CONTINUOUS
  0
LAYER
  5
138
100
AcDbSymbolTableRecord
100
AcDbLayerTableRecord
  2
f-b
 70
    0
 62
250
  6
CONTINUOUS
  0
LAYER
  5
139
100
AcDbSymbolTableRecord
100
AcDbLayerTableRecord
  2
f-c
 70
    0
 62
250
  6
CONTINUOUS
  0
LAYER
  5
13A
100
AcDbSymbolTableRecord
100
AcDbLayerTableRecord
  2
f-d
 70
    0
 62
250
  6
CONTINUOUS
  0
LAYER
  5
13B
100
AcDbSymbolTableRecord
100
AcDbLayerTableRecord
  2
f-e
 70
    0
 62
250
  6
CONTINUOUS
  0
LAYER
  5
13C
100
AcDbSymbolTableRecord
100
AcDbLayerTableRecord
  2
f-f
 70
    0
 62
250
  6
CONTINUOUS
  0
LAYER
  5
13D
100
AcDbSymbolTableRecord
100
AcDbLayerTableRecord
  2
0
 70
   64
 62
    7
  6
CONTINUOUS
  0
ENDTAB
  0
TABLE
  2
STYLE
  5
4
100
AcDbSymbolTable
 70
     1
  0
STYLE
  5
13E
100
AcDbSymbolTableRecord
100
AcDbTextStyleTableRecord
  2
Standard
 70
     0
 40
0.0
 41
1.0
 50
0.0
 71
     0
 42
3.2
  3
TXT
  4
BIGFONT
  0
STYLE
  5
13F
100
AcDbSymbolTableRecord
100
AcDbTextStyleTableRecord
  2
Font_0
 70
     0
 40
0.0
 41
1.0
 50
0.0
 71
     0
 42
3.2
  3
MS Gothic.ttf
  4

1001
ACAD
1000
MS Gothic
1071
  32817
  0
ENDTAB
  0
TABLE
  2
VIEW
  5
5
100
AcDbSymbolTable
 70
     0
  0
ENDTAB
  0
TABLE
  2
UCS
  5
6
100
AcDbSymbolTable
 70
     0
  0
ENDTAB
  0
TABLE
  2
APPID
  5
7
100
AcDbSymbolTable
 70
     1
  0
APPID
  5
140
100
AcDbSymbolTableRecord
100
AcDbRegAppTableRecord
  2
ACAD
 70
     0
  0
ENDTAB
  0
TABLE
  2
DIMSTYLE
  5
8
100
AcDbSymbolTable
 70
     1
  0
DIMSTYLE
105
2A
100
AcDbSymbolTableRecord
100
AcDbDimStyleTableRecord
  2
STANDARD
 70
     0
  3

  4

  5

  6

  7

 40
1.0
 41
2.5
 42
2.0
 43
7.0
 44
1.25
 45
0.0
 46
0.0
 47
0.0
 48
0.0
 71
     0
 72
     0
 73
     0
 74
     0
 75
     0
 76
     0
 77
     1
 78
     0
140
2.5
141
2.5
142
0.0
143
0.0394
144
1.0
145
0.0
146
1.0
147
1.0
170
     0
171
     2
172
     0
173
     0
174
     1
175
     0
176
     0
177
     0
178
     0
270
     2
271
     2
272
     4
273
     2
274
     2
275
     0
280
     0
281
     0
282
     0
283
     1
284
     0
285
     0
286
     0
287
     3
288
     0
  0
ENDTAB
  0
TABLE
  2
BLOCK_RECORD
  5
9
100
AcDbSymbolTable
 70
     0
  0
BLOCK_RECORD
  5
141
100
AcDbSymbolTableRecord
100
AcDbBlockTableRecord
  2
*MODEL_SPACE
  0
BLOCK_RECORD
  5
142
100
AcDbSymbolTableRecord
100
AcDbBlockTableRecord
  2
*PAPER_SPACE
  0
ENDTAB
  0
ENDSEC
  0
SECTION
  2
BLOCKS
  0
BLOCK
  5
144
100
AcDbEntity
  8
0
100
AcDbBlockBegin
2
*MODEL_SPACE
 70
     0
 10
0.0
 20
0.0
 30
0.0
  3
*MODEL_SPACE
  1

  0
ENDBLK
  5
145
100
AcDbEntity
  8
0-0
100
AcDbBlockEnd
  0
BLOCK
  5
146
100
AcDbEntity
 67
     1
  8
0-0
100
AcDbBlockBegin
  2
*PAPER_SPACE
 70
     0
 10
0.0
 20
0.0
 30
0.0
  3
*PAPER_SPACE
  1

  0
ENDBLK
  5
147
100
AcDbEntity
 67
     1
  8
0-0
100
AcDbBlockEnd
  0
ENDSEC
  0
SECTION
  2
ENTITIES
  0
LINE
  5
148
100
AcDbEntity
  8
0-0
100
AcDbLine
  6
CONTINUOUS
 62
7
370
30
 10
389.779389202816
 20
7.82572007075483
 11
587.976928075091
 21
7.82572007075483
  0
LINE
  5
149
100
AcDbEntity
  8
0-0
100
AcDbLine
  6
CONTINUOUS
 62
7
370
30
 10
389.779389202816
 20
30.8257200707548
 11
389.779389202816
 21
7.82572007075483
  0
LINE
  5
14A
100
AcDbEntity
  8
0-0
100
AcDbLine
  6
CONTINUOUS
 62
7
370
30
 10
389.779389202816
 20
25.8257200707548
 11
587.976928075091
 21
25.8257200707548
  0
LINE
  5
14B
100
AcDbEntity
  8
0-0
100
AcDbLine
  6
CONTINUOUS
 62
7
370
30
 10
389.779389202816
 20
30.8257200707548
 11
587.976928075091
 21
30.8257200707548
  0
LINE
  5
14C
100
AcDbEntity
  8
0-0
100
AcDbLine
  6
CONTINUOUS
 62
7
370
30
 10
398.779389202816
 20
30.8257200707548
 11
398.779389202816
 21
25.8257200707548
  0
LINE
  5
14D
100
AcDbEntity
  8
0-0
100
AcDbLine
  6
CONTINUOUS
 62
7
370
30
 10
403.779389202816
 20
25.8257200707548
 11
403.779389202816
 21
7.82572007075483
  0
LINE
  5
14E
100
AcDbEntity
  8
0-0
100
AcDbLine
  6
CONTINUOUS
 62
7
370
30
 10
417.779389202816
 20
25.8257200707548
 11
417.779389202816
 21
7.82572007075483
  0
LINE
  5
14F
100
AcDbEntity
  8
0-0
100
AcDbLine
  6
CONTINUOUS
 62
7
370
30
 10
431.779389202816
 20
25.8257200707548
 11
431.779389202816
 21
7.82572007075483
  0
LINE
  5
150
100
AcDbEntity
  8
0-0
100
AcDbLine
  6
CONTINUOUS
 62
7
370
30
 10
445.779389202816
 20
25.8257200707548
 11
445.779389202816
 21
7.82572007075483
  0
LINE
  5
151
100
AcDbEntity
  8
0-0
100
AcDbLine
  6
CONTINUOUS
 62
7
370
30
 10
459.779389202816
 20
30.8257200707548
 11
459.779389202816
 21
7.82572007075483
  0
LINE
  5
152
100
AcDbEntity
  8
0-0
100
AcDbLine
  6
CONTINUOUS
 62
7
370
30
 10
533.779389202816
 20
25.8257200707548
 11
533.779389202816
 21
7.82572007075483
  0
LINE
  5
153
100
AcDbEntity
  8
0-0
100
AcDbLine
  6
CONTINUOUS
 62
7
370
30
 10
528.514788202816
 20
9.82572007075484
 11
464.618288202816
 21
9.82572007075484
  0
TEXT
  5
154
100
AcDbEntity
  8
0-0
 62
7
100
AcDbText
  6
BYLAYER
 62
7
 10
403.939068854664
 20
26.3257190707548
 40
4
  1
年月日
  7
Font_0
100
AcDbText
  0
TEXT
  5
155
100
AcDbEntity
  8
0-0
 62
7
100
AcDbText
  6
BYLAYER
 62
7
 10
434.703060664198
 20
26.3257190707548
 40
4
  1
記  事
  7
Font_0
100
AcDbText
  0
TEXT
  5
156
100
AcDbEntity
  8
0-0
 62
7
100
AcDbText
  6
BYLAYER
 62
7
 10
390.986285202816
 20
26.7739950707548
 40
3.103449
  1
来歴
  7
Font_0
100
AcDbText
  0
TEXT
  5
157
100
AcDbEntity
  8
0-0
 62
7
100
AcDbText
  6
BYLAYER
 62
7
 10
449.761962858328
 20
21.8257200707548
 40
3
  1
製図
  7
Font_0
100
AcDbText
  0
TEXT
  5
158
100
AcDbEntity
  8
0-0
 62
7
100
AcDbText
  6
BYLAYER
 62
7
 10
421.87833799505
 20
21.8257200707548
 40
3
  1
検図
  7
Font_0
100
AcDbText
  0
TEXT
  5
159
100
AcDbEntity
  8
0-0
 62
7
100
AcDbText
  6
BYLAYER
 62
7
 10
408.021566274274
 20
21.8257200707548
 40
3
  1
承認
  7
Font_0
100
AcDbText
  0
TEXT
  5
15A
100
AcDbEntity
  8
0-0
 62
7
100
AcDbText
  6
BYLAYER
 62
7
 10
464.779389202816
 20
20.8257200707548
 40
3
  1
品名
  7
Font_0
100
AcDbText
  0
POINT
  5
15B
100
AcDbEntity
  8
0-0
100
AcDbPoint
 62
7
 10
474.779389202816
 20
20.5392800707548
  0
POINT
  5
15C
100
AcDbEntity
  8
0-0
100
AcDbPoint
 62
7
 10
474.779389202816
 20
12.0906100707548
  0
TEXT
  5
15D
100
AcDbEntity
  8
0-0
 62
7
100
AcDbText
  6
BYLAYER
 62
7
 10
393.171489202816
 20
21.5935500707548
 40
3
  1
尺度
  7
Font_0
100
AcDbText
  0
LINE
  5
15E
100
AcDbEntity
  8
0-0
100
AcDbLine
  6
CONTINUOUS
 62
7
370
30
 10
393.667293202816
 20
10.5412299977468
 11
400.314888202816
 21
17.1888819977468
  0
POINT
  5
15F
100
AcDbEntity
  8
0-0
100
AcDbPoint
 62
7
 10
410.779389202816
 20
14.8257200707548
  0
POINT
  5
160
100
AcDbEntity
  8
0-0
100
AcDbPoint
 62
7
 10
438.779389202816
 20
14.8257200707548
  0
POINT
  5
161
100
AcDbEntity
  8
0-0
100
AcDbPoint
 62
7
 10
452.779389202816
 20
14.8257200707548
  0
POINT
  5
162
100
AcDbEntity
  8
0-0
100
AcDbPoint
 62
7
 10
424.779389202816
 20
14.8257200707548
  0
TEXT
  5
163
100
AcDbEntity
  8
0-0
 62
7
100
AcDbText
  6
BYLAYER
 62
7
 10
461.967456072583
 20
26.7757190707548
 40
3.1
  1
品番
  7
Font_0
 11
461.967456072583
 21
29.8757190707548
100
AcDbText
 73
3
  0
TEXT
  5
164
100
AcDbEntity
  8
0-0
 62
7
100
AcDbText
  6
BYLAYER
 62
7
 10
485.357775767095
 20
26.7757190707548
 40
3.1
  1
部品名
  7
Font_0
 11
485.357775767095
 21
29.8757190707548
100
AcDbText
 73
3
  0
TEXT
  5
165
100
AcDbEntity
  8
0-0
 62
7
100
AcDbText
  6
BYLAYER
 62
7
 10
519.128508958781
 20
26.7757190707548
 40
3.1
  1
材　質
  7
Font_0
 11
519.128508958781
 21
29.8757190707548
100
AcDbText
 73
3
  0
TEXT
  5
166
100
AcDbEntity
  8
0-0
 62
7
100
AcDbText
  6
BYLAYER
 62
7
 10
540.88416588691
 20
26.7757190707548
 40
3.1
  1
数量
  7
Font_0
 11
540.88416588691
 21
29.8757190707548
100
AcDbText
 73
3
  0
TEXT
  5
167
100
AcDbEntity
  8
0-0
 62
7
100
AcDbText
  6
BYLAYER
 62
7
 10
564.106307430742
 20
26.7757190707548
 40
3.1
  1
備　考
  7
Font_0
 11
564.106307430742
 21
29.8757190707548
100
AcDbText
 73
3
  0
TEXT
  5
168
100
AcDbEntity
  8
0-0
 62
7
100
AcDbText
  6
BYLAYER
 62
7
 10
435.712392140225
 20
21.8257200707548
 40
3
  1
検図
  7
Font_0
100
AcDbText
  0
TEXT
  5
169
100
AcDbEntity
  8
0-0
100
AcDbText
  6
CONTINUOUS
 10
390.985125588662
 20
12.5222593373405
 40
5
  1
１
  7
Font_0
 11
390.985125588662
 21
17.5222593373405
100
AcDbText
 73
3
  0
TEXT
  5
16A
100
AcDbEntity
  8
0-0
100
AcDbText
  6
CONTINUOUS
 10
397.637772364036
 20
10.5184500676496
 40
5
  1
１
  7
Font_0
 11
397.637772364036
 21
15.5184500676496
100
AcDbText
 73
3
  0
LINE
  5
16B
100
AcDbEntity
  8
0-0
100
AcDbLine
  6
CONTINUOUS
 62
7
370
30
 10
420.778499607651
 20
30.8257200707548
 11
420.778499607651
 21
25.8257200707548
  0
LINE
  5
16C
100
AcDbEntity
  8
0-0
100
AcDbLine
  6
DOT
 62
7
370
30
 10
389.779389202816
 20
20.8257200707548
 11
459.779389202816
 21
20.8257200707548
  0
LINE
  5
16D
100
AcDbEntity
  8
0-0
100
AcDbLine
  6
CONTINUOUS
 62
7
370
30
 10
469.778934866431
 20
30.8257200707548
 11
469.778934866431
 21
25.8257200707548
  0
LINE
  5
16E
100
AcDbEntity
  8
0-0
100
AcDbLine
  6
CONTINUOUS
 62
7
370
30
 10
508.782096245124
 20
30.8257200707548
 11
508.782096245124
 21
25.8257200707548
  0
LINE
  5
16F
100
AcDbEntity
  8
0-0
100
AcDbLine
  6
CONTINUOUS
 62
7
370
30
 10
538.782728116506
 20
30.8257200707548
 11
538.782728116506
 21
25.8257200707548
  0
LINE
  5
170
100
AcDbEntity
  8
0-0
100
AcDbLine
  6
CONTINUOUS
 62
7
370
30
 10
548.781145325347
 20
30.8257200707548
 11
548.781145325347
 21
25.8257200707548
  0
MTEXT
  5
171
100
AcDbEntity
  8
0-0
100
AcDbMText
 10
258.329831255054
 20
6.67395249793095
 40
6
 41
  0.0
  1
{\fMS Gothic|b1;MinatoConcept,Inc.}
  7
Font_0
  0
LINE
  5
172
100
AcDbEntity
  8
0-0
100
AcDbLine
  6
CONTINUOUS
 62
7
370
30
 10
4.09871674915826
 20
7.82381546535689
 11
580.976928075091
 21
7.82381546535689
  0
LINE
  5
173
100
AcDbEntity
  8
0-0
100
AcDbLine
  6
CONTINUOUS
 62
7
370
30
 10
4.09871674915826
 20
413.238418311852
 11
4.09871674915826
 21
7.82381546535689
  0
LINE
  5
174
100
AcDbEntity
  8
0-0
100
AcDbLine
  6
CONTINUOUS
 62
7
370
30
 10
4.09871674915826
 20
413.238418311852
 11
587.976928075091
 21
413.238418311852
  0
LINE
  5
175
100
AcDbEntity
  8
0-0
100
AcDbLine
  6
CONTINUOUS
 62
7
370
30
 10
587.976928075091
 20
413.238418311852
 11
587.976928075091
 21
7.82572007075483
  0
LINE
  5
176
100
AcDbEntity
  8
0-0
100
AcDbLine
  6
CONTINUOUS
370
13
 10
282.754252729684
 20
158.663492136414
 11
282.754252729684
 21
51.666158979238
  0
LINE
  5
177
100
AcDbEntity
  8
0-0
100
AcDbLine
  6
CONTINUOUS
370
13
 10
77.0184893108949
 20
254.039165973396
 11
182.018489310895
 21
254.039165973396
  0
ARC
  5
178
100
AcDbEntity
  8
0-0
100
AcDbCircle
  6
CONTINUOUS
370
13
 10
360.754252729684
 20
142.166158979238
 40
1.5
100
AcDbArc
 50
0
 51
180
  0
ARC
  5
179
100
AcDbEntity
  8
0-0
100
AcDbCircle
  6
CONTINUOUS
370
13
 10
360.754252729684
 20
115.166158979238
 40
1.5
100
AcDbArc
 50
180
 51
0
  0
LINE
  5
17A
100
AcDbEntity
  8
0-0
100
AcDbLine
  6
CONTINUOUS
370
13
 10
359.254252729684
 20
142.166158979238
 11
359.254252729684
 21
115.166158979238
  0
LINE
  5
17B
100
AcDbEntity
  8
0-0
100
AcDbLine
  6
CONTINUOUS
370
13
 10
362.254252729684
 20
142.166158979238
 11
362.254252729684
 21
115.166158979238
  0
ARC
  5
17C
100
AcDbEntity
  8
0-0
100
AcDbCircle
  6
CONTINUOUS
370
13
 10
366.754252729684
 20
142.166158979238
 40
1.5
100
AcDbArc
 50
0
 51
180
  0
ARC
  5
17D
100
AcDbEntity
  8
0-0
100
AcDbCircle
  6
CONTINUOUS
370
13
 10
366.754252729684
 20
115.166158979238
 40
1.5
100
AcDbArc
 50
180
 51
0
  0
LINE
  5
17E
100
AcDbEntity
  8
0-0
100
AcDbLine
  6
CONTINUOUS
370
13
 10
365.254252729684
 20
142.166158979238
 11
365.254252729684
 21
115.166158979238
  0
LINE
  5
17F
100
AcDbEntity
  8
0-0
100
AcDbLine
  6
CONTINUOUS
370
13
 10
368.254252729684
 20
142.166158979238
 11
368.254252729684
 21
115.166158979238
  0
ARC
  5
180
100
AcDbEntity
  8
0-0
100
AcDbCircle
  6
CONTINUOUS
370
13
 10
372.754252729684
 20
142.166158979238
 40
1.5
100
AcDbArc
 50
0
 51
180
  0
ARC
  5
181
100
AcDbEntity
  8
0-0
100
AcDbCircle
  6
CONTINUOUS
370
13
 10
372.754252729684
 20
115.166158979238
 40
1.5
100
AcDbArc
 50
180
 51
0
  0
LINE
  5
182
100
AcDbEntity
  8
0-0
100
AcDbLine
  6
CONTINUOUS
370
13
 10
371.254252729684
 20
142.166158979238
 11
371.254252729684
 21
115.166158979238
  0
LINE
  5
183
100
AcDbEntity
  8
0-0
100
AcDbLine
  6
CONTINUOUS
370
13
 10
374.254252729684
 20
142.166158979238
 11
374.254252729684
 21
115.166158979238
  0
ARC
  5
184
100
AcDbEntity
  8
0-0
100
AcDbCircle
  6
CONTINUOUS
370
13
 10
378.754252729684
 20
142.166158979238
 40
1.5
100
AcDbArc
 50
0
 51
180
  0
ARC
  5
185
100
AcDbEntity
  8
0-0
100
AcDbCircle
  6
CONTINUOUS
370
13
 10
378.754252729684
 20
115.166158979238
 40
1.5
100
AcDbArc
 50
180
 51
0
  0
LINE
  5
186
100
AcDbEntity
  8
0-0
100
AcDbLine
  6
CONTINUOUS
370
13
 10
377.254252729684
 20
142.166158979238
 11
377.254252729684
 21
115.166158979238
  0
LINE
  5
187
100
AcDbEntity
  8
0-0
100
AcDbLine
  6
CONTINUOUS
370
13
 10
380.254252729684
 20
142.166158979238
 11
380.254252729684
 21
115.166158979238
  0
ARC
  5
188
100
AcDbEntity
  8
0-0
100
AcDbCircle
  6
CONTINUOUS
370
13
 10
384.754252729684
 20
142.166158979238
 40
1.5
100
AcDbArc
 50
0
 51
180
  0
ARC
  5
189
100
AcDbEntity
  8
0-0
100
AcDbCircle
  6
CONTINUOUS
370
13
 10
384.754252729684
 20
115.166158979238
 40
1.5
100
AcDbArc
 50
180
 51
0
  0
LINE
  5
18A
100
AcDbEntity
  8
0-0
100
AcDbLine
  6
CONTINUOUS
370
13
 10
383.254252729684
 20
142.166158979238
 11
383.254252729684
 21
115.166158979238
  0
LINE
  5
18B
100
AcDbEntity
  8
0-0
100
AcDbLine
  6
CONTINUOUS
370
13
 10
386.254252729684
 20
142.166158979238
 11
386.254252729684
 21
115.166158979238
  0
ARC
  5
18C
100
AcDbEntity
  8
0-0
100
AcDbCircle
  6
CONTINUOUS
370
13
 10
390.754252729684
 20
142.166158979238
 40
1.5
100
AcDbArc
 50
0
 51
180
  0
ARC
  5
18D
100
AcDbEntity
  8
0-0
100
AcDbCircle
  6
CONTINUOUS
370
13
 10
390.754252729684
 20
115.166158979238
 40
1.5
100
AcDbArc
 50
180
 51
0
  0
LINE
  5
18E
100
AcDbEntity
  8
0-0
100
AcDbLine
  6
CONTINUOUS
370
13
 10
389.254252729684
 20
142.166158979238
 11
389.254252729684
 21
115.166158979238
  0
LINE
  5
18F
100
AcDbEntity
  8
0-0
100
AcDbLine
  6
CONTINUOUS
370
13
 10
392.254252729684
 20
142.166158979238
 11
392.254252729684
 21
115.166158979238
  0
MTEXT
  5
190
100
AcDbEntity
  8
0-0
100
AcDbMText
 10
329.56852126558
 20
330.145106978512
 40
4.125
 41
  0.0
  1
{\fMS Gothic|b1;Manufactured by}
  7
Font_0
 11
1
 21
-2.44921270764475E-16
  0
MTEXT
  5
191
100
AcDbEntity
  8
0-0
100
AcDbMText
 10
322.382833853186
 20
323.148516603287
 40
4.95
 41
  0.0
  1
{\fMS Gothic|b1;Minato Concept,Inc.}
  7
Font_0
 11
1
 21
-2.44921270764475E-16
  0
MTEXT
  5
192
100
AcDbEntity
  8
0-0
100
AcDbMText
 10
334.106850157618
 20
314.639149930715
 40
3.3
 41
  0.0
  1
{\fMS Gothic|b1;Tokyo Japan}
  7
Font_0
 11
1
 21
-2.44921270764475E-16
  0
MTEXT
  5
193
100
AcDbEntity
  8
0-0
100
AcDbMText
 10
330.135812377084
 20
309.344432890004
 40
3.3
 41
  0.0
  1
{\fMS Gothic|b1;TEL:03-5637-2882}
  7
Font_0
 11
1
 21
-2.44921270764475E-16
  0
MTEXT
  5
194
100
AcDbEntity
  8
0-0
100
AcDbMText
 10
329.150503076104
 20
304.42790992363
 40
3.3
 41
  0.0
  1
{\fMS Gothic|b1;www.minato-c.co.jp}
  7
Font_0
 11
1
 21
-2.44921270764475E-16
  0
LINE
  5
195
100
AcDbEntity
  8
0-0
100
AcDbLine
  6
CONTINUOUS
370
13
 10
329.544136673659
 20
296.656008786864
 11
358.770289593961
 21
296.656008786864
  0
LINE
  5
196
100
AcDbEntity
  8
0-0
100
AcDbLine
  6
CONTINUOUS
370
13
 10
329.544136673659
 20
292.531008786864
 11
358.770289593961
 21
292.531008786864
  0
LINE
  5
197
100
AcDbEntity
  8
0-0
100
AcDbLine
  6
CONTINUOUS
370
13
 10
329.544136673659
 20
296.656008786864
 11
329.544136673659
 21
292.531008786864
  0
LINE
  5
198
100
AcDbEntity
  8
0-0
100
AcDbLine
  6
CONTINUOUS
370
13
 10
358.770289593961
 20
296.656008786864
 11
358.770289593961
 21
292.531008786864
  0
LINE
  5
199
100
AcDbEntity
  8
0-0
100
AcDbLine
  6
CONTINUOUS
370
13
 10
338.729082478655
 20
296.656008786864
 11
338.729082478655
 21
292.531008786864
  0
MTEXT
  5
19A
100
AcDbEntity
  8
0-0
100
AcDbMText
 10
330.19572590699
 20
295.528131407937
 40
2.475
 41
  0.0
  1
{\fMS Gothic|b1;SER.NO.}
  7
Font_0
 11
1
 21
-2.44921270764475E-16
  0
TEXT
  5
19B
100
AcDbEntity
  8
0-0
100
AcDbText
  6
CONTINUOUS
 10
82.8866880056425
 20
270.422324340836
 40
6
  1
MCRP204Di
  7
Font_0
 11
82.8866880056425
 21
276.422324340836
100
AcDbText
 73
3
  0
LINE
  5
19C
100
AcDbEntity
  8
0-0
100
AcDbLine
  6
CONTINUOUS
370
13
 10
183.018489310895
 20
51.666158979238
 11
77.0184893108949
 21
51.666158979238
  0
LINE
  5
19D
100
AcDbEntity
  8
0-0
100
AcDbLine
  6
CONTINUOUS
370
13
 10
414.454252729684
 20
77.866158979238
 11
412.754252729684
 21
77.866158979238
  0
LINE
  5
19E
100
AcDbEntity
  8
0-0
100
AcDbLine
  6
CONTINUOUS
370
13
 10
414.454252729684
 20
63.866158979238
 11
412.754252729684
 21
63.866158979238
  0
LINE
  5
19F
100
AcDbEntity
  8
0-0
100
AcDbLine
  6
CONTINUOUS
370
13
 10
414.754252729684
 20
77.5661589792379
 11
414.754252729684
 21
64.166158979238
  0
ARC
  5
1A0
100
AcDbEntity
  8
0-0
100
AcDbCircle
  6
CONTINUOUS
370
13
 10
414.454252729684
 20
64.166158979238
 40
0.3
100
AcDbArc
 50
270
 51
360
  0
ARC
  5
1A1
100
AcDbEntity
  8
0-0
100
AcDbCircle
  6
CONTINUOUS
370
13
 10
414.454252729684
 20
77.5661589792379
 40
0.3
100
AcDbArc
 50
0
 51
90
  0
LINE
  5
1A2
100
AcDbEntity
  8
0-0
100
AcDbLine
  6
CONTINUOUS
370
13
 10
94.7684893108949
 20
46.166158979238
 11
95.1184893108949
 21
51.666158979238
  0
LINE
  5
1A3
100
AcDbEntity
  8
0-0
100
AcDbLine
  6
CONTINUOUS
370
13
 10
95.1184893108949
 20
51.666158979238
 11
80.9184893108949
 21
51.666158979238
  0
LINE
  5
1A4
100
AcDbEntity
  8
0-0
100
AcDbLine
  6
CONTINUOUS
370
13
 10
80.9184893108949
 20
51.666158979238
 11
81.2684893108949
 21
46.166158979238
  0
LINE
  5
1A5
100
AcDbEntity
  8
0-0
100
AcDbLine
  6
CONTINUOUS
370
13
 10
81.2684893108949
 20
46.166158979238
 11
94.7684893108949
 21
46.166158979238
  0
LINE
  5
1A6
100
AcDbEntity
  8
0-0
100
AcDbLine
  6
CONTINUOUS
370
13
 10
178.768489310895
 20
46.1661589792381
 11
179.118489310895
 21
51.6661589792381
  0
LINE
  5
1A7
100
AcDbEntity
  8
0-0
100
AcDbLine
  6
CONTINUOUS
370
13
 10
179.118489310895
 20
51.6661589792381
 11
164.918489310895
 21
51.6661589792381
  0
LINE
  5
1A8
100
AcDbEntity
  8
0-0
100
AcDbLine
  6
CONTINUOUS
370
13
 10
164.918489310895
 20
51.6661589792381
 11
165.268489310895
 21
46.1661589792381
  0
LINE
  5
1A9
100
AcDbEntity
  8
0-0
100
AcDbLine
  6
CONTINUOUS
370
13
 10
165.268489310895
 20
46.1661589792381
 11
178.768489310895
 21
46.1661589792381
  0
LINE
  5
1AA
100
AcDbEntity
  8
0-0
100
AcDbLine
  6
CONTINUOUS
370
13
 10
299.49263547543
 20
46.166158979238
 11
299.778999111794
 21
50.666158979238
  0
LINE
  5
1AB
100
AcDbEntity
  8
0-0
100
AcDbLine
  6
CONTINUOUS
370
13
 10
285.706271839067
 20
50.666158979238
 11
285.99263547543
 21
46.166158979238
  0
LINE
  5
1AC
100
AcDbEntity
  8
0-0
100
AcDbLine
  6
CONTINUOUS
370
13
 10
285.99263547543
 20
46.166158979238
 11
299.49263547543
 21
46.166158979238
  0
LINE
  5
1AD
100
AcDbEntity
  8
0-0
100
AcDbLine
  6
CONTINUOUS
370
13
 10
405.504252729684
 20
46.1661589792379
 11
405.790616366048
 21
50.666158979238
  0
LINE
  5
1AE
100
AcDbEntity
  8
0-0
100
AcDbLine
  6
CONTINUOUS
370
13
 10
391.717889093321
 20
50.666158979238
 11
392.004252729684
 21
46.1661589792379
  0
LINE
  5
1AF
100
AcDbEntity
  8
0-0
100
AcDbLine
  6
CONTINUOUS
370
13
 10
392.004252729684
 20
46.1661589792379
 11
405.504252729684
 21
46.1661589792379
  0
LINE
  5
1B0
100
AcDbEntity
  8
0-0
100
AcDbLine
  6
CONTINUOUS
370
13
 10
412.754252729684
 20
182.463492136414
 11
412.754252729684
 21
52.8661589792379
  0
ARC
  5
1B1
100
AcDbEntity
  8
0-0
100
AcDbCircle
  6
BYLAYER
370
13
 10
290.594752729684
 20
115.825658979238
 40
1.653
100
AcDbArc
 50
90.0009086878458
 51
179.999091312156
  0
ARC
  5
1B2
100
AcDbEntity
  8
0-0
100
AcDbCircle
  6
BYLAYER
370
13
 10
290.594752729684
 20
119.506658979238
 40
1.653
100
AcDbArc
 50
180.000908687844
 51
269.999091312154
  0
ARC
  5
1B3
100
AcDbEntity
  8
0-0
100
AcDbCircle
  6
BYLAYER
370
13
 10
288.754252729684
 20
117.666158979238
 40
1.85
100
AcDbArc
 50
264.183007389975
 51
270
  0
ARC
  5
1B4
100
AcDbEntity
  8
0-0
100
AcDbCircle
  6
BYLAYER
370
13
 10
288.754252729684
 20
117.666158979238
 40
1.85
100
AcDbArc
 50
270
 51
275.816992610025
  0
ARC
  5
1B5
100
AcDbEntity
  8
0-0
100
AcDbCircle
  6
BYLAYER
370
13
 10
288.754252729684
 20
117.666158979238
 40
1.85
100
AcDbArc
 50
90
 51
95.8169926100252
  0
ARC
  5
1B6
100
AcDbEntity
  8
0-0
100
AcDbCircle
  6
BYLAYER
370
13
 10
288.754252729684
 20
117.666158979238
 40
1.85
100
AcDbArc
 50
84.1830073899748
 51
90
  0
ARC
  5
1B7
100
AcDbEntity
  8
0-0
100
AcDbCircle
  6
BYLAYER
370
13
 10
288.754252729684
 20
117.666158979238
 40
1.85
100
AcDbArc
 50
180
 51
185.816992610024
  0
ARC
  5
1B8
100
AcDbEntity
  8
0-0
100
AcDbCircle
  6
BYLAYER
370
13
 10
288.754252729684
 20
117.666158979238
 40
1.85
100
AcDbArc
 50
174.183007389976
 51
180
  0
ARC
  5
1B9
100
AcDbEntity
  8
0-0
100
AcDbCircle
  6
BYLAYER
370
13
 10
286.913752729684
 20
115.825658979238
 40
1.653
100
AcDbArc
 50
0.0009086878442255
 51
89.9990913121542
  0
ARC
  5
1BA
100
AcDbEntity
  8
0-0
100
AcDbCircle
  6
BYLAYER
370
13
 10
286.913752729684
 20
119.506658979238
 40
1.653
100
AcDbArc
 50
270.000908687846
 51
359.999091312156
  0
ARC
  5
1BB
100
AcDbEntity
  8
0-0
100
AcDbCircle
  6
BYLAYER
370
13
 10
288.754252729684
 20
117.666158979238
 40
1.85
100
AcDbArc
 50
0
 51
5.81699261002353
  0
ARC
  5
1BC
100
AcDbEntity
  8
0-0
100
AcDbCircle
  6
BYLAYER
370
13
 10
288.754252729684
 20
117.666158979238
 40
1.85
100
AcDbArc
 50
354.183007389976
 51
0
  0
CIRCLE
  5
1BD
100
AcDbEntity
  8
0-0
100
AcDbCircle
  6
CONTINUOUS
370
13
 10
95.018489310895
 20
324.039165973396
 40
3.25
  0
CIRCLE
  5
1BE
100
AcDbEntity
  8
0-0
100
AcDbCircle
  6
CONTINUOUS
370
13
 10
117.018489310895
 20
324.039165973396
 40
3.25
  0
LINE
  5
1BF
100
AcDbEntity
  8
0-0
100
AcDbLine
  6
CONTINUOUS
370
13
 10
158.918489310895
 20
330.139165973396
 11
158.918489310895
 21
317.939165973396
  0
LINE
  5
1C0
100
AcDbEntity
  8
0-0
100
AcDbLine
  6
CONTINUOUS
370
13
 10
171.118489310895
 20
330.139165973396
 11
171.118489310895
 21
317.939165973396
  0
LINE
  5
1C1
100
AcDbEntity
  8
0-0
100
AcDbLine
  6
CONTINUOUS
370
13
 10
158.918489310895
 20
314.139165973396
 11
158.918489310895
 21
301.939165973396
  0
LINE
  5
1C2
100
AcDbEntity
  8
0-0
100
AcDbLine
  6
CONTINUOUS
370
13
 10
171.118489310895
 20
314.139165973396
 11
171.118489310895
 21
301.939165973396
  0
LINE
  5
1C3
100
AcDbEntity
  8
0-0
100
AcDbLine
  6
CONTINUOUS
370
13
 10
158.918489310895
 20
314.139165973396
 11
171.118489310895
 21
314.139165973396
  0
LINE
  5
1C4
100
AcDbEntity
  8
0-0
100
AcDbLine
  6
CONTINUOUS
370
13
 10
158.918489310895
 20
301.939165973396
 11
171.118489310895
 21
301.939165973396
  0
LINE
  5
1C5
100
AcDbEntity
  8
0-0
100
AcDbLine
  6
CONTINUOUS
370
13
 10
158.918489310895
 20
317.939165973396
 11
171.118489310895
 21
317.939165973396
  0
LINE
  5
1C6
100
AcDbEntity
  8
0-0
100
AcDbLine
  6
CONTINUOUS
370
13
 10
158.918489310895
 20
330.139165973396
 11
171.118489310895
 21
330.139165973396
  0
LINE
  5
1C7
100
AcDbEntity
  8
0-0
100
AcDbLine
  6
CONTINUOUS
370
13
 10
88.2684893108951
 20
345.789165973396
 11
123.768489310895
 21
345.789165973396
  0
LINE
  5
1C8
100
AcDbEntity
  8
0-0
100
AcDbLine
  6
CONTINUOUS
370
13
 10
88.2684893108951
 20
334.289165973396
 11
123.768489310895
 21
334.289165973396
  0
LINE
  5
1C9
100
AcDbEntity
  8
0-0
100
AcDbLine
  6
CONTINUOUS
370
13
 10
88.2684893108951
 20
345.789165973396
 11
88.2684893108951
 21
334.289165973396
  0
LINE
  5
1CA
100
AcDbEntity
  8
0-0
100
AcDbLine
  6
CONTINUOUS
370
13
 10
123.768489310895
 20
345.789165973396
 11
123.768489310895
 21
334.289165973396
  0
CIRCLE
  5
1CB
100
AcDbEntity
  8
0-0
100
AcDbCircle
  6
CONTINUOUS
370
13
 10
128.018489310895
 20
350.039165973396
 40
1.5
  0
CIRCLE
  5
1CC
100
AcDbEntity
  8
0-0
100
AcDbCircle
  6
CONTINUOUS
370
13
 10
128.018489310895
 20
345.039165973396
 40
1.5
  0
CIRCLE
  5
1CD
100
AcDbEntity
  8
0-0
100
AcDbCircle
  6
CONTINUOUS
370
13
 10
128.018489310895
 20
340.039165973396
 40
1.5
  0
CIRCLE
  5
1CE
100
AcDbEntity
  8
0-0
100
AcDbCircle
  6
CONTINUOUS
370
13
 10
128.018489310895
 20
335.039165973396
 40
1.5
  0
LINE
  5
1CF
100
AcDbEntity
  8
0-0
100
AcDbLine
  6
CONTINUOUS
370
13
 10
183.018489310895
 20
254.039165973396
 11
183.018489310895
 21
384.039165973396
  0
LINE
  5
1D0
100
AcDbEntity
  8
0-0
100
AcDbLine
  6
CONTINUOUS
370
13
 10
307.754252729684
 20
183.663492136414
 11
412.754252729684
 21
183.663492136414
  0
LINE
  5
1D1
100
AcDbEntity
  8
0-0
100
AcDbLine
  6
CONTINUOUS
370
13
 10
183.018489310895
 20
183.663492136415
 11
77.0184893108949
 21
183.663492136415
  0
LINE
  5
1D2
100
AcDbEntity
  8
0-0
100
AcDbLine
  6
CONTINUOUS
370
13
 10
307.754252729684
 20
183.663492136414
 11
282.754252729684
 21
158.663492136414
  0
LINE
  5
1D3
100
AcDbEntity
  8
0-0
100
AcDbLine
  6
CONTINUOUS
370
13
 10
77.0184893108949
 20
51.666158979238
 11
77.0184893108949
 21
183.663492136415
  0
LINE
  5
1D4
100
AcDbEntity
  8
0-0
100
AcDbLine
  6
CONTINUOUS
370
13
 10
78.018489310895
 20
254.039165973396
 11
183.018489310895
 21
254.039165973396
  0
LINE
  5
1D5
100
AcDbEntity
  8
0-0
100
AcDbLine
  6
CONTINUOUS
370
13
 10
77.018489310895
 20
384.039165973396
 11
183.018489310895
 21
384.039165973396
  0
LINE
  5
1D6
100
AcDbEntity
  8
0-0
100
AcDbLine
  6
CONTINUOUS
370
13
 10
412.754252729684
 20
183.663492136414
 11
307.754252729684
 21
183.663492136414
  0
LINE
  5
1D7
100
AcDbEntity
  8
0-0
100
AcDbLine
  6
CONTINUOUS
370
13
 10
307.754252729685
 20
183.663492136415
 11
282.754252729684
 21
158.663492136414
  0
LINE
  5
1D8
100
AcDbEntity
  8
0-0
100
AcDbLine
  6
CONTINUOUS
370
13
 10
282.754252729684
 20
51.166158979238
 11
282.754252729684
 21
158.663492136414
  0
LINE
  5
1D9
100
AcDbEntity
  8
0-0
100
AcDbLine
  6
CONTINUOUS
370
13
 10
412.754252729684
 20
51.166158979238
 11
412.754252729684
 21
183.663492136414
  0
CIRCLE
  5
1DA
100
AcDbEntity
  8
0-0
100
AcDbCircle
  6
CONTINUOUS
370
13
 10
302.754252729684
 20
57.666158979238
 40
2.75
  0
CIRCLE
  5
1DB
100
AcDbEntity
  8
0-0
100
AcDbCircle
  6
CONTINUOUS
370
13
 10
392.754252729684
 20
57.666158979238
 40
2.75
  0
CIRCLE
  5
1DC
100
AcDbEntity
  8
0-0
100
AcDbCircle
  6
CONTINUOUS
370
13
 10
392.754252729684
 20
177.663492136414
 40
2.75
  0
CIRCLE
  5
1DD
100
AcDbEntity
  8
0-0
100
AcDbCircle
  6
CONTINUOUS
370
13
 10
317.754252729684
 20
177.663492136414
 40
2.75
  0
CIRCLE
  5
1DE
100
AcDbEntity
  8
0-0
100
AcDbCircle
  6
CONTINUOUS
370
13
 10
288.754252729684
 20
117.666158979238
 40
2.75
  0
CIRCLE
  5
1DF
100
AcDbEntity
  8
0-0
100
AcDbCircle
  6
CONTINUOUS
370
13
 10
406.754252729684
 20
117.666158979238
 40
2.75
  0
LINE
  5
1E0
100
AcDbEntity
  8
0-0
100
AcDbLine
  6
CONTINUOUS
370
13
 10
77.0612549836076
 20
279.039165973396
 11
183.018489310895
 21
279.039165973396
  0
LWPOLYLINE
  5
1E1
100
AcDbEntity
  8
0-0
100
AcDbPolyline
  6
CONTINUOUS
370
13
 90
     4
 70
     1
 10
77.0184893108949
  20
183.663492136415
 10
75.8184893108949
  20
183.663492136415
 10
75.8184893108949
  20
50.6634921364146
 10
77.0184893108949
  20
50.6634921364146
  0
LWPOLYLINE
  5
1E2
100
AcDbEntity
  8
0-0
100
AcDbPolyline
  6
CONTINUOUS
370
13
 90
     4
 70
     1
 10
184.218489310895
  20
183.663492136415
 10
183.018489310895
  20
183.663492136415
 10
183.018489310895
  20
50.6634921364146
 10
184.218489310895
  20
50.6634921364146
  0
LINE
  5
1E3
100
AcDbEntity
  8
0-0
100
AcDbLine
  6
CONTINUOUS
370
13
 10
412.254252729684
 20
50.666158979238
 11
283.254252729684
 21
50.666158979238
  0
LINE
  5
1E4
100
AcDbEntity
  8
0-0
100
AcDbLine
  6
CONTINUOUS
370
13
 10
283.254252729684
 20
50.666158979238
 11
282.754252729684
 21
51.166158979238
  0
LINE
  5
1E5
100
AcDbEntity
  8
0-0
100
AcDbLine
  6
CONTINUOUS
370
13
 10
412.254252729684
 20
50.666158979238
 11
412.754252729684
 21
51.166158979238
  0
LWPOLYLINE
  5
1E6
100
AcDbEntity
  8
0-0
100
AcDbPolyline
  6
CONTINUOUS
370
13
 90
     4
 70
     1
 10
184.218489310895
  20
384.039165973396
 10
183.018489310895
  20
384.039165973396
 10
183.018489310895
  20
254.039165973396
 10
184.218489310895
  20
254.039165973396
  0
LWPOLYLINE
  5
1E7
100
AcDbEntity
  8
0-0
100
AcDbPolyline
  6
CONTINUOUS
370
13
 90
     4
 70
     1
 10
77.018489310895
  20
384.039165973396
 10
75.818489310895
  20
384.039165973396
 10
75.818489310895
  20
254.039165973396
 10
77.018489310895
  20
254.039165973396
  0
CIRCLE
  5
1E8
100
AcDbEntity
  8
0-0
100
AcDbCircle
  6
CONTINUOUS
370
13
 10
160.018489310895
 20
378.039165973396
 40
2.75
  0
CIRCLE
  5
1E9
100
AcDbEntity
  8
0-0
100
AcDbCircle
  6
CONTINUOUS
370
13
 10
100.018489310895
 20
378.039165973396
 40
2.75
  0
LINE
  5
1EA
100
AcDbEntity
  8
0-0
100
AcDbLine
  6
CONTINUOUS
370
13
 10
290.298630346373
 20
247.780733385997
 11
396.298630346373
 21
247.780733385997
  0
LINE
  5
1EB
100
AcDbEntity
  8
0-0
100
AcDbLine
  6
HIDDEN
370
13
 10
388.398630346373
 20
243.280733385997
 11
387.839613346373
 21
243.280733385997
  0
LINE
  5
1EC
100
AcDbEntity
  8
0-0
100
AcDbLine
  6
HIDDEN
370
13
 10
387.839613346373
 20
243.280733385997
 11
387.489613346373
 21
242.580733385997
  0
LINE
  5
1ED
100
AcDbEntity
  8
0-0
100
AcDbLine
  6
HIDDEN
370
13
 10
387.489613346373
 20
242.580733385997
 11
386.298630346373
 21
242.580733385997
  0
LINE
  5
1EE
100
AcDbEntity
  8
0-0
100
AcDbLine
  6
HIDDEN
370
13
 10
387.548630346373
 20
245.780733385997
 11
387.298630346373
 21
244.980733385997
  0
LINE
  5
1EF
100
AcDbEntity
  8
0-0
100
AcDbLine
  6
HIDDEN
370
13
 10
387.298630346373
 20
244.980733385997
 11
386.298630346373
 21
244.980733385997
  0
LINE
  5
1F0
100
AcDbEntity
  8
0-0
100
AcDbLine
  6
HIDDEN
370
13
 10
383.048630346373
 20
245.780733385997
 11
384.298630346373
 21
245.780733385997
  0
LINE
  5
1F1
100
AcDbEntity
  8
0-0
100
AcDbLine
  6
CONTINUOUS
370
13
 10
387.798630346373
 20
242.080733385997
 11
382.798630346373
 21
242.080733385997
  0
LINE
  5
1F2
100
AcDbEntity
  8
0-0
100
AcDbLine
  6
CONTINUOUS
370
13
 10
378.548630346373
 20
242.280733385997
 11
378.198630346373
 21
247.780733385997
  0
LINE
  5
1F3
100
AcDbEntity
  8
0-0
100
AcDbLine
  6
CONTINUOUS
370
13
 10
378.198630346373
 20
247.780733385997
 11
392.398630346373
 21
247.780733385997
  0
LINE
  5
1F4
100
AcDbEntity
  8
0-0
100
AcDbLine
  6
HIDDEN
370
13
 10
386.798630346373
 20
245.780733385997
 11
386.798630346373
 21
247.780733385997
  0
LINE
  5
1F5
100
AcDbEntity
  8
0-0
100
AcDbLine
  6
CONTINUOUS
370
13
 10
382.798630346373
 20
242.080733385997
 11
382.698630346373
 21
242.280733385997
  0
LINE
  5
1F6
100
AcDbEntity
  8
0-0
100
AcDbLine
  6
HIDDEN
370
13
 10
388.398630346373
 20
243.280733385997
 11
387.898630346373
 21
242.280733385997
  0
LINE
  5
1F7
100
AcDbEntity
  8
0-0
100
AcDbLine
  6
HIDDEN
370
13
 10
386.848630346373
 20
245.880733385997
 11
388.698630346373
 21
245.880733385997
  0
LINE
  5
1F8
100
AcDbEntity
  8
0-0
100
AcDbLine
  6
HIDDEN
370
13
 10
383.298630346373
 20
244.980733385997
 11
383.048630346373
 21
245.780733385997
  0
LINE
  5
1F9
100
AcDbEntity
  8
0-0
100
AcDbLine
  6
HIDDEN
370
13
 10
386.848630346373
 20
247.780733385997
 11
386.848630346373
 21
245.880733385997
  0
LINE
  5
1FA
100
AcDbEntity
  8
0-0
100
AcDbLine
  6
HIDDEN
370
13
 10
383.748630346373
 20
247.780733385997
 11
383.748630346373
 21
245.880733385997
  0
LINE
  5
1FB
100
AcDbEntity
  8
0-0
100
AcDbLine
  6
HIDDEN
370
13
 10
381.898630346373
 20
242.280733385997
 11
381.898630346373
 21
245.880733385997
  0
LINE
  5
1FC
100
AcDbEntity
  8
0-0
100
AcDbLine
  6
HIDDEN
370
13
 10
381.898630346373
 20
245.880733385997
 11
383.748630346373
 21
245.880733385997
  0
LINE
  5
1FD
100
AcDbEntity
  8
0-0
100
AcDbLine
  6
HIDDEN
370
13
 10
388.698630346373
 20
245.880733385997
 11
388.698630346373
 21
242.280733385997
  0
LINE
  5
1FE
100
AcDbEntity
  8
0-0
100
AcDbLine
  6
CONTINUOUS
370
13
 10
386.698630346373
 20
251.280733385997
 11
385.548630346373
 21
251.280733385997
  0
LINE
  5
1FF
100
AcDbEntity
  8
0-0
100
AcDbLine
  6
CONTINUOUS
370
13
 10
392.398630346373
 20
247.780733385997
 11
392.048630346373
 21
242.280733385997
  0
LINE
  5
200
100
AcDbEntity
  8
0-0
100
AcDbLine
  6
HIDDEN
370
13
 10
382.698630346373
 20
242.280733385997
 11
382.198630346373
 21
243.280733385997
  0
LINE
  5
201
100
AcDbEntity
  8
0-0
100
AcDbLine
  6
HIDDEN
370
13
 10
384.298630346373
 20
244.980733385997
 11
383.298630346373
 21
244.980733385997
  0
LINE
  5
202
100
AcDbEntity
  8
0-0
100
AcDbLine
  6
HIDDEN
370
13
 10
386.298630346373
 20
245.780733385997
 11
387.548630346373
 21
245.780733385997
  0
LINE
  5
203
100
AcDbEntity
  8
0-0
100
AcDbLine
  6
HIDDEN
370
13
 10
384.298630346373
 20
242.580733385997
 11
383.107647346373
 21
242.580733385997
  0
LINE
  5
204
100
AcDbEntity
  8
0-0
100
AcDbLine
  6
CONTINUOUS
370
13
 10
392.048630346373
 20
242.280733385997
 11
378.548630346373
 21
242.280733385997
  0
ARC
  5
205
100
AcDbEntity
  8
0-0
100
AcDbCircle
  6
CONTINUOUS
370
13
 10
386.198630346373
 20
249.180733385997
 40
0.1
100
AcDbArc
 50
3.2568879938142E-11
 51
89.9999999999674
  0
ARC
  5
206
100
AcDbEntity
  8
0-0
100
AcDbCircle
  6
CONTINUOUS
370
13
 10
384.398630346373
 20
249.180733385997
 40
0.1
100
AcDbArc
 50
90
 51
180
  0
LINE
  5
207
100
AcDbEntity
  8
0-0
100
AcDbLine
  6
CONTINUOUS
370
13
 10
385.048630346373
 20
251.280733385997
 11
385.048630346373
 21
249.880733385997
  0
LINE
  5
208
100
AcDbEntity
  8
0-0
100
AcDbLine
  6
CONTINUOUS
370
13
 10
385.048630346373
 20
251.280733385997
 11
383.898630346373
 21
251.280733385997
  0
LINE
  5
209
100
AcDbEntity
  8
0-0
100
AcDbLine
  6
CONTINUOUS
370
13
 10
386.798630346373
 20
247.780733385997
 11
386.798630346373
 21
251.180733385997
  0
LINE
  5
20A
100
AcDbEntity
  8
0-0
100
AcDbLine
  6
CONTINUOUS
370
13
 10
385.548630346373
 20
249.880733385997
 11
386.298630346373
 21
249.880733385997
  0
LINE
  5
20B
100
AcDbEntity
  8
0-0
100
AcDbLine
  6
HIDDEN
370
13
 10
384.298630346373
 20
247.780733385997
 11
384.298630346373
 21
242.580733385997
  0
LINE
  5
20C
100
AcDbEntity
  8
0-0
100
AcDbLine
  6
CONTINUOUS
370
13
 10
386.198630346373
 20
249.280733385997
 11
384.398630346373
 21
249.280733385997
  0
LINE
  5
20D
100
AcDbEntity
  8
0-0
100
AcDbLine
  6
CONTINUOUS
370
13
 10
385.548630346373
 20
251.280733385997
 11
385.548630346373
 21
249.880733385997
  0
LINE
  5
20E
100
AcDbEntity
  8
0-0
100
AcDbLine
  6
CONTINUOUS
370
13
 10
386.298630346373
 20
247.780733385997
 11
386.298630346373
 21
249.880733385997
  0
LINE
  5
20F
100
AcDbEntity
  8
0-0
100
AcDbLine
  6
HIDDEN
370
13
 10
383.798630346373
 20
247.780733385997
 11
383.798630346373
 21
245.780733385997
  0
LINE
  5
210
100
AcDbEntity
  8
0-0
100
AcDbLine
  6
CONTINUOUS
370
13
 10
385.048630346373
 20
249.880733385997
 11
384.298630346373
 21
249.880733385997
  0
LINE
  5
211
100
AcDbEntity
  8
0-0
100
AcDbLine
  6
CONTINUOUS
370
13
 10
387.898630346373
 20
242.280733385997
 11
387.798630346373
 21
242.080733385997
  0
LINE
  5
212
100
AcDbEntity
  8
0-0
100
AcDbLine
  6
HIDDEN
370
13
 10
382.757647346373
 20
243.280733385997
 11
382.198630346373
 21
243.280733385997
  0
LINE
  5
213
100
AcDbEntity
  8
0-0
100
AcDbLine
  6
HIDDEN
370
13
 10
383.107647346373
 20
242.580733385997
 11
382.757647346373
 21
243.280733385997
  0
LINE
  5
214
100
AcDbEntity
  8
0-0
100
AcDbLine
  6
HIDDEN
370
13
 10
383.110090346373
 20
242.580733385997
 11
383.107647346373
 21
242.580733385997
  0
LINE
  5
215
100
AcDbEntity
  8
0-0
100
AcDbLine
  6
CONTINUOUS
370
13
 10
384.298630346373
 20
249.880733385997
 11
384.298630346373
 21
247.780733385997
  0
LINE
  5
216
100
AcDbEntity
  8
0-0
100
AcDbLine
  6
HIDDEN
370
13
 10
386.298630346373
 20
242.580733385997
 11
386.298630346373
 21
247.780733385997
  0
ARC
  5
217
100
AcDbEntity
  8
0-0
100
AcDbCircle
  6
CONTINUOUS
370
13
 10
383.898630346373
 20
251.180733385997
 40
0.1
100
AcDbArc
 50
90
 51
180
  0
ARC
  5
218
100
AcDbEntity
  8
0-0
100
AcDbCircle
  6
CONTINUOUS
370
13
 10
386.698630346373
 20
251.180733385997
 40
0.1
100
AcDbArc
 50
-1.62844399690988E-11
 51
90.0000000000326
  0
LINE
  5
219
100
AcDbEntity
  8
0-0
100
AcDbLine
  6
CONTINUOUS
370
13
 10
383.798630346373
 20
251.180733385997
 11
383.798630346373
 21
247.780733385997
  0
LINE
  5
21A
100
AcDbEntity
  8
0-0
100
AcDbLine
  6
HIDDEN
370
13
 10
304.398630346373
 20
243.280733385997
 11
303.839613346373
 21
243.280733385997
  0
LINE
  5
21B
100
AcDbEntity
  8
0-0
100
AcDbLine
  6
HIDDEN
370
13
 10
303.839613346373
 20
243.280733385997
 11
303.489613346373
 21
242.580733385997
  0
LINE
  5
21C
100
AcDbEntity
  8
0-0
100
AcDbLine
  6
HIDDEN
370
13
 10
303.489613346373
 20
242.580733385997
 11
302.298630346373
 21
242.580733385997
  0
LINE
  5
21D
100
AcDbEntity
  8
0-0
100
AcDbLine
  6
HIDDEN
370
13
 10
303.548630346373
 20
245.780733385997
 11
303.298630346373
 21
244.980733385997
  0
LINE
  5
21E
100
AcDbEntity
  8
0-0
100
AcDbLine
  6
HIDDEN
370
13
 10
303.298630346373
 20
244.980733385997
 11
302.298630346373
 21
244.980733385997
  0
LINE
  5
21F
100
AcDbEntity
  8
0-0
100
AcDbLine
  6
HIDDEN
370
13
 10
299.048630346373
 20
245.780733385997
 11
300.298630346373
 21
245.780733385997
  0
LINE
  5
220
100
AcDbEntity
  8
0-0
100
AcDbLine
  6
CONTINUOUS
370
13
 10
303.798630346373
 20
242.080733385997
 11
298.798630346373
 21
242.080733385997
  0
LINE
  5
221
100
AcDbEntity
  8
0-0
100
AcDbLine
  6
CONTINUOUS
370
13
 10
294.548630346373
 20
242.280733385997
 11
294.198630346373
 21
247.780733385997
  0
LINE
  5
222
100
AcDbEntity
  8
0-0
100
AcDbLine
  6
CONTINUOUS
370
13
 10
294.198630346373
 20
247.780733385997
 11
308.398630346373
 21
247.780733385997
  0
LINE
  5
223
100
AcDbEntity
  8
0-0
100
AcDbLine
  6
HIDDEN
370
13
 10
302.798630346373
 20
245.780733385997
 11
302.798630346373
 21
247.780733385997
  0
LINE
  5
224
100
AcDbEntity
  8
0-0
100
AcDbLine
  6
CONTINUOUS
370
13
 10
298.798630346373
 20
242.080733385997
 11
298.698630346373
 21
242.280733385997
  0
LINE
  5
225
100
AcDbEntity
  8
0-0
100
AcDbLine
  6
HIDDEN
370
13
 10
304.398630346373
 20
243.280733385997
 11
303.898630346373
 21
242.280733385997
  0
LINE
  5
226
100
AcDbEntity
  8
0-0
100
AcDbLine
  6
HIDDEN
370
13
 10
302.848630346373
 20
245.880733385997
 11
304.698630346373
 21
245.880733385997
  0
LINE
  5
227
100
AcDbEntity
  8
0-0
100
AcDbLine
  6
HIDDEN
370
13
 10
299.298630346373
 20
244.980733385997
 11
299.048630346373
 21
245.780733385997
  0
LINE
  5
228
100
AcDbEntity
  8
0-0
100
AcDbLine
  6
HIDDEN
370
13
 10
302.848630346373
 20
247.780733385997
 11
302.848630346373
 21
245.880733385997
  0
LINE
  5
229
100
AcDbEntity
  8
0-0
100
AcDbLine
  6
HIDDEN
370
13
 10
299.748630346373
 20
247.780733385997
 11
299.748630346373
 21
245.880733385997
  0
LINE
  5
22A
100
AcDbEntity
  8
0-0
100
AcDbLine
  6
HIDDEN
370
13
 10
297.898630346373
 20
242.280733385997
 11
297.898630346373
 21
245.880733385997
  0
LINE
  5
22B
100
AcDbEntity
  8
0-0
100
AcDbLine
  6
HIDDEN
370
13
 10
297.898630346373
 20
245.880733385997
 11
299.748630346373
 21
245.880733385997
  0
LINE
  5
22C
100
AcDbEntity
  8
0-0
100
AcDbLine
  6
HIDDEN
370
13
 10
304.698630346373
 20
245.880733385997
 11
304.698630346373
 21
242.280733385997
  0
LINE
  5
22D
100
AcDbEntity
  8
0-0
100
AcDbLine
  6
CONTINUOUS
370
13
 10
302.698630346373
 20
251.280733385997
 11
301.548630346373
 21
251.280733385997
  0
LINE
  5
22E
100
AcDbEntity
  8
0-0
100
AcDbLine
  6
CONTINUOUS
370
13
 10
308.398630346373
 20
247.780733385997
 11
308.048630346373
 21
242.280733385997
  0
LINE
  5
22F
100
AcDbEntity
  8
0-0
100
AcDbLine
  6
HIDDEN
370
13
 10
298.698630346373
 20
242.280733385997
 11
298.198630346373
 21
243.280733385997
  0
LINE
  5
230
100
AcDbEntity
  8
0-0
100
AcDbLine
  6
HIDDEN
370
13
 10
300.298630346373
 20
244.980733385997
 11
299.298630346373
 21
244.980733385997
  0
LINE
  5
231
100
AcDbEntity
  8
0-0
100
AcDbLine
  6
HIDDEN
370
13
 10
302.298630346373
 20
245.780733385997
 11
303.548630346373
 21
245.780733385997
  0
LINE
  5
232
100
AcDbEntity
  8
0-0
100
AcDbLine
  6
HIDDEN
370
13
 10
300.298630346373
 20
242.580733385997
 11
299.107647346373
 21
242.580733385997
  0
LINE
  5
233
100
AcDbEntity
  8
0-0
100
AcDbLine
  6
CONTINUOUS
370
13
 10
308.048630346373
 20
242.280733385997
 11
294.548630346373
 21
242.280733385997
  0
ARC
  5
234
100
AcDbEntity
  8
0-0
100
AcDbCircle
  6
CONTINUOUS
370
13
 10
302.198630346373
 20
249.180733385997
 40
0.1
100
AcDbArc
 50
0
 51
90
  0
ARC
  5
235
100
AcDbEntity
  8
0-0
100
AcDbCircle
  6
CONTINUOUS
370
13
 10
300.398630346373
 20
249.180733385997
 40
0.1
100
AcDbArc
 50
90.0000000000326
 51
179.999999999984
  0
LINE
  5
236
100
AcDbEntity
  8
0-0
100
AcDbLine
  6
CONTINUOUS
370
13
 10
301.048630346373
 20
251.280733385997
 11
301.048630346373
 21
249.880733385997
  0
LINE
  5
237
100
AcDbEntity
  8
0-0
100
AcDbLine
  6
CONTINUOUS
370
13
 10
301.048630346373
 20
251.280733385997
 11
299.898630346373
 21
251.280733385997
  0
LINE
  5
238
100
AcDbEntity
  8
0-0
100
AcDbLine
  6
CONTINUOUS
370
13
 10
302.798630346373
 20
247.780733385997
 11
302.798630346373
 21
251.180733385997
  0
LINE
  5
239
100
AcDbEntity
  8
0-0
100
AcDbLine
  6
CONTINUOUS
370
13
 10
301.548630346373
 20
249.880733385997
 11
302.298630346373
 21
249.880733385997
  0
LINE
  5
23A
100
AcDbEntity
  8
0-0
100
AcDbLine
  6
HIDDEN
370
13
 10
300.298630346373
 20
247.780733385997
 11
300.298630346373
 21
242.580733385997
  0
LINE
  5
23B
100
AcDbEntity
  8
0-0
100
AcDbLine
  6
CONTINUOUS
370
13
 10
302.198630346373
 20
249.280733385997
 11
300.398630346373
 21
249.280733385997
  0
LINE
  5
23C
100
AcDbEntity
  8
0-0
100
AcDbLine
  6
CONTINUOUS
370
13
 10
301.548630346373
 20
251.280733385997
 11
301.548630346373
 21
249.880733385997
  0
LINE
  5
23D
100
AcDbEntity
  8
0-0
100
AcDbLine
  6
CONTINUOUS
370
13
 10
302.298630346373
 20
247.780733385997
 11
302.298630346373
 21
249.880733385997
  0
LINE
  5
23E
100
AcDbEntity
  8
0-0
100
AcDbLine
  6
HIDDEN
370
13
 10
299.798630346373
 20
247.780733385997
 11
299.798630346373
 21
245.780733385997
  0
LINE
  5
23F
100
AcDbEntity
  8
0-0
100
AcDbLine
  6
CONTINUOUS
370
13
 10
301.048630346373
 20
249.880733385997
 11
300.298630346373
 21
249.880733385997
  0
LINE
  5
240
100
AcDbEntity
  8
0-0
100
AcDbLine
  6
CONTINUOUS
370
13
 10
303.898630346373
 20
242.280733385997
 11
303.798630346373
 21
242.080733385997
  0
LINE
  5
241
100
AcDbEntity
  8
0-0
100
AcDbLine
  6
HIDDEN
370
13
 10
298.757647346373
 20
243.280733385997
 11
298.198630346373
 21
243.280733385997
  0
LINE
  5
242
100
AcDbEntity
  8
0-0
100
AcDbLine
  6
HIDDEN
370
13
 10
299.107647346373
 20
242.580733385997
 11
298.757647346373
 21
243.280733385997
  0
LINE
  5
243
100
AcDbEntity
  8
0-0
100
AcDbLine
  6
HIDDEN
370
13
 10
299.110090346373
 20
242.580733385997
 11
299.107647346373
 21
242.580733385997
  0
LINE
  5
244
100
AcDbEntity
  8
0-0
100
AcDbLine
  6
CONTINUOUS
370
13
 10
300.298630346373
 20
249.880733385997
 11
300.298630346373
 21
247.780733385997
  0
LINE
  5
245
100
AcDbEntity
  8
0-0
100
AcDbLine
  6
HIDDEN
370
13
 10
302.298630346373
 20
242.580733385997
 11
302.298630346373
 21
247.780733385997
  0
ARC
  5
246
100
AcDbEntity
  8
0-0
100
AcDbCircle
  6
CONTINUOUS
370
13
 10
299.898630346373
 20
251.180733385997
 40
0.1
100
AcDbArc
 50
90
 51
180
  0
ARC
  5
247
100
AcDbEntity
  8
0-0
100
AcDbCircle
  6
CONTINUOUS
370
13
 10
302.698630346373
 20
251.180733385997
 40
0.1
100
AcDbArc
 50
0
 51
90
  0
LINE
  5
248
100
AcDbEntity
  8
0-0
100
AcDbLine
  6
CONTINUOUS
370
13
 10
299.798630346373
 20
251.180733385997
 11
299.798630346373
 21
247.780733385997
  0
LINE
  5
249
100
AcDbEntity
  8
0-0
100
AcDbLine
  6
CONTINUOUS
370
13
 10
290.298630346373
 20
379.778066543174
 11
396.298630346373
 21
379.778066543174
  0
LINE
  5
24A
100
AcDbEntity
  8
0-0
100
AcDbLine
  6
CONTINUOUS
370
13
 10
396.298630346373
 20
247.780733385997
 11
396.298630346373
 21
379.778066543174
  0
LINE
  5
24B
100
AcDbEntity
  8
0-0
100
AcDbLine
  6
CONTINUOUS
370
13
 10
290.298630346373
 20
247.780733385997
 11
290.298630346373
 21
379.778066543174
  0
LWPOLYLINE
  5
24C
100
AcDbEntity
  8
0-0
100
AcDbPolyline
  6
CONTINUOUS
370
13
 90
     4
 70
     1
 10
396.298630346373
  20
379.778066543174
 10
397.498630346373
  20
379.778066543174
 10
397.498630346373
  20
246.778066543174
 10
396.298630346373
  20
246.778066543174
  0
LWPOLYLINE
  5
24D
100
AcDbEntity
  8
0-0
100
AcDbPolyline
  6
CONTINUOUS
370
13
 90
     4
 70
     1
 10
289.098630346373
  20
379.778066543174
 10
290.298630346373
  20
379.778066543174
 10
290.298630346373
  20
246.778066543174
 10
289.098630346373
  20
246.778066543174
  0
CIRCLE
  5
24E
100
AcDbEntity
  8
0-0
100
AcDbCircle
  6
CONTINUOUS
370
13
 10
330.859079092467
 20
266.980733385997
 40
1.55
  0
LINE
  5
24F
100
AcDbEntity
  8
0-0
100
AcDbLine
  6
CONTINUOUS
370
13
 10
337.449079092468
 20
270.330733385997
 11
349.269079092467
 21
270.330733385997
  0
LINE
  5
250
100
AcDbEntity
  8
0-0
100
AcDbLine
  6
CONTINUOUS
370
13
 10
337.209079092467
 20
270.930733385997
 11
349.509079092467
 21
270.930733385997
  0
LINE
  5
251
100
AcDbEntity
  8
0-0
100
AcDbLine
  6
CONTINUOUS
370
13
 10
351.238694598491
 20
267.983437030663
 11
350.762611750579
 21
265.283437030663
  0
LINE
  5
252
100
AcDbEntity
  8
0-0
100
AcDbLine
  6
CONTINUOUS
370
13
 10
351.478694598492
 20
268.583437030663
 11
350.791019373729
 21
264.683437030663
  0
CIRCLE
  5
253
100
AcDbEntity
  8
0-0
100
AcDbCircle
  6
CONTINUOUS
370
13
 10
355.859079092467
 20
266.980733385997
 40
1.55
  0
CIRCLE
  5
254
100
AcDbEntity
  8
0-0
100
AcDbCircle
  6
CONTINUOUS
370
13
 10
348.899079092467
 20
268.978760980072
 40
0.5
  0
ARC
  5
255
100
AcDbEntity
  8
0-0
100
AcDbCircle
  6
CONTINUOUS
370
13
 10
348.821403867704
 20
265.030733385997
 40
2
100
AcDbArc
 50
270
 51
350.000000000001
  0
ARC
  5
256
100
AcDbEntity
  8
0-0
100
AcDbCircle
  6
CONTINUOUS
370
13
 10
348.792996244554
 20
265.630733385997
 40
2
100
AcDbArc
 50
270
 51
350.000000000001
  0
LINE
  5
257
100
AcDbEntity
  8
0-0
100
AcDbLine
  6
CONTINUOUS
370
13
 10
335.239463586443
 20
268.583437030663
 11
335.927138811206
 21
264.683437030663
  0
LINE
  5
258
100
AcDbEntity
  8
0-0
100
AcDbLine
  6
CONTINUOUS
370
13
 10
335.479463586443
 20
267.983437030663
 11
335.955546434356
 21
265.283437030664
  0
CIRCLE
  5
259
100
AcDbEntity
  8
0-0
100
AcDbCircle
  6
CONTINUOUS
370
13
 10
344.744079092467
 20
264.982705791922
 40
0.5
  0
CIRCLE
  5
25A
100
AcDbEntity
  8
0-0
100
AcDbCircle
  6
CONTINUOUS
370
13
 10
339.204079092467
 20
264.982705791922
 40
0.5
  0
CIRCLE
  5
25B
100
AcDbEntity
  8
0-0
100
AcDbCircle
  6
CONTINUOUS
370
13
 10
341.974079092467
 20
264.982705791922
 40
0.5
  0
CIRCLE
  5
25C
100
AcDbEntity
  8
0-0
100
AcDbCircle
  6
CONTINUOUS
370
13
 10
346.129079092467
 20
268.978760980072
 40
0.5
  0
CIRCLE
  5
25D
100
AcDbEntity
  8
0-0
100
AcDbCircle
  6
CONTINUOUS
370
13
 10
343.359079092467
 20
268.978760980072
 40
0.5
  0
CIRCLE
  5
25E
100
AcDbEntity
  8
0-0
100
AcDbCircle
  6
CONTINUOUS
370
13
 10
340.589079092467
 20
268.978760980072
 40
0.5
  0
CIRCLE
  5
25F
100
AcDbEntity
  8
0-0
100
AcDbCircle
  6
CONTINUOUS
370
13
 10
337.819079092467
 20
268.978760980072
 40
0.5
  0
ARC
  5
260
100
AcDbEntity
  8
0-0
100
AcDbCircle
  6
CONTINUOUS
370
13
 10
337.92516194038
 20
265.630733385997
 40
2
100
AcDbArc
 50
189.999999999999
 51
270
  0
ARC
  5
261
100
AcDbEntity
  8
0-0
100
AcDbCircle
  6
CONTINUOUS
370
13
 10
337.89675431723
 20
265.030733385997
 40
2
100
AcDbArc
 50
189.999999999999
 51
270
  0
CIRCLE
  5
262
100
AcDbEntity
  8
0-0
100
AcDbCircle
  6
CONTINUOUS
370
13
 10
344.744079092467
 20
264.982705791922
 40
0.740688034259961
  0
CIRCLE
  5
263
100
AcDbEntity
  8
0-0
100
AcDbCircle
  6
CONTINUOUS
370
13
 10
341.974079092467
 20
264.982705791922
 40
0.740688034259961
  0
CIRCLE
  5
264
100
AcDbEntity
  8
0-0
100
AcDbCircle
  6
CONTINUOUS
370
13
 10
339.204079092467
 20
264.982705791922
 40
0.740688034259961
  0
LINE
  5
265
100
AcDbEntity
  8
0-0
100
AcDbLine
  6
CONTINUOUS
370
13
 10
337.89675431723
 20
263.030733385997
 11
348.821403867704
 21
263.030733385997
  0
LINE
  5
266
100
AcDbEntity
  8
0-0
100
AcDbLine
  6
CONTINUOUS
370
13
 10
337.925161940381
 20
263.630733385997
 11
348.792996244554
 21
263.630733385997
  0
CIRCLE
  5
267
100
AcDbEntity
  8
0-0
100
AcDbCircle
  6
CONTINUOUS
370
13
 10
347.514079092467
 20
264.982705791922
 40
0.5
  0
CIRCLE
  5
268
100
AcDbEntity
  8
0-0
100
AcDbCircle
  6
CONTINUOUS
370
13
 10
347.514079092467
 20
264.982705791922
 40
0.740688034259961
  0
ARC
  5
269
100
AcDbEntity
  8
0-0
100
AcDbCircle
  6
CONTINUOUS
370
13
 10
337.449079092468
 20
268.330733385997
 40
2
100
AcDbArc
 50
90
 51
189.999999999999
  0
ARC
  5
26A
100
AcDbEntity
  8
0-0
100
AcDbCircle
  6
CONTINUOUS
370
13
 10
337.209079092467
 20
268.930733385997
 40
2
100
AcDbArc
 50
90
 51
189.999999999999
  0
ARC
  5
26B
100
AcDbEntity
  8
0-0
100
AcDbCircle
  6
CONTINUOUS
370
13
 10
349.269079092467
 20
268.330733385997
 40
2
100
AcDbArc
 50
350.000000000001
 51
90
  0
ARC
  5
26C
100
AcDbEntity
  8
0-0
100
AcDbCircle
  6
CONTINUOUS
370
13
 10
349.509079092467
 20
268.930733385997
 40
2
100
AcDbArc
 50
350.000000000001
 51
90
  0
CIRCLE
  5
26D
100
AcDbEntity
  8
0-0
100
AcDbCircle
  6
CONTINUOUS
370
13
 10
337.819079092467
 20
268.978760980072
 40
0.740688034259961
  0
CIRCLE
  5
26E
100
AcDbEntity
  8
0-0
100
AcDbCircle
  6
CONTINUOUS
370
13
 10
340.589079092467
 20
268.978760980072
 40
0.740688034259961
  0
CIRCLE
  5
26F
100
AcDbEntity
  8
0-0
100
AcDbCircle
  6
CONTINUOUS
370
13
 10
343.359079092467
 20
268.978760980072
 40
0.740688034259961
  0
CIRCLE
  5
270
100
AcDbEntity
  8
0-0
100
AcDbCircle
  6
CONTINUOUS
370
13
 10
346.129079092467
 20
268.978760980072
 40
0.740688034259961
  0
CIRCLE
  5
271
100
AcDbEntity
  8
0-0
100
AcDbCircle
  6
CONTINUOUS
370
13
 10
348.899079092467
 20
268.978760980072
 40
0.740688034259961
  0
CIRCLE
  5
272
100
AcDbEntity
  8
0-0
100
AcDbCircle
  6
CONTINUOUS
370
13
 10
330.859079092467
 20
266.980733385997
 40
1.55
  0
CIRCLE
  5
273
100
AcDbEntity
  8
0-0
100
AcDbCircle
  6
BYLAYER
370
13
 10
330.859079092467
 20
266.980733385998
 40
0.890000000000001
  0
CIRCLE
  5
274
100
AcDbEntity
  8
0-0
100
AcDbCircle
  6
BYLAYER
370
13
 10
330.859079092467
 20
266.980733385998
 40
1.15
  0
LWPOLYLINE
  5
275
100
AcDbEntity
  8
0-0
100
AcDbPolyline
  6
BYLAYER
370
13
 90
     6
 70
     1
 10
329.560040986791
  20
269.230733385998
 10
328.261002881114
  20
266.980733385998
 10
329.560040986791
  20
264.730733385998
 10
332.158117198144
  20
264.730733385998
 10
333.457155303821
  20
266.980733385998
 10
332.158117198144
  20
269.230733385998
  0
CIRCLE
  5
276
100
AcDbEntity
  8
0-0
100
AcDbCircle
  6
BYLAYER
370
13
 10
330.859079092467
 20
266.980733385998
 40
2.25
  0
CIRCLE
  5
277
100
AcDbEntity
  8
0-0
100
AcDbCircle
  6
BYLAYER
370
13
 10
355.859079092467
 20
266.980733385998
 40
0.890000000000001
  0
CIRCLE
  5
278
100
AcDbEntity
  8
0-0
100
AcDbCircle
  6
BYLAYER
370
13
 10
355.859079092467
 20
266.980733385998
 40
1.15
  0
LWPOLYLINE
  5
279
100
AcDbEntity
  8
0-0
100
AcDbPolyline
  6
BYLAYER
370
13
 90
     6
 70
     1
 10
354.560040986791
  20
269.230733385998
 10
353.261002881114
  20
266.980733385998
 10
354.560040986791
  20
264.730733385998
 10
357.158117198144
  20
264.730733385998
 10
358.457155303821
  20
266.980733385998
 10
357.158117198144
  20
269.230733385998
  0
CIRCLE
  5
27A
100
AcDbEntity
  8
0-0
100
AcDbCircle
  6
BYLAYER
370
13
 10
355.859079092467
 20
266.980733385998
 40
2.25
  0
CIRCLE
  5
27B
100
AcDbEntity
  8
0-0
100
AcDbCircle
  6
CONTINUOUS
370
13
 10
308.298630346373
 20
266.980733385997
 40
7
  0
CIRCLE
  5
27C
100
AcDbEntity
  8
0-0
100
AcDbCircle
  6
CONTINUOUS
370
13
 10
308.298630346373
 20
264.980733385997
 40
3.1
  0
CIRCLE
  5
27D
100
AcDbEntity
  8
0-0
100
AcDbCircle
  6
CONTINUOUS
370
13
 10
308.298630346373
 20
264.980733385997
 40
0.75
  0
CIRCLE
  5
27E
100
AcDbEntity
  8
0-0
100
AcDbCircle
  6
CONTINUOUS
370
13
 10
378.298630346373
 20
266.980733385997
 40
7.6
  0
CIRCLE
  5
27F
100
AcDbEntity
  8
0-0
100
AcDbCircle
  6
CONTINUOUS
370
13
 10
378.298630346373
 20
266.980733385997
 40
9.5
  0
CIRCLE
  5
280
100
AcDbEntity
  8
0-0
100
AcDbCircle
  6
CONTINUOUS
370
13
 10
378.298630346373
 20
266.980733385997
 40
6.55
  0
CIRCLE
  5
281
100
AcDbEntity
  8
0-0
100
AcDbCircle
  6
CONTINUOUS
370
13
 10
375.298630346373
 20
269.980733385997
 40
1
  0
CIRCLE
  5
282
100
AcDbEntity
  8
0-0
100
AcDbCircle
  6
CONTINUOUS
370
13
 10
375.298630346373
 20
263.980733385997
 40
1
  0
CIRCLE
  5
283
100
AcDbEntity
  8
0-0
100
AcDbCircle
  6
CONTINUOUS
370
13
 10
381.298630346373
 20
269.980733385997
 40
1
  0
CIRCLE
  5
284
100
AcDbEntity
  8
0-0
100
AcDbCircle
  6
CONTINUOUS
370
13
 10
381.298630346373
 20
263.980733385997
 40
1
  0
LINE
  5
285
100
AcDbEntity
  8
0-0
100
AcDbLine
  6
BYLAYER
370
13
 10
301.298630346373
 20
359.480733385999
 11
315.298630346373
 21
359.480733385999
  0
LINE
  5
286
100
AcDbEntity
  8
0-0
100
AcDbLine
  6
BYLAYER
370
13
 10
301.298630346373
 20
338.480733385999
 11
315.298630346373
 21
338.480733385999
  0
LINE
  5
287
100
AcDbEntity
  8
0-0
100
AcDbLine
  6
BYLAYER
370
13
 10
300.798630346373
 20
338.980733385999
 11
300.798630346373
 21
358.980733385999
  0
LINE
  5
288
100
AcDbEntity
  8
0-0
100
AcDbLine
  6
BYLAYER
370
13
 10
315.798630346373
 20
338.980733385999
 11
315.798630346373
 21
358.980733385999
  0
LINE
  5
289
100
AcDbEntity
  8
0-0
100
AcDbLine
  6
BYLAYER
370
13
 10
302.898666346374
 20
356.980733385999
 11
313.698532346374
 21
356.980733385999
  0
LINE
  5
28A
100
AcDbEntity
  8
0-0
100
AcDbLine
  6
BYLAYER
370
13
 10
302.898666346373
 20
340.980733385999
 11
313.698532346374
 21
340.980733385999
  0
LINE
  5
28B
100
AcDbEntity
  8
0-0
100
AcDbLine
  6
BYLAYER
370
13
 10
302.898666346373
 20
340.980733385999
 11
302.898666346374
 21
356.980733385999
  0
LINE
  5
28C
100
AcDbEntity
  8
0-0
100
AcDbLine
  6
BYLAYER
370
13
 10
313.698532346374
 20
340.980733385999
 11
313.698532346374
 21
356.980733385999
  0
LINE
  5
28D
100
AcDbEntity
  8
0-0
100
AcDbLine
  6
BYLAYER
370
13
 10
307.498581346374
 20
357.980733385999
 11
307.498581346374
 21
358.480733385999
  0
LINE
  5
28E
100
AcDbEntity
  8
0-0
100
AcDbLine
  6
BYLAYER
370
13
 10
309.098556346374
 20
357.980733385999
 11
309.098556346374
 21
358.480733385999
  0
LINE
  5
28F
100
AcDbEntity
  8
0-0
100
AcDbLine
  6
BYLAYER
370
13
 10
307.498581346374
 20
358.480733385999
 11
309.098556346374
 21
358.480733385999
  0
LINE
  5
290
100
AcDbEntity
  8
0-0
100
AcDbLine
  6
BYLAYER
370
13
 10
307.498581346374
 20
357.980733385999
 11
309.098556346374
 21
357.980733385999
  0
LINE
  5
291
100
AcDbEntity
  8
0-0
100
AcDbLine
  6
BYLAYER
370
13
 10
313.648666346374
 20
356.201802385999
 11
308.298569346373
 21
356.201802385999
  0
LINE
  5
292
100
AcDbEntity
  8
0-0
100
AcDbLine
  6
BYLAYER
370
13
 10
308.298569346373
 20
356.201802385999
 11
302.948532346374
 21
356.201802385999
  0
LINE
  5
293
100
AcDbEntity
  8
0-0
100
AcDbLine
  6
BYLAYER
370
13
 10
313.648666346373
 20
341.272725385999
 11
302.948532346374
 21
341.272725385999
  0
LINE
  5
294
100
AcDbEntity
  8
0-0
100
AcDbLine
  6
BYLAYER
370
13
 10
302.948532346374
 20
341.272725385999
 11
302.948532346374
 21
356.980733385999
  0
LINE
  5
295
100
AcDbEntity
  8
0-0
100
AcDbLine
  6
BYLAYER
370
13
 10
313.648666346373
 20
341.272725385999
 11
313.648666346374
 21
356.980733385999
  0
LINE
  5
296
100
AcDbEntity
  8
0-0
100
AcDbLine
  6
BYLAYER
370
13
 10
160.168514310895
 20
389.660076973396
 11
163.268489310895
 21
389.660076973396
  0
LINE
  5
297
100
AcDbEntity
  8
0-0
100
AcDbLine
  6
BYLAYER
370
13
 10
163.268489310895
 20
389.660076973396
 11
169.868587310895
 21
389.660076973396
  0
LINE
  5
298
100
AcDbEntity
  8
0-0
100
AcDbLine
  6
BYLAYER
370
13
 10
159.668514310895
 20
386.039165973396
 11
159.668514310895
 21
389.160076973396
  0
LINE
  5
299
100
AcDbEntity
  8
0-0
100
AcDbLine
  6
BYLAYER
370
13
 10
170.368587310895
 20
386.039165973396
 11
170.368587310895
 21
389.160076973396
  0
LINE
  5
29A
100
AcDbEntity
  8
0-0
100
AcDbLine
  6
BYLAYER
370
13
 10
158.093563310895
 20
386.039165973396
 11
171.942562310895
 21
386.039165973396
  0
LINE
  5
29B
100
AcDbEntity
  8
0-0
100
AcDbLine
  6
BYLAYER
370
13
 10
157.518489310895
 20
384.039165973396
 11
172.518489310895
 21
384.039165973396
  0
LINE
  5
29C
100
AcDbEntity
  8
0-0
100
AcDbLine
  6
BYLAYER
370
13
 10
172.441600310895
 20
385.564039973396
 11
172.518505310895
 21
384.039182973396
  0
LINE
  5
29D
100
AcDbEntity
  8
0-0
100
AcDbLine
  6
BYLAYER
370
13
 10
157.594535310895
 20
385.564057973396
 11
157.518486310895
 21
384.039158973396
  0
LINE
  5
29E
100
AcDbEntity
  8
0-0
100
AcDbLine
  6
BYLAYER
370
13
 10
414.754252729684
 20
162.791085979238
 11
414.754252729684
 21
142.942086979238
  0
LINE
  5
29F
100
AcDbEntity
  8
0-0
100
AcDbLine
  6
BYLAYER
370
13
 10
414.279121729684
 20
163.290118979238
 11
412.754222729684
 21
163.366168979238
  0
LINE
  5
2A0
100
AcDbEntity
  8
0-0
100
AcDbLine
  6
BYLAYER
370
13
 10
414.279171729685
 20
142.442056979238
 11
412.754265729684
 21
142.366128979238
  0
LINE
  5
2A1
100
AcDbEntity
  8
0-0
100
AcDbLine
  6
BYLAYER
370
13
 10
414.279121729684
 20
163.290118979238
 11
412.754222729684
 21
163.366168979238
  0
LINE
  5
2A2
100
AcDbEntity
  8
0-0
100
AcDbLine
  6
BYLAYER
370
13
 10
414.754252729684
 20
162.791085979238
 11
414.754252729684
 21
160.229073979238
  0
LINE
  5
2A3
100
AcDbEntity
  8
0-0
100
AcDbLine
  6
BYLAYER
370
13
 10
418.050995729685
 20
147.843059979238
 11
416.593405729685
 21
146.709141979238
  0
CIRCLE
  5
2A4
100
AcDbEntity
  8
0-0
100
AcDbCircle
  6
BYLAYER
370
13
 10
308.298569346373
 20
339.730733385999
 40
0.75
  0
ARC
  5
2A5
100
AcDbEntity
  8
0-0
100
AcDbCircle
  6
BYLAYER
370
13
 10
301.298630346373
 20
358.980733385999
 40
0.5
100
AcDbArc
 50
90
 51
180.000003
  0
ARC
  5
2A6
100
AcDbEntity
  8
0-0
100
AcDbCircle
  6
BYLAYER
370
13
 10
301.298630346373
 20
338.980733385999
 40
0.5
100
AcDbArc
 50
180.000003
 51
270.000005
  0
ARC
  5
2A7
100
AcDbEntity
  8
0-0
100
AcDbCircle
  6
BYLAYER
370
13
 10
315.298630346373
 20
338.980733385999
 40
0.5
100
AcDbArc
 50
270.000009
 51
359.999997
  0
ARC
  5
2A8
100
AcDbEntity
  8
0-0
100
AcDbCircle
  6
BYLAYER
370
13
 10
315.298630346373
 20
358.980733385999
 40
0.5
100
AcDbArc
 50
359.999997
 51
450
  0
ARC
  5
2A9
100
AcDbEntity
  8
0-0
100
AcDbCircle
  6
BYLAYER
370
13
 10
160.168514310895
 20
389.160076973396
 40
0.5
100
AcDbArc
 50
90.000003
 51
180.000005
  0
ARC
  5
2AA
100
AcDbEntity
  8
0-0
100
AcDbCircle
  6
BYLAYER
370
13
 10
169.868587310895
 20
389.160076973396
 40
0.5
100
AcDbArc
 50
0
 51
90.000003
  0
ARC
  5
2AB
100
AcDbEntity
  8
0-0
100
AcDbCircle
  6
BYLAYER
370
13
 10
171.942562310895
 20
385.539165973396
 40
0.5
100
AcDbArc
 50
2.862367
 51
90.000003
  0
ARC
  5
2AC
100
AcDbEntity
  8
0-0
100
AcDbCircle
  6
BYLAYER
370
13
 10
158.093563310895
 20
385.539165973396
 40
0.5
100
AcDbArc
 50
90.000003
 51
177.137609
  0
ARC
  5
2AD
100
AcDbEntity
  8
0-0
100
AcDbCircle
  6
BYLAYER
370
13
 10
414.254252729684
 20
142.942086979238
 40
0.5
100
AcDbArc
 50
272.862417
 51
360.000003
  0
ARC
  5
2AE
100
AcDbEntity
  8
0-0
100
AcDbCircle
  6
BYLAYER
370
13
 10
414.254252729684
 20
162.791085979238
 40
0.5
100
AcDbArc
 50
3.00000001186201E-6
 51
87.137609
  0
ARC
  5
2AF
100
AcDbEntity
  8
0-0
100
AcDbCircle
  6
BYLAYER
370
13
 10
414.254252729684
 20
162.791085979238
 40
0.5
100
AcDbArc
 50
3.00000001186201E-6
 51
87.138197
  0
ARC
  5
2B0
100
AcDbEntity
  8
0-0
100
AcDbCircle
  6
BYLAYER
370
13
 10
433.678507729685
 20
159.973092979238
 40
19
100
AcDbArc
 50
185.115693
 51
215.479613
  0
ARC
  5
2B1
100
AcDbEntity
  8
0-0
100
AcDbCircle
  6
BYLAYER
370
13
 10
417.559733729685
 20
148.475167979238
 40
0.8
100
AcDbArc
 50
307.877412
 51
395.503893
  0
ARC
  5
2B2
100
AcDbEntity
  8
0-0
100
AcDbCircle
  6
BYLAYER
370
13
 10
411.804240729685
 20
152.866158979238
 40
7.8
100
AcDbArc
 50
292.222639
 51
307.937961
  0
CIRCLE
  5
2B3
100
AcDbEntity
  8
0-0
100
AcDbCircle
  6
BYLAYER
 62
1
370
13
 10
90.0184893108949
 20
63.6661589792382
 40
3.1
  0
CIRCLE
  5
2B4
100
AcDbEntity
  8
0-0
100
AcDbCircle
  6
BYLAYER
370
13
 10
90.0184893108949
 20
63.6661589792382
 40
4
  0
CIRCLE
  5
2B5
100
AcDbEntity
  8
0-0
100
AcDbCircle
  6
BYLAYER
370
13
 10
90.0184893108949
 20
63.6661589792382
 40
2.80000000000001
  0
CIRCLE
  5
2B6
100
AcDbEntity
  8
0-0
100
AcDbCircle
  6
BYLAYER
370
13
 10
90.0184893108949
 20
63.6661589792382
 40
1.75
  0
CIRCLE
  5
2B7
100
AcDbEntity
  8
0-0
100
AcDbCircle
  6
CONTINUOUS
370
13
 10
90.0184893108949
 20
63.6661589792382
 40
3.1
  0
CIRCLE
  5
2B8
100
AcDbEntity
  8
0-0
100
AcDbCircle
  6
BYLAYER
370
13
 10
90.0184893108949
 20
63.6661589792381
 40
1.75
  0
LWPOLYLINE
  5
2B9
100
AcDbEntity
  8
0-0
100
AcDbPolyline
  6
BYLAYER
370
13
 90
     6
 70
     1
 10
93.7969616640749
  20
61.2346946903758
 10
94.0134353300341
  20
65.722679880158
 10
90.2349629768542
  20
68.1541441690204
 10
86.2400169577145
  20
66.0976232681004
 10
86.0235432917553
  20
61.6096380783182
 10
89.8020156449352
  20
59.178173789456
  0
CIRCLE
  5
2BA
100
AcDbEntity
  8
0-0
100
AcDbCircle
  6
CONTINUOUS
370
13
 10
90.0184893108949
 20
63.6661589792381
 40
2.75
  0
CIRCLE
  5
2BB
100
AcDbEntity
  8
0-0
100
AcDbCircle
  6
CONTINUOUS
370
13
 10
90.0184893108949
 20
63.6661589792382
 40
3.1
  0
LINE
  5
2BC
100
AcDbEntity
  8
0-0
100
AcDbLine
  6
BYLAYER
370
13
 10
86.0184893108949
 20
252.539165973396
 11
94.0184893108949
 21
252.539165973396
  0
LINE
  5
2BD
100
AcDbEntity
  8
0-0
100
AcDbLine
  6
BYLAYER
370
13
 10
86.0184893108949
 20
254.039165973396
 11
94.0184893108949
 21
254.039165973396
  0
LINE
  5
2BE
100
AcDbEntity
  8
0-0
100
AcDbLine
  6
BYLAYER
370
13
 10
87.0184893108949
 20
250.739165973396
 11
93.0184893108949
 21
250.739165973396
  0
LINE
  5
2BF
100
AcDbEntity
  8
0-0
100
AcDbLine
  6
BYLAYER
370
13
 10
87.218489310895
 20
250.739165973396
 11
87.218489310895
 21
252.539165973396
  0
LINE
  5
2C0
100
AcDbEntity
  8
0-0
100
AcDbLine
  6
BYLAYER
370
13
 10
87.0184893108949
 20
250.739165973396
 11
87.0184893108949
 21
252.539165973396
  0
LINE
  5
2C1
100
AcDbEntity
  8
0-0
100
AcDbLine
  6
BYLAYER
370
13
 10
86.0184893108949
 20
254.039165973396
 11
86.0184893108949
 21
252.539165973396
  0
LINE
  5
2C2
100
AcDbEntity
  8
0-0
100
AcDbLine
  6
BYLAYER
370
13
 10
281.254252729684
 20
59.6661589792383
 11
281.254252729684
 21
67.6661589792381
  0
LINE
  5
2C3
100
AcDbEntity
  8
0-0
100
AcDbLine
  6
BYLAYER
370
13
 10
282.754252729684
 20
59.6661589792383
 11
282.754252729684
 21
67.6661589792381
  0
LINE
  5
2C4
100
AcDbEntity
  8
0-0
100
AcDbLine
  6
BYLAYER
370
13
 10
279.454252729684
 20
60.6661589792383
 11
279.454252729685
 21
66.6661589792381
  0
LINE
  5
2C5
100
AcDbEntity
  8
0-0
100
AcDbLine
  6
BYLAYER
370
13
 10
279.454252729684
 20
66.466158979238
 11
281.254252729684
 21
66.466158979238
  0
LINE
  5
2C6
100
AcDbEntity
  8
0-0
100
AcDbLine
  6
BYLAYER
370
13
 10
279.454252729684
 20
66.6661589792381
 11
281.254252729684
 21
66.6661589792381
  0
LINE
  5
2C7
100
AcDbEntity
  8
0-0
100
AcDbLine
  6
BYLAYER
370
13
 10
282.754252729684
 20
67.6661589792381
 11
281.254252729684
 21
67.6661589792381
  0
LINE
  5
2C8
100
AcDbEntity
  8
0-0
100
AcDbLine
  6
BYLAYER
370
13
 10
279.454252729684
 20
60.8661589792381
 11
281.254252729684
 21
60.8661589792381
  0
LINE
  5
2C9
100
AcDbEntity
  8
0-0
100
AcDbLine
  6
BYLAYER
370
13
 10
279.454252729684
 20
60.6661589792381
 11
281.254252729684
 21
60.6661589792381
  0
LINE
  5
2CA
100
AcDbEntity
  8
0-0
100
AcDbLine
  6
BYLAYER
370
13
 10
282.754252729684
 20
59.6661589792383
 11
281.254252729684
 21
59.6661589792383
  0
LINE
  5
2CB
100
AcDbEntity
  8
0-0
100
AcDbLine
  6
CONTINUOUS
370
13
 10
88.6184893108946
 20
345.539165973396
 11
123.618489310895
 21
345.539165973396
  0
LINE
  5
2CC
100
AcDbEntity
  8
0-0
100
AcDbLine
  6
CONTINUOUS
370
13
 10
88.6184893108952
 20
334.539165973396
 11
123.618489310895
 21
334.539165973396
  0
LINE
  5
2CD
100
AcDbEntity
  8
0-0
100
AcDbLine
  6
CONTINUOUS
370
13
 10
88.6184893108952
 20
334.539165973396
 11
88.6184893108946
 21
345.539165973396
  0
LINE
  5
2CE
100
AcDbEntity
  8
0-0
100
AcDbLine
  6
CONTINUOUS
370
13
 10
123.618489310895
 20
334.539165973396
 11
123.618489310895
 21
345.539165973396
  0
CIRCLE
  5
2CF
100
AcDbEntity
  8
0-0
100
AcDbCircle
  6
CONTINUOUS
370
13
 10
95.018489310895
 20
324.039165973396
 40
3
  0
CIRCLE
  5
2D0
100
AcDbEntity
  8
0-0
100
AcDbCircle
  6
CONTINUOUS
370
13
 10
117.018489310895
 20
324.039165973396
 40
3
  0
LWPOLYLINE
  5
2D1
100
AcDbEntity
  8
0-0
100
AcDbPolyline
  6
CONTINUOUS
370
13
 90
     4
 70
     1
 10
171.018489310895
  20
330.039165973396
 10
159.018489310895
  20
330.039165973396
 10
159.018489310895
  20
318.039165973396
 10
171.018489310895
  20
318.039165973396
  0
LWPOLYLINE
  5
2D2
100
AcDbEntity
  8
0-0
100
AcDbPolyline
  6
CONTINUOUS
370
13
 90
     4
 70
     1
 10
171.018489310895
  20
314.039165973396
 10
159.018489310895
  20
314.039165973396
 10
159.018489310895
  20
302.039165973396
 10
171.018489310895
  20
302.039165973396
  0
LINE
  5
2D3
100
AcDbEntity
  8
0-0
100
AcDbLine
  6
CONTINUOUS
370
13
 10
159.018489310895
 20
185.163492136414
 11
159.018489310895
 21
183.663492136415
  0
LINE
  5
2D4
100
AcDbEntity
  8
0-0
100
AcDbLine
  6
CONTINUOUS
370
13
 10
171.018489310895
 20
185.163492136414
 11
171.018489310895
 21
183.663492136415
  0
LINE
  5
2D5
100
AcDbEntity
  8
0-0
100
AcDbLine
  6
CONTINUOUS
370
13
 10
159.018489310895
 20
185.163492136414
 11
171.018489310895
 21
185.163492136414
  0
LINE
  5
2D6
100
AcDbEntity
  8
0-0
100
AcDbLine
  6
CONTINUOUS
370
13
 10
92.018489310895
 20
184.963492136414
 11
92.018489310895
 21
183.663492136415
  0
LINE
  5
2D7
100
AcDbEntity
  8
0-0
100
AcDbLine
  6
CONTINUOUS
370
13
 10
114.018489310895
 20
184.963492136414
 11
114.018489310895
 21
183.663492136415
  0
LINE
  5
2D8
100
AcDbEntity
  8
0-0
100
AcDbLine
  6
CONTINUOUS
370
13
 10
120.018489310895
 20
184.963492136414
 11
120.018489310895
 21
183.663492136415
  0
LINE
  5
2D9
100
AcDbEntity
  8
0-0
100
AcDbLine
  6
CONTINUOUS
370
13
 10
98.018489310895
 20
184.963492136414
 11
98.018489310895
 21
183.663492136415
  0
LINE
  5
2DA
100
AcDbEntity
  8
0-0
100
AcDbLine
  6
CONTINUOUS
370
13
 10
120.018489310895
 20
184.963492136414
 11
114.018489310895
 21
184.963492136414
  0
LINE
  5
2DB
100
AcDbEntity
  8
0-0
100
AcDbLine
  6
CONTINUOUS
370
13
 10
98.018489310895
 20
184.963492136414
 11
92.018489310895
 21
184.963492136414
  0
LINE
  5
2DC
100
AcDbEntity
  8
0-0
100
AcDbLine
  6
CONTINUOUS
370
13
 10
330.754252729684
 20
185.163492136414
 11
330.754252729684
 21
183.663492136414
  0
LINE
  5
2DD
100
AcDbEntity
  8
0-0
100
AcDbLine
  6
CONTINUOUS
370
13
 10
342.754252729684
 20
185.163492136414
 11
342.754252729684
 21
183.663492136414
  0
LINE
  5
2DE
100
AcDbEntity
  8
0-0
100
AcDbLine
  6
CONTINUOUS
370
13
 10
346.754252729684
 20
185.163492136414
 11
346.754252729684
 21
183.663492136414
  0
LINE
  5
2DF
100
AcDbEntity
  8
0-0
100
AcDbLine
  6
CONTINUOUS
370
13
 10
358.754252729684
 20
185.163492136414
 11
358.754252729684
 21
183.663492136414
  0
LINE
  5
2E0
100
AcDbEntity
  8
0-0
100
AcDbLine
  6
CONTINUOUS
370
13
 10
346.754252729684
 20
185.163492136414
 11
358.754252729684
 21
185.163492136414
  0
LINE
  5
2E1
100
AcDbEntity
  8
0-0
100
AcDbLine
  6
CONTINUOUS
370
13
 10
330.754252729684
 20
185.163492136414
 11
342.754252729684
 21
185.163492136414
  0
LINE
  5
2E2
100
AcDbEntity
  8
0-0
100
AcDbLine
  6
CONTINUOUS
370
13
 10
77.0184893108949
 20
182.463492136415
 11
77.0184893108949
 21
52.866158979238
  0
CIRCLE
  5
2E3
100
AcDbEntity
  8
0-0
100
AcDbCircle
  6
CONTINUOUS
370
13
 10
85.018489310895
 20
340.039165973396
 40
1.5
  0
LINE
  5
2E4
100
AcDbEntity
  8
0-0
100
AcDbLine
  6
CONTINUOUS
370
13
 10
170.373431310895
 20
272.254165973396
 11
159.593523310895
 21
272.254165973396
  0
LINE
  5
2E5
100
AcDbEntity
  8
0-0
100
AcDbLine
  6
CONTINUOUS
370
13
 10
170.973431310895
 20
261.424165973396
 11
170.973431310895
 21
271.654165973396
  0
LINE
  5
2E6
100
AcDbEntity
  8
0-0
100
AcDbLine
  6
CONTINUOUS
370
13
 10
159.593523310895
 20
260.824165973396
 11
170.373431310895
 21
260.824165973396
  0
LINE
  5
2E7
100
AcDbEntity
  8
0-0
100
AcDbLine
  6
CONTINUOUS
370
13
 10
158.993523310895
 20
271.654165973396
 11
158.993523310895
 21
261.424165973396
  0
LINE
  5
2E8
100
AcDbEntity
  8
0-0
100
AcDbLine
  6
CONTINUOUS
370
13
 10
163.654919310895
 20
272.254165973396
 11
163.654919310895
 21
260.824165973396
  0
LINE
  5
2E9
100
AcDbEntity
  8
0-0
100
AcDbLine
  6
CONTINUOUS
370
13
 10
167.965683310895
 20
272.254165973396
 11
167.965683310895
 21
260.824165973396
  0
LINE
  5
2EA
100
AcDbEntity
  8
0-0
100
AcDbLine
  6
CONTINUOUS
370
13
 10
170.453976310895
 20
272.254165973396
 11
170.453976310895
 21
260.824165973396
  0
LINE
  5
2EB
100
AcDbEntity
  8
0-0
100
AcDbLine
  6
CONTINUOUS
370
13
 10
158.464826310895
 20
260.939165973396
 11
159.240288310895
 21
260.939165973396
  0
LINE
  5
2EC
100
AcDbEntity
  8
0-0
100
AcDbLine
  6
CONTINUOUS
370
13
 10
170.726666310895
 20
260.939165973396
 11
171.572152310895
 21
260.939165973396
  0
LINE
  5
2ED
100
AcDbEntity
  8
0-0
100
AcDbLine
  6
CONTINUOUS
370
13
 10
170.726666310895
 20
272.139165973396
 11
171.572152310895
 21
272.139165973396
  0
LINE
  5
2EE
100
AcDbEntity
  8
0-0
100
AcDbLine
  6
CONTINUOUS
370
13
 10
158.464826310895
 20
272.139165973396
 11
159.240288310895
 21
272.139165973396
  0
LINE
  5
2EF
100
AcDbEntity
  8
0-0
100
AcDbLine
  6
CONTINUOUS
370
13
 10
158.464826310895
 20
260.439165973396
 11
158.464826310895
 21
272.639165973396
  0
LINE
  5
2F0
100
AcDbEntity
  8
0-0
100
AcDbLine
  6
CONTINUOUS
370
13
 10
171.572152310895
 20
260.439165973396
 11
171.572152310895
 21
272.639165973396
  0
LINE
  5
2F1
100
AcDbEntity
  8
0-0
100
AcDbLine
  6
CONTINUOUS
370
13
 10
169.018489310895
 20
260.789165973396
 11
169.018489310895
 21
260.439165973396
  0
LINE
  5
2F2
100
AcDbEntity
  8
0-0
100
AcDbLine
  6
CONTINUOUS
370
13
 10
168.018489310895
 20
260.789165973396
 11
168.018489310895
 21
260.439165973396
  0
LINE
  5
2F3
100
AcDbEntity
  8
0-0
100
AcDbLine
  6
CONTINUOUS
370
13
 10
161.018489310895
 20
260.439165973396
 11
161.018489310895
 21
260.789165973396
  0
LINE
  5
2F4
100
AcDbEntity
  8
0-0
100
AcDbLine
  6
CONTINUOUS
370
13
 10
162.018489310895
 20
260.439165973396
 11
162.018489310895
 21
260.789165973396
  0
LINE
  5
2F5
100
AcDbEntity
  8
0-0
100
AcDbLine
  6
CONTINUOUS
370
13
 10
162.018489310895
 20
260.439165973396
 11
162.018489310895
 21
260.789165973396
  0
LINE
  5
2F6
100
AcDbEntity
  8
0-0
100
AcDbLine
  6
CONTINUOUS
370
13
 10
168.018489310895
 20
272.639165973396
 11
168.018489310895
 21
272.289165973396
  0
LINE
  5
2F7
100
AcDbEntity
  8
0-0
100
AcDbLine
  6
CONTINUOUS
370
13
 10
169.018489310895
 20
272.639165973396
 11
169.018489310895
 21
272.289165973396
  0
LINE
  5
2F8
100
AcDbEntity
  8
0-0
100
AcDbLine
  6
CONTINUOUS
370
13
 10
162.018489310895
 20
272.639165973396
 11
171.522152310895
 21
272.639165973396
  0
LINE
  5
2F9
100
AcDbEntity
  8
0-0
100
AcDbLine
  6
CONTINUOUS
370
13
 10
162.018489310895
 20
272.289165973396
 11
162.018489310895
 21
272.639165973396
  0
LINE
  5
2FA
100
AcDbEntity
  8
0-0
100
AcDbLine
  6
CONTINUOUS
370
13
 10
161.018489310895
 20
272.639165973396
 11
162.018489310895
 21
272.639165973396
  0
LINE
  5
2FB
100
AcDbEntity
  8
0-0
100
AcDbLine
  6
CONTINUOUS
370
13
 10
161.018489310895
 20
272.289165973396
 11
161.018489310895
 21
272.639165973396
  0
LINE
  5
2FC
100
AcDbEntity
  8
0-0
100
AcDbLine
  6
CONTINUOUS
370
13
 10
171.522152310895
 20
272.639165973396
 11
173.618489310895
 21
272.639165973396
  0
LINE
  5
2FD
100
AcDbEntity
  8
0-0
100
AcDbLine
  6
CONTINUOUS
370
13
 10
171.522152310895
 20
260.439165973396
 11
158.514826310895
 21
260.439165973396
  0
LINE
  5
2FE
100
AcDbEntity
  8
0-0
100
AcDbLine
  6
CONTINUOUS
370
13
 10
158.514826310895
 20
272.639165973396
 11
161.018489310895
 21
272.639165973396
  0
LINE
  5
2FF
100
AcDbEntity
  8
0-0
100
AcDbLine
  6
CONTINUOUS
370
13
 10
158.514826310895
 20
260.439165973396
 11
156.418489310895
 21
260.439165973396
  0
LINE
  5
300
100
AcDbEntity
  8
0-0
100
AcDbLine
  6
CONTINUOUS
370
13
 10
173.618489310895
 20
260.439165973396
 11
171.522152310895
 21
260.439165973396
  0
LINE
  5
301
100
AcDbEntity
  8
0-0
100
AcDbLine
  6
CONTINUOUS
370
13
 10
174.018489310895
 20
272.239165973396
 11
174.018489310895
 21
260.839165973396
  0
LINE
  5
302
100
AcDbEntity
  8
0-0
100
AcDbLine
  6
CONTINUOUS
370
13
 10
156.418489310895
 20
272.639165973396
 11
158.514826310895
 21
272.639165973396
  0
LINE
  5
303
100
AcDbEntity
  8
0-0
100
AcDbLine
  6
CONTINUOUS
370
13
 10
156.018489310895
 20
260.839165973396
 11
156.018489310895
 21
272.239165973396
  0
ARC
  5
304
100
AcDbEntity
  8
0-0
100
AcDbCircle
  6
CONTINUOUS
370
13
 10
159.593523310895
 20
261.424165973396
 40
0.6
100
AcDbArc
 50
180
 51
270
  0
ARC
  5
305
100
AcDbEntity
  8
0-0
100
AcDbCircle
  6
CONTINUOUS
370
13
 10
170.373431310895
 20
261.424165973396
 40
0.6
100
AcDbArc
 50
270
 51
360
  0
ARC
  5
306
100
AcDbEntity
  8
0-0
100
AcDbCircle
  6
CONTINUOUS
370
13
 10
170.373431310895
 20
271.654165973396
 40
0.6
100
AcDbArc
 50
360
 51
450
  0
ARC
  5
307
100
AcDbEntity
  8
0-0
100
AcDbCircle
  6
CONTINUOUS
370
13
 10
159.593523310895
 20
271.654165973396
 40
0.6
100
AcDbArc
 50
90
 51
180
  0
ARC
  5
308
100
AcDbEntity
  8
0-0
100
AcDbCircle
  6
CONTINUOUS
370
13
 10
173.618489310895
 20
260.839165973396
 40
0.4
100
AcDbArc
 50
270
 51
360
  0
ARC
  5
309
100
AcDbEntity
  8
0-0
100
AcDbCircle
  6
CONTINUOUS
370
13
 10
173.618489310895
 20
272.239165973396
 40
0.4
100
AcDbArc
 50
360
 51
450
  0
ARC
  5
30A
100
AcDbEntity
  8
0-0
100
AcDbCircle
  6
CONTINUOUS
370
13
 10
156.418489310895
 20
272.239165973396
 40
0.4
100
AcDbArc
 50
90
 51
180
  0
ARC
  5
30B
100
AcDbEntity
  8
0-0
100
AcDbCircle
  6
CONTINUOUS
370
13
 10
156.418489310895
 20
260.839165973396
 40
0.4
100
AcDbArc
 50
180
 51
270
  0
LINE
  5
30C
100
AcDbEntity
  8
0-0
100
AcDbLine
  6
CONTINUOUS
370
13
 10
183.018489310895
 20
384.039165973396
 11
77.018489310895
 21
384.039165973396
  0
LINE
  5
30D
100
AcDbEntity
  8
0-0
100
AcDbLine
  6
CONTINUOUS
370
13
 10
290.298630346373
 20
378.578066543174
 11
290.298630346373
 21
248.980733385997
  0
LINE
  5
30E
100
AcDbEntity
  8
0-0
100
AcDbLine
  6
CONTINUOUS
370
13
 10
396.298630346373
 20
248.980733385997
 11
396.298630346373
 21
378.578066543174
  0
LINE
  5
30F
100
AcDbEntity
  8
0-0
100
AcDbLine
  6
CONTINUOUS
370
13
 10
352.548630346373
 20
271.680733385997
 11
334.048630346373
 21
271.680733385997
  0
LINE
  5
310
100
AcDbEntity
  8
0-0
100
AcDbLine
  6
CONTINUOUS
370
13
 10
352.548630346373
 20
262.280733385997
 11
334.048630346373
 21
262.280733385997
  0
LINE
  5
311
100
AcDbEntity
  8
0-0
100
AcDbLine
  6
CONTINUOUS
370
13
 10
334.048630346373
 20
271.680733385997
 11
334.048630346373
 21
266.273147403539
  0
LINE
  5
312
100
AcDbEntity
  8
0-0
100
AcDbLine
  6
CONTINUOUS
370
13
 10
334.048630346373
 20
266.273147403539
 11
334.048630346373
 21
262.280733385997
  0
LINE
  5
313
100
AcDbEntity
  8
0-0
100
AcDbLine
  6
CONTINUOUS
370
13
 10
352.548630346373
 20
271.680733385997
 11
352.548630346373
 21
266.482548002516
  0
LINE
  5
314
100
AcDbEntity
  8
0-0
100
AcDbLine
  6
CONTINUOUS
370
13
 10
352.548630346373
 20
266.482548002516
 11
352.548630346373
 21
262.280733385997
  0
ARC
  5
315
100
AcDbEntity
  8
0-0
100
AcDbCircle
  6
BYLAYER
370
13
 10
304.594752729684
 20
55.825658979238
 40
1.653
100
AcDbArc
 50
90.0009086878458
 51
179.999091312156
  0
ARC
  5
316
100
AcDbEntity
  8
0-0
100
AcDbCircle
  6
BYLAYER
370
13
 10
304.594752729684
 20
59.5066589792379
 40
1.653
100
AcDbArc
 50
180.000908687844
 51
269.999091312154
  0
ARC
  5
317
100
AcDbEntity
  8
0-0
100
AcDbCircle
  6
BYLAYER
370
13
 10
302.754252729684
 20
57.666158979238
 40
1.85
100
AcDbArc
 50
264.183007389975
 51
270
  0
ARC
  5
318
100
AcDbEntity
  8
0-0
100
AcDbCircle
  6
BYLAYER
370
13
 10
302.754252729684
 20
57.666158979238
 40
1.85
100
AcDbArc
 50
270
 51
275.816992610025
  0
ARC
  5
319
100
AcDbEntity
  8
0-0
100
AcDbCircle
  6
BYLAYER
370
13
 10
302.754252729684
 20
57.666158979238
 40
1.85
100
AcDbArc
 50
90
 51
95.8169926100252
  0
ARC
  5
31A
100
AcDbEntity
  8
0-0
100
AcDbCircle
  6
BYLAYER
370
13
 10
302.754252729684
 20
57.666158979238
 40
1.85
100
AcDbArc
 50
84.1830073899748
 51
90
  0
ARC
  5
31B
100
AcDbEntity
  8
0-0
100
AcDbCircle
  6
BYLAYER
370
13
 10
302.754252729684
 20
57.666158979238
 40
1.85
100
AcDbArc
 50
180
 51
185.816992610024
  0
ARC
  5
31C
100
AcDbEntity
  8
0-0
100
AcDbCircle
  6
BYLAYER
370
13
 10
302.754252729684
 20
57.666158979238
 40
1.85
100
AcDbArc
 50
174.183007389976
 51
180
  0
ARC
  5
31D
100
AcDbEntity
  8
0-0
100
AcDbCircle
  6
BYLAYER
370
13
 10
300.913752729684
 20
55.825658979238
 40
1.653
100
AcDbArc
 50
0.0009086878442255
 51
89.9990913121542
  0
ARC
  5
31E
100
AcDbEntity
  8
0-0
100
AcDbCircle
  6
BYLAYER
370
13
 10
300.913752729684
 20
59.5066589792379
 40
1.653
100
AcDbArc
 50
270.000908687846
 51
359.999091312156
  0
ARC
  5
31F
100
AcDbEntity
  8
0-0
100
AcDbCircle
  6
BYLAYER
370
13
 10
302.754252729684
 20
57.666158979238
 40
1.85
100
AcDbArc
 50
0
 51
5.81699261002353
  0
ARC
  5
320
100
AcDbEntity
  8
0-0
100
AcDbCircle
  6
BYLAYER
370
13
 10
302.754252729684
 20
57.666158979238
 40
1.85
100
AcDbArc
 50
354.183007389976
 51
0
  0
ARC
  5
321
100
AcDbEntity
  8
0-0
100
AcDbCircle
  6
BYLAYER
370
13
 10
394.594752729684
 20
55.825658979238
 40
1.653
100
AcDbArc
 50
90.0009086878458
 51
179.999091312156
  0
ARC
  5
322
100
AcDbEntity
  8
0-0
100
AcDbCircle
  6
BYLAYER
370
13
 10
394.594752729684
 20
59.5066589792379
 40
1.653
100
AcDbArc
 50
180.000908687844
 51
269.999091312154
  0
ARC
  5
323
100
AcDbEntity
  8
0-0
100
AcDbCircle
  6
BYLAYER
370
13
 10
392.754252729684
 20
57.666158979238
 40
1.85
100
AcDbArc
 50
264.183007389975
 51
270
  0
ARC
  5
324
100
AcDbEntity
  8
0-0
100
AcDbCircle
  6
BYLAYER
370
13
 10
392.754252729684
 20
57.666158979238
 40
1.85
100
AcDbArc
 50
270
 51
275.816992610025
  0
ARC
  5
325
100
AcDbEntity
  8
0-0
100
AcDbCircle
  6
BYLAYER
370
13
 10
392.754252729684
 20
57.666158979238
 40
1.85
100
AcDbArc
 50
90
 51
95.8169926100252
  0
ARC
  5
326
100
AcDbEntity
  8
0-0
100
AcDbCircle
  6
BYLAYER
370
13
 10
392.754252729684
 20
57.666158979238
 40
1.85
100
AcDbArc
 50
84.1830073899748
 51
90
  0
ARC
  5
327
100
AcDbEntity
  8
0-0
100
AcDbCircle
  6
BYLAYER
370
13
 10
392.754252729684
 20
57.666158979238
 40
1.85
100
AcDbArc
 50
180
 51
185.816992610024
  0
ARC
  5
328
100
AcDbEntity
  8
0-0
100
AcDbCircle
  6
BYLAYER
370
13
 10
392.754252729684
 20
57.666158979238
 40
1.85
100
AcDbArc
 50
174.183007389976
 51
180
  0
ARC
  5
329
100
AcDbEntity
  8
0-0
100
AcDbCircle
  6
BYLAYER
370
13
 10
390.913752729684
 20
55.825658979238
 40
1.653
100
AcDbArc
 50
0.0009086878442255
 51
89.9990913121542
  0
ARC
  5
32A
100
AcDbEntity
  8
0-0
100
AcDbCircle
  6
BYLAYER
370
13
 10
390.913752729684
 20
59.5066589792379
 40
1.653
100
AcDbArc
 50
270.000908687846
 51
359.999091312156
  0
ARC
  5
32B
100
AcDbEntity
  8
0-0
100
AcDbCircle
  6
BYLAYER
370
13
 10
392.754252729684
 20
57.666158979238
 40
1.85
100
AcDbArc
 50
0
 51
5.81699261002353
  0
ARC
  5
32C
100
AcDbEntity
  8
0-0
100
AcDbCircle
  6
BYLAYER
370
13
 10
392.754252729684
 20
57.666158979238
 40
1.85
100
AcDbArc
 50
354.183007389976
 51
0
  0
ARC
  5
32D
100
AcDbEntity
  8
0-0
100
AcDbCircle
  6
BYLAYER
370
13
 10
408.594752729684
 20
115.825658979238
 40
1.653
100
AcDbArc
 50
90.0009086878458
 51
179.999091312156
  0
ARC
  5
32E
100
AcDbEntity
  8
0-0
100
AcDbCircle
  6
BYLAYER
370
13
 10
408.594752729684
 20
119.506658979238
 40
1.653
100
AcDbArc
 50
180.000908687844
 51
269.999091312154
  0
ARC
  5
32F
100
AcDbEntity
  8
0-0
100
AcDbCircle
  6
BYLAYER
370
13
 10
406.754252729684
 20
117.666158979238
 40
1.85
100
AcDbArc
 50
264.183007389975
 51
270
  0
ARC
  5
330
100
AcDbEntity
  8
0-0
100
AcDbCircle
  6
BYLAYER
370
13
 10
406.754252729684
 20
117.666158979238
 40
1.85
100
AcDbArc
 50
270
 51
275.816992610025
  0
ARC
  5
331
100
AcDbEntity
  8
0-0
100
AcDbCircle
  6
BYLAYER
370
13
 10
406.754252729684
 20
117.666158979238
 40
1.85
100
AcDbArc
 50
90
 51
95.8169926100252
  0
ARC
  5
332
100
AcDbEntity
  8
0-0
100
AcDbCircle
  6
BYLAYER
370
13
 10
406.754252729684
 20
117.666158979238
 40
1.85
100
AcDbArc
 50
84.1830073899748
 51
90
  0
ARC
  5
333
100
AcDbEntity
  8
0-0
100
AcDbCircle
  6
BYLAYER
370
13
 10
406.754252729684
 20
117.666158979238
 40
1.85
100
AcDbArc
 50
180
 51
185.816992610024
  0
ARC
  5
334
100
AcDbEntity
  8
0-0
100
AcDbCircle
  6
BYLAYER
370
13
 10
406.754252729684
 20
117.666158979238
 40
1.85
100
AcDbArc
 50
174.183007389976
 51
180
  0
ARC
  5
335
100
AcDbEntity
  8
0-0
100
AcDbCircle
  6
BYLAYER
370
13
 10
404.913752729684
 20
115.825658979238
 40
1.653
100
AcDbArc
 50
0.0009086878442255
 51
89.9990913121542
  0
ARC
  5
336
100
AcDbEntity
  8
0-0
100
AcDbCircle
  6
BYLAYER
370
13
 10
404.913752729684
 20
119.506658979238
 40
1.653
100
AcDbArc
 50
270.000908687846
 51
359.999091312156
  0
ARC
  5
337
100
AcDbEntity
  8
0-0
100
AcDbCircle
  6
BYLAYER
370
13
 10
406.754252729684
 20
117.666158979238
 40
1.85
100
AcDbArc
 50
0
 51
5.81699261002353
  0
ARC
  5
338
100
AcDbEntity
  8
0-0
100
AcDbCircle
  6
BYLAYER
370
13
 10
406.754252729684
 20
117.666158979238
 40
1.85
100
AcDbArc
 50
354.183007389976
 51
0
  0
ARC
  5
339
100
AcDbEntity
  8
0-0
100
AcDbCircle
  6
BYLAYER
370
13
 10
394.594752729684
 20
175.822992136414
 40
1.653
100
AcDbArc
 50
90.0009086878458
 51
179.999091312156
  0
ARC
  5
33A
100
AcDbEntity
  8
0-0
100
AcDbCircle
  6
BYLAYER
370
13
 10
394.594752729684
 20
179.503992136414
 40
1.653
100
AcDbArc
 50
180.000908687844
 51
269.999091312154
  0
ARC
  5
33B
100
AcDbEntity
  8
0-0
100
AcDbCircle
  6
BYLAYER
370
13
 10
392.754252729684
 20
177.663492136414
 40
1.85
100
AcDbArc
 50
264.183007389975
 51
270
  0
ARC
  5
33C
100
AcDbEntity
  8
0-0
100
AcDbCircle
  6
BYLAYER
370
13
 10
392.754252729684
 20
177.663492136414
 40
1.85
100
AcDbArc
 50
270
 51
275.816992610025
  0
ARC
  5
33D
100
AcDbEntity
  8
0-0
100
AcDbCircle
  6
BYLAYER
370
13
 10
392.754252729684
 20
177.663492136414
 40
1.85
100
AcDbArc
 50
90
 51
95.8169926100252
  0
ARC
  5
33E
100
AcDbEntity
  8
0-0
100
AcDbCircle
  6
BYLAYER
370
13
 10
392.754252729684
 20
177.663492136414
 40
1.85
100
AcDbArc
 50
84.1830073899748
 51
90
  0
ARC
  5
33F
100
AcDbEntity
  8
0-0
100
AcDbCircle
  6
BYLAYER
370
13
 10
392.754252729684
 20
177.663492136414
 40
1.85
100
AcDbArc
 50
180
 51
185.816992610024
  0
ARC
  5
340
100
AcDbEntity
  8
0-0
100
AcDbCircle
  6
BYLAYER
370
13
 10
392.754252729684
 20
177.663492136414
 40
1.85
100
AcDbArc
 50
174.183007389976
 51
180
  0
ARC
  5
341
100
AcDbEntity
  8
0-0
100
AcDbCircle
  6
BYLAYER
370
13
 10
390.913752729684
 20
175.822992136414
 40
1.653
100
AcDbArc
 50
0.0009086878442255
 51
89.9990913121542
  0
ARC
  5
342
100
AcDbEntity
  8
0-0
100
AcDbCircle
  6
BYLAYER
370
13
 10
390.913752729684
 20
179.503992136414
 40
1.653
100
AcDbArc
 50
270.000908687846
 51
359.999091312156
  0
ARC
  5
343
100
AcDbEntity
  8
0-0
100
AcDbCircle
  6
BYLAYER
370
13
 10
392.754252729684
 20
177.663492136414
 40
1.85
100
AcDbArc
 50
0
 51
5.81699261002353
  0
ARC
  5
344
100
AcDbEntity
  8
0-0
100
AcDbCircle
  6
BYLAYER
370
13
 10
392.754252729684
 20
177.663492136414
 40
1.85
100
AcDbArc
 50
354.183007389976
 51
0
  0
ARC
  5
345
100
AcDbEntity
  8
0-0
100
AcDbCircle
  6
BYLAYER
370
13
 10
319.594752729684
 20
175.822992136414
 40
1.653
100
AcDbArc
 50
90.0009086878458
 51
179.999091312156
  0
ARC
  5
346
100
AcDbEntity
  8
0-0
100
AcDbCircle
  6
BYLAYER
370
13
 10
319.594752729684
 20
179.503992136414
 40
1.653
100
AcDbArc
 50
180.000908687844
 51
269.999091312154
  0
ARC
  5
347
100
AcDbEntity
  8
0-0
100
AcDbCircle
  6
BYLAYER
370
13
 10
317.754252729684
 20
177.663492136414
 40
1.85
100
AcDbArc
 50
264.183007389975
 51
270
  0
ARC
  5
348
100
AcDbEntity
  8
0-0
100
AcDbCircle
  6
BYLAYER
370
13
 10
317.754252729684
 20
177.663492136414
 40
1.85
100
AcDbArc
 50
270
 51
275.816992610025
  0
ARC
  5
349
100
AcDbEntity
  8
0-0
100
AcDbCircle
  6
BYLAYER
370
13
 10
317.754252729684
 20
177.663492136414
 40
1.85
100
AcDbArc
 50
90
 51
95.8169926100252
  0
ARC
  5
34A
100
AcDbEntity
  8
0-0
100
AcDbCircle
  6
BYLAYER
370
13
 10
317.754252729684
 20
177.663492136414
 40
1.85
100
AcDbArc
 50
84.1830073899748
 51
90
  0
ARC
  5
34B
100
AcDbEntity
  8
0-0
100
AcDbCircle
  6
BYLAYER
370
13
 10
317.754252729684
 20
177.663492136414
 40
1.85
100
AcDbArc
 50
180
 51
185.816992610024
  0
ARC
  5
34C
100
AcDbEntity
  8
0-0
100
AcDbCircle
  6
BYLAYER
370
13
 10
317.754252729684
 20
177.663492136414
 40
1.85
100
AcDbArc
 50
174.183007389976
 51
180
  0
ARC
  5
34D
100
AcDbEntity
  8
0-0
100
AcDbCircle
  6
BYLAYER
370
13
 10
315.913752729684
 20
175.822992136414
 40
1.653
100
AcDbArc
 50
0.0009086878442255
 51
89.9990913121542
  0
ARC
  5
34E
100
AcDbEntity
  8
0-0
100
AcDbCircle
  6
BYLAYER
370
13
 10
315.913752729684
 20
179.503992136414
 40
1.653
100
AcDbArc
 50
270.000908687846
 51
359.999091312156
  0
ARC
  5
34F
100
AcDbEntity
  8
0-0
100
AcDbCircle
  6
BYLAYER
370
13
 10
317.754252729684
 20
177.663492136414
 40
1.85
100
AcDbArc
 50
0
 51
5.81699261002353
  0
ARC
  5
350
100
AcDbEntity
  8
0-0
100
AcDbCircle
  6
BYLAYER
370
13
 10
317.754252729684
 20
177.663492136414
 40
1.85
100
AcDbArc
 50
354.183007389976
 51
0
  0
ARC
  5
351
100
AcDbEntity
  8
0-0
100
AcDbCircle
  6
BYLAYER
370
13
 10
161.858989310895
 20
376.198665973396
 40
1.653
100
AcDbArc
 50
90.0009086878458
 51
179.999091312156
  0
ARC
  5
352
100
AcDbEntity
  8
0-0
100
AcDbCircle
  6
BYLAYER
370
13
 10
161.858989310895
 20
379.879665973396
 40
1.653
100
AcDbArc
 50
180.000908687844
 51
269.999091312154
  0
ARC
  5
353
100
AcDbEntity
  8
0-0
100
AcDbCircle
  6
BYLAYER
370
13
 10
160.018489310895
 20
378.039165973396
 40
1.85
100
AcDbArc
 50
264.183007389975
 51
270
  0
ARC
  5
354
100
AcDbEntity
  8
0-0
100
AcDbCircle
  6
BYLAYER
370
13
 10
160.018489310895
 20
378.039165973396
 40
1.85
100
AcDbArc
 50
270
 51
275.816992610025
  0
ARC
  5
355
100
AcDbEntity
  8
0-0
100
AcDbCircle
  6
BYLAYER
370
13
 10
160.018489310895
 20
378.039165973396
 40
1.85
100
AcDbArc
 50
90
 51
95.8169926100252
  0
ARC
  5
356
100
AcDbEntity
  8
0-0
100
AcDbCircle
  6
BYLAYER
370
13
 10
160.018489310895
 20
378.039165973396
 40
1.85
100
AcDbArc
 50
84.1830073899748
 51
90
  0
ARC
  5
357
100
AcDbEntity
  8
0-0
100
AcDbCircle
  6
BYLAYER
370
13
 10
160.018489310895
 20
378.039165973396
 40
1.85
100
AcDbArc
 50
180
 51
185.816992610024
  0
ARC
  5
358
100
AcDbEntity
  8
0-0
100
AcDbCircle
  6
BYLAYER
370
13
 10
160.018489310895
 20
378.039165973396
 40
1.85
100
AcDbArc
 50
174.183007389976
 51
180
  0
ARC
  5
359
100
AcDbEntity
  8
0-0
100
AcDbCircle
  6
BYLAYER
370
13
 10
158.177989310895
 20
376.198665973396
 40
1.653
100
AcDbArc
 50
0.0009086878442255
 51
89.9990913121542
  0
ARC
  5
35A
100
AcDbEntity
  8
0-0
100
AcDbCircle
  6
BYLAYER
370
13
 10
158.177989310895
 20
379.879665973396
 40
1.653
100
AcDbArc
 50
270.000908687846
 51
359.999091312156
  0
ARC
  5
35B
100
AcDbEntity
  8
0-0
100
AcDbCircle
  6
BYLAYER
370
13
 10
160.018489310895
 20
378.039165973396
 40
1.85
100
AcDbArc
 50
0
 51
5.81699261002353
  0
ARC
  5
35C
100
AcDbEntity
  8
0-0
100
AcDbCircle
  6
BYLAYER
370
13
 10
160.018489310895
 20
378.039165973396
 40
1.85
100
AcDbArc
 50
354.183007389976
 51
0
  0
ARC
  5
35D
100
AcDbEntity
  8
0-0
100
AcDbCircle
  6
BYLAYER
370
13
 10
101.858989310895
 20
376.198665973396
 40
1.653
100
AcDbArc
 50
90.0009086878458
 51
179.999091312156
  0
ARC
  5
35E
100
AcDbEntity
  8
0-0
100
AcDbCircle
  6
BYLAYER
370
13
 10
101.858989310895
 20
379.879665973396
 40
1.653
100
AcDbArc
 50
180.000908687844
 51
269.999091312154
  0
ARC
  5
35F
100
AcDbEntity
  8
0-0
100
AcDbCircle
  6
BYLAYER
370
13
 10
100.018489310895
 20
378.039165973396
 40
1.85
100
AcDbArc
 50
264.183007389975
 51
270
  0
ARC
  5
360
100
AcDbEntity
  8
0-0
100
AcDbCircle
  6
BYLAYER
370
13
 10
100.018489310895
 20
378.039165973396
 40
1.85
100
AcDbArc
 50
270
 51
275.816992610025
  0
ARC
  5
361
100
AcDbEntity
  8
0-0
100
AcDbCircle
  6
BYLAYER
370
13
 10
100.018489310895
 20
378.039165973396
 40
1.85
100
AcDbArc
 50
90
 51
95.8169926100252
  0
ARC
  5
362
100
AcDbEntity
  8
0-0
100
AcDbCircle
  6
BYLAYER
370
13
 10
100.018489310895
 20
378.039165973396
 40
1.85
100
AcDbArc
 50
84.1830073899748
 51
90
  0
ARC
  5
363
100
AcDbEntity
  8
0-0
100
AcDbCircle
  6
BYLAYER
370
13
 10
100.018489310895
 20
378.039165973396
 40
1.85
100
AcDbArc
 50
180
 51
185.816992610024
  0
ARC
  5
364
100
AcDbEntity
  8
0-0
100
AcDbCircle
  6
BYLAYER
370
13
 10
100.018489310895
 20
378.039165973396
 40
1.85
100
AcDbArc
 50
174.183007389976
 51
180
  0
ARC
  5
365
100
AcDbEntity
  8
0-0
100
AcDbCircle
  6
BYLAYER
370
13
 10
98.177989310895
 20
376.198665973396
 40
1.653
100
AcDbArc
 50
0.0009086878442255
 51
89.9990913121542
  0
ARC
  5
366
100
AcDbEntity
  8
0-0
100
AcDbCircle
  6
BYLAYER
370
13
 10
98.177989310895
 20
379.879665973396
 40
1.653
100
AcDbArc
 50
270.000908687846
 51
359.999091312156
  0
ARC
  5
367
100
AcDbEntity
  8
0-0
100
AcDbCircle
  6
BYLAYER
370
13
 10
100.018489310895
 20
378.039165973396
 40
1.85
100
AcDbArc
 50
0
 51
5.81699261002353
  0
ARC
  5
368
100
AcDbEntity
  8
0-0
100
AcDbCircle
  6
BYLAYER
370
13
 10
100.018489310895
 20
378.039165973396
 40
1.85
100
AcDbArc
 50
354.183007389976
 51
0
  0
LINE
  5
369
100
AcDbEntity
  8
0-0
100
AcDbLine
  6
CONTINUOUS
370
13
 10
75.8184893108949
 20
50.4134921364146
 11
75.8184893108949
 21
30.2973962531583
  0
LINE
  5
36A
100
AcDbEntity
  8
0-0
100
AcDbLine
  6
CONTINUOUS
370
13
 10
75.8184893108949
 20
30.7973962531583
 11
184.218489310895
 21
30.7973962531583
  0
LINE
  5
36B
100
AcDbEntity
  8
0-0
100
AcDbLine
  6
CONTINUOUS
370
13
 10
75.8184893108949
 20
30.7973962531583
 11
78.7162667897621
 21
31.5738533884659
  0
LINE
  5
36C
100
AcDbEntity
  8
0-0
100
AcDbLine
  6
CONTINUOUS
370
13
 10
75.8184893108949
 20
30.7973962531583
 11
78.7162667897621
 21
30.0209391178508
  0
LINE
  5
36D
100
AcDbEntity
  8
0-0
100
AcDbLine
  6
CONTINUOUS
370
13
 10
184.218489310895
 20
30.7973962531583
 11
181.320711832028
 21
30.0209391178508
  0
LINE
  5
36E
100
AcDbEntity
  8
0-0
100
AcDbLine
  6
CONTINUOUS
370
13
 10
184.218489310895
 20
30.7973962531583
 11
181.320711832028
 21
31.5738533884659
  0
TEXT
  5
36F
100
AcDbEntity
  8
0-0
100
AcDbText
  6
CONTINUOUS
 10
122.518489310895
 20
31.0473962531583
 40
6
  1
108.4
  7
Font_0
 72
1
 11
130.018489310895
 21
31.0473962531583
100
AcDbText
  0
LINE
  5
370
100
AcDbEntity
  8
0-0
100
AcDbLine
  6
CONTINUOUS
370
13
 10
184.218489310895
 20
50.4134921364146
 11
184.218489310895
 21
30.2973962531583
  0
LINE
  5
371
100
AcDbEntity
  8
0-0
100
AcDbLine
  6
CONTINUOUS
370
13
 10
75.5684893108949
 20
183.663492136415
 11
51.4565555449296
 21
183.663492136415
  0
LINE
  5
372
100
AcDbEntity
  8
0-0
100
AcDbLine
  6
CONTINUOUS
370
13
 10
51.9565555449296
 20
183.663492136415
 11
51.9565555449296
 21
50.6634921364146
  0
LINE
  5
373
100
AcDbEntity
  8
0-0
100
AcDbLine
  6
CONTINUOUS
370
13
 10
51.9565555449296
 20
183.663492136415
 11
52.7330126802372
 21
180.765714657547
  0
LINE
  5
374
100
AcDbEntity
  8
0-0
100
AcDbLine
  6
CONTINUOUS
370
13
 10
51.9565555449296
 20
183.663492136415
 11
51.1800984096221
 21
180.765714657547
  0
LINE
  5
375
100
AcDbEntity
  8
0-0
100
AcDbLine
  6
CONTINUOUS
370
13
 10
51.9565555449296
 20
50.6634921364146
 11
51.1800984096221
 21
53.5612696152818
  0
LINE
  5
376
100
AcDbEntity
  8
0-0
100
AcDbLine
  6
CONTINUOUS
370
13
 10
51.9565555449296
 20
50.6634921364146
 11
52.7330126802372
 21
53.5612696152818
  0
TEXT
  5
377
100
AcDbEntity
  8
0-0
100
AcDbText
  6
CONTINUOUS
 10
51.7065555449296
 20
112.663492136415
 40
6
  1
133
  7
Font_0
 50
90
 72
1
 11
51.7065555449296
 21
117.163492136415
100
AcDbText
  0
LINE
  5
378
100
AcDbEntity
  8
0-0
100
AcDbLine
  6
CONTINUOUS
370
13
 10
75.5684893108949
 20
50.6634921364146
 11
51.4565555449296
 21
50.6634921364146
  0
LINE
  5
379
100
AcDbEntity
  8
0-0
100
AcDbLine
  6
CONTINUOUS
370
13
 10
81.0184893108949
 20
46.166158979238
 11
51.4565555449296
 21
46.166158979238
  0
LINE
  5
37A
100
AcDbEntity
  8
0-0
100
AcDbLine
  6
CONTINUOUS
370
13
 10
51.9565555449296
 20
46.166158979238
 11
51.9565555449296
 21
50.6634921364146
  0
LINE
  5
37B
100
AcDbEntity
  8
0-0
100
AcDbLine
  6
CONTINUOUS
370
13
 10
51.9565555449296
 20
46.166158979238
 11
52.7330126802372
 21
43.2683815003708
  0
LINE
  5
37C
100
AcDbEntity
  8
0-0
100
AcDbLine
  6
CONTINUOUS
370
13
 10
51.9565555449296
 20
46.166158979238
 11
51.1800984096221
 21
43.2683815003708
  0
LINE
  5
37D
100
AcDbEntity
  8
0-0
100
AcDbLine
  6
CONTINUOUS
370
13
 10
51.9565555449296
 20
50.6634921364146
 11
51.1800984096221
 21
53.5612696152818
  0
LINE
  5
37E
100
AcDbEntity
  8
0-0
100
AcDbLine
  6
CONTINUOUS
370
13
 10
51.9565555449296
 20
50.6634921364146
 11
52.7330126802372
 21
53.5612696152818
  0
TEXT
  5
37F
100
AcDbEntity
  8
0-0
100
AcDbText
  6
CONTINUOUS
 10
51.7065555449296
 20
43.9148255578263
 40
6
  1
4.5
  7
Font_0
 50
90
 72
1
 11
51.7065555449296
 21
48.4148255578263
100
AcDbText
  0
LINE
  5
380
100
AcDbEntity
  8
0-0
100
AcDbLine
  6
CONTINUOUS
370
13
 10
66.6550068518798
 20
50.6634921364146
 11
51.4565555449296
 21
50.6634921364146
  0
LINE
  5
381
100
AcDbEntity
  8
0-0
100
AcDbLine
  6
CONTINUOUS
370
13
 10
75.568489310895
 20
254.039165973396
 11
51.4565555449296
 21
254.039165973396
  0
LINE
  5
382
100
AcDbEntity
  8
0-0
100
AcDbLine
  6
CONTINUOUS
370
13
 10
51.9565555449296
 20
254.039165973396
 11
51.9565555449296
 21
384.039165973396
  0
LINE
  5
383
100
AcDbEntity
  8
0-0
100
AcDbLine
  6
CONTINUOUS
370
13
 10
51.9565555449296
 20
254.039165973396
 11
51.1800984096221
 21
256.936943452263
  0
LINE
  5
384
100
AcDbEntity
  8
0-0
100
AcDbLine
  6
CONTINUOUS
370
13
 10
51.9565555449296
 20
254.039165973396
 11
52.7330126802372
 21
256.936943452263
  0
LINE
  5
385
100
AcDbEntity
  8
0-0
100
AcDbLine
  6
CONTINUOUS
370
13
 10
51.9565555449296
 20
384.039165973396
 11
52.7330126802372
 21
381.141388494529
  0
LINE
  5
386
100
AcDbEntity
  8
0-0
100
AcDbLine
  6
CONTINUOUS
370
13
 10
51.9565555449296
 20
384.039165973396
 11
51.1800984096221
 21
381.141388494529
  0
TEXT
  5
387
100
AcDbEntity
  8
0-0
100
AcDbText
  6
CONTINUOUS
 10
51.7065555449296
 20
314.539165973396
 40
6
  1
130
  7
Font_0
 50
90
 72
1
 11
51.7065555449296
 21
319.039165973396
100
AcDbText
  0
LINE
  5
388
100
AcDbEntity
  8
0-0
100
AcDbLine
  6
CONTINUOUS
370
13
 10
75.568489310895
 20
384.039165973396
 11
51.4565555449296
 21
384.039165973396
  0
TEXT
  5
389
100
AcDbEntity
  8
0-0
100
AcDbText
  6
CONTINUOUS
 10
302.263078325373
 20
276.460610930201
 40
3
  1
□ DC24V
  7
Font_0
 50
360
 11
302.263078325373
 21
279.460610930201
100
AcDbText
 73
3
  0
TEXT
  5
38A
100
AcDbEntity
  8
0-0
100
AcDbText
  6
CONTINUOUS
 10
337.923314332709
 20
276.460610930201
 40
3
  1
RS-232C
  7
Font_0
 50
360
 11
337.923314332709
 21
279.460610930201
100
AcDbText
 73
3
  0
TEXT
  5
38B
100
AcDbEntity
  8
0-0
100
AcDbText
  6
CONTINUOUS
 10
373.788584096048
 20
276.460610930201
 40
3
  1
Ｒ．Ｃ
  7
Font_0
 50
360
 11
373.788584096048
 21
279.460610930201
100
AcDbText
 73
3
  0
TEXT
  5
38C
100
AcDbEntity
  8
0-0
100
AcDbText
  6
CONTINUOUS
 10
304.666349524539
 20
362.307190351525
 40
3
  1
POWER
  7
Font_0
 50
360
 11
304.666349524539
 21
365.307190351525
100
AcDbText
 73
3
  0
LINE
  5
38D
100
AcDbEntity
  8
0-0
100
AcDbLine
  6
CONTINUOUS
370
13
 10
96.4809157081435
 20
317.175993450329
 11
96.4809157081435
 21
316.532617777355
  0
LINE
  5
38E
100
AcDbEntity
  8
0-0
100
AcDbLine
  6
CONTINUOUS
370
13
 10
96.4809157081435
 20
314.932617777355
 11
96.4809157081435
 21
314.28924210438
  0
LINE
  5
38F
100
AcDbEntity
  8
0-0
100
AcDbLine
  6
CONTINUOUS
370
13
 10
98.9809157081435
 20
315.732617777355
 11
96.4809157081435
 21
314.28924210438
  0
LINE
  5
390
100
AcDbEntity
  8
0-0
100
AcDbLine
  6
CONTINUOUS
370
13
 10
98.9809157081435
 20
315.732617777355
 11
96.4809157081435
 21
317.175993450329
  0
LINE
  5
391
100
AcDbEntity
  8
0-0
100
AcDbLine
  6
CONTINUOUS
370
13
 10
115.281620780942
 20
316.451592128885
 11
115.924996453916
 21
316.451592128885
  0
LINE
  5
392
100
AcDbEntity
  8
0-0
100
AcDbLine
  6
CONTINUOUS
370
13
 10
117.524996453916
 20
316.451592128885
 11
118.16837212689
 21
316.451592128885
  0
LINE
  5
393
100
AcDbEntity
  8
0-0
100
AcDbLine
  6
CONTINUOUS
370
13
 10
116.724996453916
 20
318.951592128885
 11
118.16837212689
 21
316.451592128885
  0
LINE
  5
394
100
AcDbEntity
  8
0-0
100
AcDbLine
  6
CONTINUOUS
370
13
 10
116.724996453916
 20
318.951592128885
 11
115.281620780942
 21
316.451592128885
  0
LINE
  5
395
100
AcDbEntity
  8
0-0
100
AcDbLine
  6
CONTINUOUS
370
13
 10
115.924996453916
 20
316.451592128885
 11
115.924996453916
 21
315.451592128885
  0
LINE
  5
396
100
AcDbEntity
  8
0-0
100
AcDbLine
  6
CONTINUOUS
370
13
 10
117.524996453916
 20
316.451592128885
 11
117.524996453916
 21
315.451592128885
  0
LINE
  5
397
100
AcDbEntity
  8
0-0
100
AcDbLine
  6
CONTINUOUS
370
13
 10
93.4809157081435
 20
316.532617777355
 11
93.4809157081435
 21
314.932617777355
  0
LINE
  5
398
100
AcDbEntity
  8
0-0
100
AcDbLine
  6
CONTINUOUS
370
13
 10
93.1809157081436
 20
316.532617777355
 11
93.1809157081436
 21
314.932617777355
  0
LINE
  5
399
100
AcDbEntity
  8
0-0
100
AcDbLine
  6
CONTINUOUS
370
13
 10
92.1809157081436
 20
316.532617777355
 11
92.1809157081436
 21
314.932617777355
  0
LINE
  5
39A
100
AcDbEntity
  8
0-0
100
AcDbLine
  6
CONTINUOUS
370
13
 10
91.8809157081436
 20
316.532617777355
 11
91.8809157081436
 21
314.932617777355
  0
LINE
  5
39B
100
AcDbEntity
  8
0-0
100
AcDbLine
  6
CONTINUOUS
370
13
 10
96.4809157081435
 20
314.932617777355
 11
93.4809157081435
 21
314.932617777355
  0
LINE
  5
39C
100
AcDbEntity
  8
0-0
100
AcDbLine
  6
CONTINUOUS
370
13
 10
96.4809157081435
 20
316.532617777355
 11
93.4809157081435
 21
316.532617777355
  0
LINE
  5
39D
100
AcDbEntity
  8
0-0
100
AcDbLine
  6
CONTINUOUS
370
13
 10
93.1809157081436
 20
316.532617777355
 11
92.1809157081436
 21
316.532617777355
  0
LINE
  5
39E
100
AcDbEntity
  8
0-0
100
AcDbLine
  6
CONTINUOUS
370
13
 10
93.1809157081436
 20
314.932617777355
 11
92.1809157081436
 21
314.932617777355
  0
LINE
  5
39F
100
AcDbEntity
  8
0-0
100
AcDbLine
  6
CONTINUOUS
370
13
 10
90.7809157081437
 20
316.532617777355
 11
90.7809157081437
 21
314.932617777355
  0
LINE
  5
3A0
100
AcDbEntity
  8
0-0
100
AcDbLine
  6
CONTINUOUS
370
13
 10
91.8809157081436
 20
316.532617777355
 11
91.2809157081437
 21
316.532617777355
  0
LINE
  5
3A1
100
AcDbEntity
  8
0-0
100
AcDbLine
  6
CONTINUOUS
370
13
 10
90.9809157081435
 20
316.532617777355
 11
90.7809157081437
 21
316.532617777355
  0
LINE
  5
3A2
100
AcDbEntity
  8
0-0
100
AcDbLine
  6
CONTINUOUS
370
13
 10
91.8809157081436
 20
314.932617777355
 11
91.2809157081437
 21
314.932617777355
  0
LINE
  5
3A3
100
AcDbEntity
  8
0-0
100
AcDbLine
  6
CONTINUOUS
370
13
 10
90.9809157081435
 20
314.932617777355
 11
90.7809157081437
 21
314.932617777355
  0
LINE
  5
3A4
100
AcDbEntity
  8
0-0
100
AcDbLine
  6
CONTINUOUS
370
13
 10
90.9809157081435
 20
316.532617777355
 11
90.9809157081435
 21
314.932617777355
  0
LINE
  5
3A5
100
AcDbEntity
  8
0-0
100
AcDbLine
  6
CONTINUOUS
370
13
 10
91.2809157081437
 20
316.532617777355
 11
91.2809157081437
 21
314.932617777355
  0
LINE
  5
3A6
100
AcDbEntity
  8
0-0
100
AcDbLine
  6
CONTINUOUS
370
13
 10
115.924996453916
 20
315.151592128885
 11
117.524996453916
 21
315.151592128885
  0
LINE
  5
3A7
100
AcDbEntity
  8
0-0
100
AcDbLine
  6
CONTINUOUS
370
13
 10
115.924996453916
 20
314.151592128885
 11
117.524996453916
 21
314.151592128885
  0
LINE
  5
3A8
100
AcDbEntity
  8
0-0
100
AcDbLine
  6
CONTINUOUS
370
13
 10
115.924996453916
 20
313.851592128885
 11
117.524996453916
 21
313.851592128885
  0
LINE
  5
3A9
100
AcDbEntity
  8
0-0
100
AcDbLine
  6
CONTINUOUS
370
13
 10
115.924996453916
 20
315.151592128885
 11
115.924996453916
 21
314.151592128885
  0
LINE
  5
3AA
100
AcDbEntity
  8
0-0
100
AcDbLine
  6
CONTINUOUS
370
13
 10
117.524996453916
 20
315.151592128885
 11
117.524996453916
 21
314.151592128885
  0
LINE
  5
3AB
100
AcDbEntity
  8
0-0
100
AcDbLine
  6
CONTINUOUS
370
13
 10
115.924996453916
 20
312.751592128885
 11
117.524996453916
 21
312.751592128885
  0
LINE
  5
3AC
100
AcDbEntity
  8
0-0
100
AcDbLine
  6
CONTINUOUS
370
13
 10
115.924996453916
 20
313.851592128885
 11
115.924996453916
 21
313.251592128885
  0
LINE
  5
3AD
100
AcDbEntity
  8
0-0
100
AcDbLine
  6
CONTINUOUS
370
13
 10
115.924996453916
 20
312.951592128885
 11
115.924996453916
 21
312.751592128885
  0
LINE
  5
3AE
100
AcDbEntity
  8
0-0
100
AcDbLine
  6
CONTINUOUS
370
13
 10
117.524996453916
 20
313.851592128885
 11
117.524996453916
 21
313.251592128885
  0
LINE
  5
3AF
100
AcDbEntity
  8
0-0
100
AcDbLine
  6
CONTINUOUS
370
13
 10
117.524996453916
 20
312.951592128885
 11
117.524996453916
 21
312.751592128885
  0
LINE
  5
3B0
100
AcDbEntity
  8
0-0
100
AcDbLine
  6
CONTINUOUS
370
13
 10
115.924996453916
 20
312.951592128885
 11
117.524996453916
 21
312.951592128885
  0
LINE
  5
3B1
100
AcDbEntity
  8
0-0
100
AcDbLine
  6
CONTINUOUS
370
13
 10
115.924996453916
 20
313.251592128885
 11
117.524996453916
 21
313.251592128885
  0
LINE
  5
3B2
100
AcDbEntity
  8
0-0
100
AcDbLine
  6
CONTINUOUS
370
13
 10
115.924996453916
 20
315.451592128885
 11
117.524996453916
 21
315.451592128885
  0
LINE
  5
3B3
100
AcDbEntity
  8
0-0
100
AcDbLine
  6
CONTINUOUS
 62
250
370
13
 10
116.724996453916
 20
311.204926116224
 11
116.724996453916
 21
311.204926116224
  0
TEXT
  5
3B4
100
AcDbEntity
  8
0-0
100
AcDbText
  6
CONTINUOUS
 10
85.7385299571306
 20
69.5038059755435
 40
3
  1
Ｒ．Ｃ
  7
Font_0
 50
360
 11
85.7385299571306
 21
72.5038059755435
100
AcDbText
 73
3
  0
TEXT
  5
3B5
100
AcDbEntity
  8
0-0
100
AcDbText
  6
CONTINUOUS
 10
148.15781906403
 20
321.182446918741
 40
5
  1
MODE
  7
Font_0
 11
148.15781906403
 21
326.182446918741
100
AcDbText
 73
3
  0
TEXT
  5
3B6
100
AcDbEntity
  8
0-0
100
AcDbText
  6
CONTINUOUS
 10
148.438711557902
 20
307.497375978228
 40
4
  1
START
  7
Font_0
 11
148.438711557902
 21
311.497375978228
100
AcDbText
 73
3
  0
TEXT
  5
3B7
100
AcDbEntity
  8
0-0
100
AcDbText
  6
CONTINUOUS
 10
149.590338962197
 20
303.0672032585
 40
4
  1
STOP
  7
Font_0
 11
149.590338962197
 21
307.0672032585
100
AcDbText
 73
3
  0
TEXT
  5
3B8
100
AcDbEntity
  8
0-0
100
AcDbText
  6
CONTINUOUS
 10
132.646519487957
 20
343.354724375533
 40
3.5
  1
TIMER/COUNTER
  7
Font_0
 11
132.646519487957
 21
346.854724375533
100
AcDbText
 73
3
  0
TEXT
  5
3B9
100
AcDbEntity
  8
0-0
100
AcDbText
  6
CONTINUOUS
 10
132.684911642257
 20
338.402136470798
 40
3.5
  1
R.P.M
  7
Font_0
 11
132.684911642257
 21
341.902136470798
100
AcDbText
 73
3
  0
TEXT
  5
3BA
100
AcDbEntity
  8
0-0
100
AcDbText
  6
CONTINUOUS
 10
132.684911642257
 20
333.189345210373
 40
3.5
  1
V.TIMER/COUNTER
  7
Font_0
 11
132.684911642257
 21
336.689345210373
100
AcDbText
 73
3
  0
TEXT
  5
3BB
100
AcDbEntity
  8
0-0
100
AcDbText
  6
CONTINUOUS
 10
132.470851483409
 20
348.154107090771
 40
3.5
  1
CLOCKWISE
  7
Font_0
 11
132.470851483409
 21
351.654107090771
100
AcDbText
 73
3
  0
TEXT
  5
3BC
100
AcDbEntity
  8
0-0
100
AcDbText
  6
CONTINUOUS
 10
170.451230420311
 20
255.425754280591
 40
3.5
  1
CW
  7
Font_0
 11
170.451230420311
 21
258.925754280591
100
AcDbText
 73
3
  0
TEXT
  5
3BD
100
AcDbEntity
  8
0-0
100
AcDbText
  6
CONTINUOUS
 10
155.834295895769
 20
255.425754280591
 40
3.5
  1
CCW
  7
Font_0
 11
155.834295895769
 21
258.925754280591
100
AcDbText
 73
3
  0
TEXT
  5
3BE
100
AcDbEntity
  8
0-0
100
AcDbText
  6
CONTINUOUS
 10
372.986314273436
 20
267.220092216479
 40
2.5
  1
1
  7
Font_0
 11
372.986314273436
 21
269.720092216479
100
AcDbText
 73
3
  0
TEXT
  5
3BF
100
AcDbEntity
  8
0-0
100
AcDbText
  6
CONTINUOUS
 10
373.101490736337
 20
264.187112026756
 40
2.5
  1
2
  7
Font_0
 11
373.101490736337
 21
266.687112026756
100
AcDbText
 73
3
  0
TEXT
  5
3C0
100
AcDbEntity
  8
0-0
100
AcDbText
  6
CONTINUOUS
 10
379.324987800262
 20
264.079871698414
 40
2.5
  1
3
  7
Font_0
 11
379.324987800262
 21
266.579871698414
100
AcDbText
 73
3
  0
TEXT
  5
3C1
100
AcDbEntity
  8
0-0
100
AcDbText
  6
CONTINUOUS
 10
379.198690497799
 20
267.196005606744
 40
2.5
  1
4
  7
Font_0
 11
379.198690497799
 21
269.696005606744
100
AcDbText
 73
3
  0
LINE
  5
3C2
100
AcDbEntity
  8
0-0
100
AcDbLine
  6
CONTINUOUS
370
13
 10
174.018489310895
 20
266.539165973396
 11
203.816817559998
 21
242.742250609303
  0
LINE
  5
3C3
100
AcDbEntity
  8
0-0
100
AcDbLine
  6
CONTINUOUS
370
13
 10
174.018489310895
 20
266.539165973396
 11
176.76735044872
 21
265.337599310679
  0
LINE
  5
3C4
100
AcDbEntity
  8
0-0
100
AcDbLine
  6
CONTINUOUS
370
13
 10
174.018489310895
 20
266.539165973396
 11
175.798289556369
 21
264.12414815023
  0
TEXT
  5
3C5
100
AcDbEntity
  8
0-0
100
AcDbText
  6
CONTINUOUS
 10
204.816817559998
 20
242.742250609303
 40
6
  1
回転方向切替SW
  7
Font_0
100
AcDbText
  0
LINE
  5
3C6
100
AcDbEntity
  8
0-0
100
AcDbLine
  6
CONTINUOUS
370
13
 10
203.816817559998
 20
242.742250609303
 11
246.816817559998
 21
242.742250609303
  0
LINE
  5
3C7
100
AcDbEntity
  8
0-0
100
AcDbLine
  6
CONTINUOUS
370
13
 10
171.018489310895
 20
308.039165973396
 11
203.998457674886
 21
283.672392756999
  0
LINE
  5
3C8
100
AcDbEntity
  8
0-0
100
AcDbLine
  6
CONTINUOUS
370
13
 10
171.018489310895
 20
308.039165973396
 11
173.810541370148
 21
306.94169374212
  0
LINE
  5
3C9
100
AcDbEntity
  8
0-0
100
AcDbLine
  6
CONTINUOUS
370
13
 10
171.018489310895
 20
308.039165973396
 11
172.887741207258
 21
305.692701111536
  0
TEXT
  5
3CA
100
AcDbEntity
  8
0-0
100
AcDbText
  6
CONTINUOUS
 10
204.998457674886
 20
283.672392756999
 40
6
  1
起動・停止SW
  7
Font_0
100
AcDbText
  0
LINE
  5
3CB
100
AcDbEntity
  8
0-0
100
AcDbLine
  6
CONTINUOUS
370
13
 10
203.998457674886
 20
283.672392756999
 11
240.998457674886
 21
283.672392756999
  0
LINE
  5
3CC
100
AcDbEntity
  8
0-0
100
AcDbLine
  6
CONTINUOUS
370
13
 10
171.118489310895
 20
324.039165973396
 11
202.909948669725
 21
301.234055046353
  0
LINE
  5
3CD
100
AcDbEntity
  8
0-0
100
AcDbLine
  6
CONTINUOUS
370
13
 10
171.118489310895
 20
324.039165973396
 11
173.925687012716
 21
322.981035044402
  0
LINE
  5
3CE
100
AcDbEntity
  8
0-0
100
AcDbLine
  6
CONTINUOUS
370
13
 10
171.118489310895
 20
324.039165973396
 11
173.02052836962
 21
321.719198857447
  0
TEXT
  5
3CF
100
AcDbEntity
  8
0-0
100
AcDbText
  6
CONTINUOUS
 10
203.909948669725
 20
301.234055046353
 40
6
  1
モードSW
  7
Font_0
100
AcDbText
  0
LINE
  5
3D0
100
AcDbEntity
  8
0-0
100
AcDbLine
  6
CONTINUOUS
370
13
 10
202.909948669725
 20
301.234055046353
 11
227.909948669725
 21
301.234055046353
  0
LINE
  5
3D1
100
AcDbEntity
  8
0-0
100
AcDbLine
  6
CONTINUOUS
370
13
 10
102.618489310895
 20
345.539165973396
 11
109.618489310895
 21
345.539165973396
  0
LINE
  5
3D2
100
AcDbEntity
  8
0-0
100
AcDbLine
  6
CONTINUOUS
370
13
 10
109.618489310895
 20
345.539165973396
 11
109.618489310895
 21
334.539165973396
  0
LINE
  5
3D3
100
AcDbEntity
  8
0-0
100
AcDbLine
  6
CONTINUOUS
370
13
 10
109.618489310895
 20
334.539165973396
 11
102.618489310895
 21
334.539165973396
  0
LINE
  5
3D4
100
AcDbEntity
  8
0-0
100
AcDbLine
  6
CONTINUOUS
370
13
 10
102.618489310895
 20
334.539165973396
 11
102.618489310895
 21
345.539165973396
  0
LINE
  5
3D5
100
AcDbEntity
  8
0-0
100
AcDbLine
  6
CONTINUOUS
370
13
 10
104.593489310895
 20
339.764165973396
 11
104.943489310895
 21
339.264165973396
  0
LINE
  5
3D6
100
AcDbEntity
  8
0-0
100
AcDbLine
  6
CONTINUOUS
370
13
 10
104.943489310895
 20
339.264165973396
 11
104.643489310895
 21
337.214165973396
  0
LINE
  5
3D7
100
AcDbEntity
  8
0-0
100
AcDbLine
  6
CONTINUOUS
370
13
 10
104.643489310895
 20
337.214165973396
 11
103.843489310895
 21
336.564165973396
  0
LINE
  5
3D8
100
AcDbEntity
  8
0-0
100
AcDbLine
  6
CONTINUOUS
370
13
 10
103.843489310895
 20
336.564165973396
 11
103.568489310895
 21
336.964165973396
  0
LINE
  5
3D9
100
AcDbEntity
  8
0-0
100
AcDbLine
  6
CONTINUOUS
370
13
 10
103.568489310895
 20
336.964165973396
 11
104.018489310895
 21
339.389165973396
  0
LINE
  5
3DA
100
AcDbEntity
  8
0-0
100
AcDbLine
  6
CONTINUOUS
370
13
 10
104.018489310895
 20
339.389165973396
 11
104.593489310895
 21
339.764165973396
  0
LINE
  5
3DB
100
AcDbEntity
  8
0-0
100
AcDbLine
  6
CONTINUOUS
370
13
 10
105.193489310895
 20
343.564165973396
 11
105.418489310895
 21
343.989165973396
  0
LINE
  5
3DC
100
AcDbEntity
  8
0-0
100
AcDbLine
  6
CONTINUOUS
370
13
 10
105.418489310895
 20
343.989165973396
 11
108.068489310895
 21
343.989165973396
  0
LINE
  5
3DD
100
AcDbEntity
  8
0-0
100
AcDbLine
  6
CONTINUOUS
370
13
 10
108.068489310895
 20
343.989165973396
 11
108.343489310895
 21
343.639165973396
  0
LINE
  5
3DE
100
AcDbEntity
  8
0-0
100
AcDbLine
  6
CONTINUOUS
370
13
 10
108.343489310895
 20
343.639165973396
 11
107.593489310895
 21
342.964165973396
  0
LINE
  5
3DF
100
AcDbEntity
  8
0-0
100
AcDbLine
  6
CONTINUOUS
370
13
 10
107.593489310895
 20
342.964165973396
 11
105.818489310895
 21
342.964165973396
  0
LINE
  5
3E0
100
AcDbEntity
  8
0-0
100
AcDbLine
  6
CONTINUOUS
370
13
 10
105.818489310895
 20
342.964165973396
 11
105.193489310895
 21
343.564165973396
  0
LINE
  5
3E1
100
AcDbEntity
  8
0-0
100
AcDbLine
  6
CONTINUOUS
370
13
 10
107.068489310895
 20
339.214165973396
 11
107.768489310895
 21
339.764165973396
  0
LINE
  5
3E2
100
AcDbEntity
  8
0-0
100
AcDbLine
  6
CONTINUOUS
370
13
 10
107.768489310895
 20
339.764165973396
 11
108.118489310895
 21
339.289165973396
  0
LINE
  5
3E3
100
AcDbEntity
  8
0-0
100
AcDbLine
  6
CONTINUOUS
370
13
 10
108.118489310895
 20
339.289165973396
 11
107.668489310895
 21
336.864165973396
  0
LINE
  5
3E4
100
AcDbEntity
  8
0-0
100
AcDbLine
  6
CONTINUOUS
370
13
 10
107.668489310895
 20
336.864165973396
 11
107.168489310895
 21
336.464165973396
  0
LINE
  5
3E5
100
AcDbEntity
  8
0-0
100
AcDbLine
  6
CONTINUOUS
370
13
 10
107.168489310895
 20
336.464165973396
 11
106.668489310895
 21
337.089165973396
  0
LINE
  5
3E6
100
AcDbEntity
  8
0-0
100
AcDbLine
  6
CONTINUOUS
370
13
 10
106.668489310895
 20
337.089165973396
 11
107.068489310895
 21
339.214165973396
  0
LINE
  5
3E7
100
AcDbEntity
  8
0-0
100
AcDbLine
  6
CONTINUOUS
370
13
 10
107.093489310895
 20
340.439165973396
 11
107.518489310895
 21
339.914165973396
  0
LINE
  5
3E8
100
AcDbEntity
  8
0-0
100
AcDbLine
  6
CONTINUOUS
370
13
 10
107.518489310895
 20
339.914165973396
 11
106.943489310895
 21
339.464165973396
  0
LINE
  5
3E9
100
AcDbEntity
  8
0-0
100
AcDbLine
  6
CONTINUOUS
370
13
 10
106.943489310895
 20
339.464165973396
 11
105.168489310895
 21
339.464165973396
  0
LINE
  5
3EA
100
AcDbEntity
  8
0-0
100
AcDbLine
  6
CONTINUOUS
370
13
 10
105.168489310895
 20
339.464165973396
 11
104.718489310895
 21
339.989165973396
  0
LINE
  5
3EB
100
AcDbEntity
  8
0-0
100
AcDbLine
  6
CONTINUOUS
370
13
 10
104.718489310895
 20
339.989165973396
 11
105.418489310895
 21
340.514165973396
  0
LINE
  5
3EC
100
AcDbEntity
  8
0-0
100
AcDbLine
  6
CONTINUOUS
370
13
 10
105.418489310895
 20
340.514165973396
 11
107.093489310895
 21
340.439165973396
  0
LINE
  5
3ED
100
AcDbEntity
  8
0-0
100
AcDbLine
  6
CONTINUOUS
370
13
 10
106.418489310895
 20
336.989165973396
 11
106.993489310895
 21
336.339165973396
  0
LINE
  5
3EE
100
AcDbEntity
  8
0-0
100
AcDbLine
  6
CONTINUOUS
370
13
 10
106.993489310895
 20
336.339165973396
 11
106.843489310895
 21
335.939165973396
  0
LINE
  5
3EF
100
AcDbEntity
  8
0-0
100
AcDbLine
  6
CONTINUOUS
370
13
 10
106.843489310895
 20
335.939165973396
 11
104.218489310895
 21
335.939165973396
  0
LINE
  5
3F0
100
AcDbEntity
  8
0-0
100
AcDbLine
  6
CONTINUOUS
370
13
 10
104.218489310895
 20
335.939165973396
 11
103.993489310895
 21
336.364165973396
  0
LINE
  5
3F1
100
AcDbEntity
  8
0-0
100
AcDbLine
  6
CONTINUOUS
370
13
 10
103.993489310895
 20
336.364165973396
 11
104.793489310895
 21
336.989165973396
  0
LINE
  5
3F2
100
AcDbEntity
  8
0-0
100
AcDbLine
  6
CONTINUOUS
370
13
 10
104.793489310895
 20
336.989165973396
 11
106.418489310895
 21
336.989165973396
  0
LINE
  5
3F3
100
AcDbEntity
  8
0-0
100
AcDbLine
  6
CONTINUOUS
370
13
 10
107.718489310895
 20
342.789165973396
 11
108.468489310895
 21
343.489165973396
  0
LINE
  5
3F4
100
AcDbEntity
  8
0-0
100
AcDbLine
  6
CONTINUOUS
370
13
 10
108.468489310895
 20
343.489165973396
 11
108.793489310895
 21
343.064165973396
  0
LINE
  5
3F5
100
AcDbEntity
  8
0-0
100
AcDbLine
  6
CONTINUOUS
370
13
 10
108.793489310895
 20
343.064165973396
 11
108.368489310895
 21
340.589165973396
  0
LINE
  5
3F6
100
AcDbEntity
  8
0-0
100
AcDbLine
  6
CONTINUOUS
370
13
 10
108.368489310895
 20
340.589165973396
 11
107.718489310895
 21
340.064165973396
  0
LINE
  5
3F7
100
AcDbEntity
  8
0-0
100
AcDbLine
  6
CONTINUOUS
370
13
 10
107.718489310895
 20
340.064165973396
 11
107.318489310895
 21
340.539165973396
  0
LINE
  5
3F8
100
AcDbEntity
  8
0-0
100
AcDbLine
  6
CONTINUOUS
370
13
 10
107.318489310895
 20
340.539165973396
 11
107.718489310895
 21
342.789165973396
  0
LINE
  5
3F9
100
AcDbEntity
  8
0-0
100
AcDbLine
  6
CONTINUOUS
370
13
 10
105.668489310895
 20
342.814165973396
 11
105.018489310895
 21
343.464165973396
  0
LINE
  5
3FA
100
AcDbEntity
  8
0-0
100
AcDbLine
  6
CONTINUOUS
370
13
 10
105.018489310895
 20
343.464165973396
 11
104.743489310895
 21
343.339165973396
  0
LINE
  5
3FB
100
AcDbEntity
  8
0-0
100
AcDbLine
  6
CONTINUOUS
370
13
 10
104.743489310895
 20
343.339165973396
 11
104.243489310895
 21
340.514165973396
  0
LINE
  5
3FC
100
AcDbEntity
  8
0-0
100
AcDbLine
  6
CONTINUOUS
370
13
 10
104.243489310895
 20
340.514165973396
 11
104.568489310895
 21
340.139165973396
  0
LINE
  5
3FD
100
AcDbEntity
  8
0-0
100
AcDbLine
  6
CONTINUOUS
370
13
 10
104.568489310895
 20
340.139165973396
 11
105.243489310895
 21
340.689165973396
  0
LINE
  5
3FE
100
AcDbEntity
  8
0-0
100
AcDbLine
  6
CONTINUOUS
370
13
 10
105.243489310895
 20
340.689165973396
 11
105.668489310895
 21
342.814165973396
  0
CIRCLE
  5
3FF
100
AcDbEntity
  8
0-0
100
AcDbCircle
  6
CONTINUOUS
370
13
 10
108.843489310895
 20
336.364165973396
 40
0.425
  0
LINE
  5
400
100
AcDbEntity
  8
0-0
100
AcDbLine
  6
CONTINUOUS
370
13
 10
109.618489310895
 20
345.539165973396
 11
116.618489310895
 21
345.539165973396
  0
LINE
  5
401
100
AcDbEntity
  8
0-0
100
AcDbLine
  6
CONTINUOUS
370
13
 10
116.618489310895
 20
345.539165973396
 11
116.618489310895
 21
334.539165973396
  0
LINE
  5
402
100
AcDbEntity
  8
0-0
100
AcDbLine
  6
CONTINUOUS
370
13
 10
116.618489310895
 20
334.539165973396
 11
109.618489310895
 21
334.539165973396
  0
LINE
  5
403
100
AcDbEntity
  8
0-0
100
AcDbLine
  6
CONTINUOUS
370
13
 10
109.618489310895
 20
334.539165973396
 11
109.618489310895
 21
345.539165973396
  0
LINE
  5
404
100
AcDbEntity
  8
0-0
100
AcDbLine
  6
CONTINUOUS
370
13
 10
111.593489310895
 20
339.764165973396
 11
111.943489310895
 21
339.264165973396
  0
LINE
  5
405
100
AcDbEntity
  8
0-0
100
AcDbLine
  6
CONTINUOUS
370
13
 10
111.943489310895
 20
339.264165973396
 11
111.643489310895
 21
337.214165973396
  0
LINE
  5
406
100
AcDbEntity
  8
0-0
100
AcDbLine
  6
CONTINUOUS
370
13
 10
111.643489310895
 20
337.214165973396
 11
110.843489310895
 21
336.564165973396
  0
LINE
  5
407
100
AcDbEntity
  8
0-0
100
AcDbLine
  6
CONTINUOUS
370
13
 10
110.843489310895
 20
336.564165973396
 11
110.568489310895
 21
336.964165973396
  0
LINE
  5
408
100
AcDbEntity
  8
0-0
100
AcDbLine
  6
CONTINUOUS
370
13
 10
110.568489310895
 20
336.964165973396
 11
111.018489310895
 21
339.389165973396
  0
LINE
  5
409
100
AcDbEntity
  8
0-0
100
AcDbLine
  6
CONTINUOUS
370
13
 10
111.018489310895
 20
339.389165973396
 11
111.593489310895
 21
339.764165973396
  0
LINE
  5
40A
100
AcDbEntity
  8
0-0
100
AcDbLine
  6
CONTINUOUS
370
13
 10
112.193489310895
 20
343.564165973396
 11
112.418489310895
 21
343.989165973396
  0
LINE
  5
40B
100
AcDbEntity
  8
0-0
100
AcDbLine
  6
CONTINUOUS
370
13
 10
112.418489310895
 20
343.989165973396
 11
115.068489310895
 21
343.989165973396
  0
LINE
  5
40C
100
AcDbEntity
  8
0-0
100
AcDbLine
  6
CONTINUOUS
370
13
 10
115.068489310895
 20
343.989165973396
 11
115.343489310895
 21
343.639165973396
  0
LINE
  5
40D
100
AcDbEntity
  8
0-0
100
AcDbLine
  6
CONTINUOUS
370
13
 10
115.343489310895
 20
343.639165973396
 11
114.593489310895
 21
342.964165973396
  0
LINE
  5
40E
100
AcDbEntity
  8
0-0
100
AcDbLine
  6
CONTINUOUS
370
13
 10
114.593489310895
 20
342.964165973396
 11
112.818489310895
 21
342.964165973396
  0
LINE
  5
40F
100
AcDbEntity
  8
0-0
100
AcDbLine
  6
CONTINUOUS
370
13
 10
112.818489310895
 20
342.964165973396
 11
112.193489310895
 21
343.564165973396
  0
LINE
  5
410
100
AcDbEntity
  8
0-0
100
AcDbLine
  6
CONTINUOUS
370
13
 10
114.068489310895
 20
339.214165973396
 11
114.768489310895
 21
339.764165973396
  0
LINE
  5
411
100
AcDbEntity
  8
0-0
100
AcDbLine
  6
CONTINUOUS
370
13
 10
114.768489310895
 20
339.764165973396
 11
115.118489310895
 21
339.289165973396
  0
LINE
  5
412
100
AcDbEntity
  8
0-0
100
AcDbLine
  6
CONTINUOUS
370
13
 10
115.118489310895
 20
339.289165973396
 11
114.668489310895
 21
336.864165973396
  0
LINE
  5
413
100
AcDbEntity
  8
0-0
100
AcDbLine
  6
CONTINUOUS
370
13
 10
114.668489310895
 20
336.864165973396
 11
114.168489310895
 21
336.464165973396
  0
LINE
  5
414
100
AcDbEntity
  8
0-0
100
AcDbLine
  6
CONTINUOUS
370
13
 10
114.168489310895
 20
336.464165973396
 11
113.668489310895
 21
337.089165973396
  0
LINE
  5
415
100
AcDbEntity
  8
0-0
100
AcDbLine
  6
CONTINUOUS
370
13
 10
113.668489310895
 20
337.089165973396
 11
114.068489310895
 21
339.214165973396
  0
LINE
  5
416
100
AcDbEntity
  8
0-0
100
AcDbLine
  6
CONTINUOUS
370
13
 10
114.093489310895
 20
340.439165973396
 11
114.518489310895
 21
339.914165973396
  0
LINE
  5
417
100
AcDbEntity
  8
0-0
100
AcDbLine
  6
CONTINUOUS
370
13
 10
114.518489310895
 20
339.914165973396
 11
113.943489310895
 21
339.464165973396
  0
LINE
  5
418
100
AcDbEntity
  8
0-0
100
AcDbLine
  6
CONTINUOUS
370
13
 10
113.943489310895
 20
339.464165973396
 11
112.168489310895
 21
339.464165973396
  0
LINE
  5
419
100
AcDbEntity
  8
0-0
100
AcDbLine
  6
CONTINUOUS
370
13
 10
112.168489310895
 20
339.464165973396
 11
111.718489310895
 21
339.989165973396
  0
LINE
  5
41A
100
AcDbEntity
  8
0-0
100
AcDbLine
  6
CONTINUOUS
370
13
 10
111.718489310895
 20
339.989165973396
 11
112.418489310895
 21
340.514165973396
  0
LINE
  5
41B
100
AcDbEntity
  8
0-0
100
AcDbLine
  6
CONTINUOUS
370
13
 10
112.418489310895
 20
340.514165973396
 11
114.093489310895
 21
340.439165973396
  0
LINE
  5
41C
100
AcDbEntity
  8
0-0
100
AcDbLine
  6
CONTINUOUS
370
13
 10
113.418489310895
 20
336.989165973396
 11
113.993489310895
 21
336.339165973396
  0
LINE
  5
41D
100
AcDbEntity
  8
0-0
100
AcDbLine
  6
CONTINUOUS
370
13
 10
113.993489310895
 20
336.339165973396
 11
113.843489310895
 21
335.939165973396
  0
LINE
  5
41E
100
AcDbEntity
  8
0-0
100
AcDbLine
  6
CONTINUOUS
370
13
 10
113.843489310895
 20
335.939165973396
 11
111.218489310895
 21
335.939165973396
  0
LINE
  5
41F
100
AcDbEntity
  8
0-0
100
AcDbLine
  6
CONTINUOUS
370
13
 10
111.218489310895
 20
335.939165973396
 11
110.993489310895
 21
336.364165973396
  0
LINE
  5
420
100
AcDbEntity
  8
0-0
100
AcDbLine
  6
CONTINUOUS
370
13
 10
110.993489310895
 20
336.364165973396
 11
111.793489310895
 21
336.989165973396
  0
LINE
  5
421
100
AcDbEntity
  8
0-0
100
AcDbLine
  6
CONTINUOUS
370
13
 10
111.793489310895
 20
336.989165973396
 11
113.418489310895
 21
336.989165973396
  0
LINE
  5
422
100
AcDbEntity
  8
0-0
100
AcDbLine
  6
CONTINUOUS
370
13
 10
114.718489310895
 20
342.789165973396
 11
115.468489310895
 21
343.489165973396
  0
LINE
  5
423
100
AcDbEntity
  8
0-0
100
AcDbLine
  6
CONTINUOUS
370
13
 10
115.468489310895
 20
343.489165973396
 11
115.793489310895
 21
343.064165973396
  0
LINE
  5
424
100
AcDbEntity
  8
0-0
100
AcDbLine
  6
CONTINUOUS
370
13
 10
115.793489310895
 20
343.064165973396
 11
115.368489310895
 21
340.589165973396
  0
LINE
  5
425
100
AcDbEntity
  8
0-0
100
AcDbLine
  6
CONTINUOUS
370
13
 10
115.368489310895
 20
340.589165973396
 11
114.718489310895
 21
340.064165973396
  0
LINE
  5
426
100
AcDbEntity
  8
0-0
100
AcDbLine
  6
CONTINUOUS
370
13
 10
114.718489310895
 20
340.064165973396
 11
114.318489310895
 21
340.539165973396
  0
LINE
  5
427
100
AcDbEntity
  8
0-0
100
AcDbLine
  6
CONTINUOUS
370
13
 10
114.318489310895
 20
340.539165973396
 11
114.718489310895
 21
342.789165973396
  0
LINE
  5
428
100
AcDbEntity
  8
0-0
100
AcDbLine
  6
CONTINUOUS
370
13
 10
112.668489310895
 20
342.814165973396
 11
112.018489310895
 21
343.464165973396
  0
LINE
  5
429
100
AcDbEntity
  8
0-0
100
AcDbLine
  6
CONTINUOUS
370
13
 10
112.018489310895
 20
343.464165973396
 11
111.743489310895
 21
343.339165973396
  0
LINE
  5
42A
100
AcDbEntity
  8
0-0
100
AcDbLine
  6
CONTINUOUS
370
13
 10
111.743489310895
 20
343.339165973396
 11
111.243489310895
 21
340.514165973396
  0
LINE
  5
42B
100
AcDbEntity
  8
0-0
100
AcDbLine
  6
CONTINUOUS
370
13
 10
111.243489310895
 20
340.514165973396
 11
111.568489310895
 21
340.139165973396
  0
LINE
  5
42C
100
AcDbEntity
  8
0-0
100
AcDbLine
  6
CONTINUOUS
370
13
 10
111.568489310895
 20
340.139165973396
 11
112.243489310895
 21
340.689165973396
  0
LINE
  5
42D
100
AcDbEntity
  8
0-0
100
AcDbLine
  6
CONTINUOUS
370
13
 10
112.243489310895
 20
340.689165973396
 11
112.668489310895
 21
342.814165973396
  0
CIRCLE
  5
42E
100
AcDbEntity
  8
0-0
100
AcDbCircle
  6
CONTINUOUS
370
13
 10
115.843489310895
 20
336.364165973396
 40
0.425
  0
LINE
  5
42F
100
AcDbEntity
  8
0-0
100
AcDbLine
  6
CONTINUOUS
370
13
 10
116.618489310895
 20
345.539165973396
 11
123.618489310895
 21
345.539165973396
  0
LINE
  5
430
100
AcDbEntity
  8
0-0
100
AcDbLine
  6
CONTINUOUS
370
13
 10
123.618489310895
 20
345.539165973396
 11
123.618489310895
 21
334.539165973396
  0
LINE
  5
431
100
AcDbEntity
  8
0-0
100
AcDbLine
  6
CONTINUOUS
370
13
 10
123.618489310895
 20
334.539165973396
 11
116.618489310895
 21
334.539165973396
  0
LINE
  5
432
100
AcDbEntity
  8
0-0
100
AcDbLine
  6
CONTINUOUS
370
13
 10
116.618489310895
 20
334.539165973396
 11
116.618489310895
 21
345.539165973396
  0
LINE
  5
433
100
AcDbEntity
  8
0-0
100
AcDbLine
  6
CONTINUOUS
370
13
 10
118.593489310895
 20
339.764165973396
 11
118.943489310895
 21
339.264165973396
  0
LINE
  5
434
100
AcDbEntity
  8
0-0
100
AcDbLine
  6
CONTINUOUS
370
13
 10
118.943489310895
 20
339.264165973396
 11
118.643489310895
 21
337.214165973396
  0
LINE
  5
435
100
AcDbEntity
  8
0-0
100
AcDbLine
  6
CONTINUOUS
370
13
 10
118.643489310895
 20
337.214165973396
 11
117.843489310895
 21
336.564165973396
  0
LINE
  5
436
100
AcDbEntity
  8
0-0
100
AcDbLine
  6
CONTINUOUS
370
13
 10
117.843489310895
 20
336.564165973396
 11
117.568489310895
 21
336.964165973396
  0
LINE
  5
437
100
AcDbEntity
  8
0-0
100
AcDbLine
  6
CONTINUOUS
370
13
 10
117.568489310895
 20
336.964165973396
 11
118.018489310895
 21
339.389165973396
  0
LINE
  5
438
100
AcDbEntity
  8
0-0
100
AcDbLine
  6
CONTINUOUS
370
13
 10
118.018489310895
 20
339.389165973396
 11
118.593489310895
 21
339.764165973396
  0
LINE
  5
439
100
AcDbEntity
  8
0-0
100
AcDbLine
  6
CONTINUOUS
370
13
 10
119.193489310895
 20
343.564165973396
 11
119.418489310895
 21
343.989165973396
  0
LINE
  5
43A
100
AcDbEntity
  8
0-0
100
AcDbLine
  6
CONTINUOUS
370
13
 10
119.418489310895
 20
343.989165973396
 11
122.068489310895
 21
343.989165973396
  0
LINE
  5
43B
100
AcDbEntity
  8
0-0
100
AcDbLine
  6
CONTINUOUS
370
13
 10
122.068489310895
 20
343.989165973396
 11
122.343489310895
 21
343.639165973396
  0
LINE
  5
43C
100
AcDbEntity
  8
0-0
100
AcDbLine
  6
CONTINUOUS
370
13
 10
122.343489310895
 20
343.639165973396
 11
121.593489310895
 21
342.964165973396
  0
LINE
  5
43D
100
AcDbEntity
  8
0-0
100
AcDbLine
  6
CONTINUOUS
370
13
 10
121.593489310895
 20
342.964165973396
 11
119.818489310895
 21
342.964165973396
  0
LINE
  5
43E
100
AcDbEntity
  8
0-0
100
AcDbLine
  6
CONTINUOUS
370
13
 10
119.818489310895
 20
342.964165973396
 11
119.193489310895
 21
343.564165973396
  0
LINE
  5
43F
100
AcDbEntity
  8
0-0
100
AcDbLine
  6
CONTINUOUS
370
13
 10
121.068489310895
 20
339.214165973396
 11
121.768489310895
 21
339.764165973396
  0
LINE
  5
440
100
AcDbEntity
  8
0-0
100
AcDbLine
  6
CONTINUOUS
370
13
 10
121.768489310895
 20
339.764165973396
 11
122.118489310895
 21
339.289165973396
  0
LINE
  5
441
100
AcDbEntity
  8
0-0
100
AcDbLine
  6
CONTINUOUS
370
13
 10
122.118489310895
 20
339.289165973396
 11
121.668489310895
 21
336.864165973396
  0
LINE
  5
442
100
AcDbEntity
  8
0-0
100
AcDbLine
  6
CONTINUOUS
370
13
 10
121.668489310895
 20
336.864165973396
 11
121.168489310895
 21
336.464165973396
  0
LINE
  5
443
100
AcDbEntity
  8
0-0
100
AcDbLine
  6
CONTINUOUS
370
13
 10
121.168489310895
 20
336.464165973396
 11
120.668489310895
 21
337.089165973396
  0
LINE
  5
444
100
AcDbEntity
  8
0-0
100
AcDbLine
  6
CONTINUOUS
370
13
 10
120.668489310895
 20
337.089165973396
 11
121.068489310895
 21
339.214165973396
  0
LINE
  5
445
100
AcDbEntity
  8
0-0
100
AcDbLine
  6
CONTINUOUS
370
13
 10
121.093489310895
 20
340.439165973396
 11
121.518489310895
 21
339.914165973396
  0
LINE
  5
446
100
AcDbEntity
  8
0-0
100
AcDbLine
  6
CONTINUOUS
370
13
 10
121.518489310895
 20
339.914165973396
 11
120.943489310895
 21
339.464165973396
  0
LINE
  5
447
100
AcDbEntity
  8
0-0
100
AcDbLine
  6
CONTINUOUS
370
13
 10
120.943489310895
 20
339.464165973396
 11
119.168489310895
 21
339.464165973396
  0
LINE
  5
448
100
AcDbEntity
  8
0-0
100
AcDbLine
  6
CONTINUOUS
370
13
 10
119.168489310895
 20
339.464165973396
 11
118.718489310895
 21
339.989165973396
  0
LINE
  5
449
100
AcDbEntity
  8
0-0
100
AcDbLine
  6
CONTINUOUS
370
13
 10
118.718489310895
 20
339.989165973396
 11
119.418489310895
 21
340.514165973396
  0
LINE
  5
44A
100
AcDbEntity
  8
0-0
100
AcDbLine
  6
CONTINUOUS
370
13
 10
119.418489310895
 20
340.514165973396
 11
121.093489310895
 21
340.439165973396
  0
LINE
  5
44B
100
AcDbEntity
  8
0-0
100
AcDbLine
  6
CONTINUOUS
370
13
 10
120.418489310895
 20
336.989165973396
 11
120.993489310895
 21
336.339165973396
  0
LINE
  5
44C
100
AcDbEntity
  8
0-0
100
AcDbLine
  6
CONTINUOUS
370
13
 10
120.993489310895
 20
336.339165973396
 11
120.843489310895
 21
335.939165973396
  0
LINE
  5
44D
100
AcDbEntity
  8
0-0
100
AcDbLine
  6
CONTINUOUS
370
13
 10
120.843489310895
 20
335.939165973396
 11
118.218489310895
 21
335.939165973396
  0
LINE
  5
44E
100
AcDbEntity
  8
0-0
100
AcDbLine
  6
CONTINUOUS
370
13
 10
118.218489310895
 20
335.939165973396
 11
117.993489310895
 21
336.364165973396
  0
LINE
  5
44F
100
AcDbEntity
  8
0-0
100
AcDbLine
  6
CONTINUOUS
370
13
 10
117.993489310895
 20
336.364165973396
 11
118.793489310895
 21
336.989165973396
  0
LINE
  5
450
100
AcDbEntity
  8
0-0
100
AcDbLine
  6
CONTINUOUS
370
13
 10
118.793489310895
 20
336.989165973396
 11
120.418489310895
 21
336.989165973396
  0
LINE
  5
451
100
AcDbEntity
  8
0-0
100
AcDbLine
  6
CONTINUOUS
370
13
 10
121.718489310895
 20
342.789165973396
 11
122.468489310895
 21
343.489165973396
  0
LINE
  5
452
100
AcDbEntity
  8
0-0
100
AcDbLine
  6
CONTINUOUS
370
13
 10
122.468489310895
 20
343.489165973396
 11
122.793489310895
 21
343.064165973396
  0
LINE
  5
453
100
AcDbEntity
  8
0-0
100
AcDbLine
  6
CONTINUOUS
370
13
 10
122.793489310895
 20
343.064165973396
 11
122.368489310895
 21
340.589165973396
  0
LINE
  5
454
100
AcDbEntity
  8
0-0
100
AcDbLine
  6
CONTINUOUS
370
13
 10
122.368489310895
 20
340.589165973396
 11
121.718489310895
 21
340.064165973396
  0
LINE
  5
455
100
AcDbEntity
  8
0-0
100
AcDbLine
  6
CONTINUOUS
370
13
 10
121.718489310895
 20
340.064165973396
 11
121.318489310895
 21
340.539165973396
  0
LINE
  5
456
100
AcDbEntity
  8
0-0
100
AcDbLine
  6
CONTINUOUS
370
13
 10
121.318489310895
 20
340.539165973396
 11
121.718489310895
 21
342.789165973396
  0
LINE
  5
457
100
AcDbEntity
  8
0-0
100
AcDbLine
  6
CONTINUOUS
370
13
 10
119.668489310895
 20
342.814165973396
 11
119.018489310895
 21
343.464165973396
  0
LINE
  5
458
100
AcDbEntity
  8
0-0
100
AcDbLine
  6
CONTINUOUS
370
13
 10
119.018489310895
 20
343.464165973396
 11
118.743489310895
 21
343.339165973396
  0
LINE
  5
459
100
AcDbEntity
  8
0-0
100
AcDbLine
  6
CONTINUOUS
370
13
 10
118.743489310895
 20
343.339165973396
 11
118.243489310895
 21
340.514165973396
  0
LINE
  5
45A
100
AcDbEntity
  8
0-0
100
AcDbLine
  6
CONTINUOUS
370
13
 10
118.243489310895
 20
340.514165973396
 11
118.568489310895
 21
340.139165973396
  0
LINE
  5
45B
100
AcDbEntity
  8
0-0
100
AcDbLine
  6
CONTINUOUS
370
13
 10
118.568489310895
 20
340.139165973396
 11
119.243489310895
 21
340.689165973396
  0
LINE
  5
45C
100
AcDbEntity
  8
0-0
100
AcDbLine
  6
CONTINUOUS
370
13
 10
119.243489310895
 20
340.689165973396
 11
119.668489310895
 21
342.814165973396
  0
CIRCLE
  5
45D
100
AcDbEntity
  8
0-0
100
AcDbCircle
  6
CONTINUOUS
370
13
 10
122.843489310895
 20
336.364165973396
 40
0.425
  0
LINE
  5
45E
100
AcDbEntity
  8
0-0
100
AcDbLine
  6
CONTINUOUS
370
13
 10
95.6184893108952
 20
345.539165973396
 11
102.618489310895
 21
345.539165973396
  0
LINE
  5
45F
100
AcDbEntity
  8
0-0
100
AcDbLine
  6
CONTINUOUS
370
13
 10
102.618489310895
 20
345.539165973396
 11
102.618489310895
 21
334.539165973396
  0
LINE
  5
460
100
AcDbEntity
  8
0-0
100
AcDbLine
  6
CONTINUOUS
370
13
 10
102.618489310895
 20
334.539165973396
 11
95.6184893108952
 21
334.539165973396
  0
LINE
  5
461
100
AcDbEntity
  8
0-0
100
AcDbLine
  6
CONTINUOUS
370
13
 10
95.6184893108952
 20
334.539165973396
 11
95.6184893108952
 21
345.539165973396
  0
LINE
  5
462
100
AcDbEntity
  8
0-0
100
AcDbLine
  6
CONTINUOUS
370
13
 10
97.5934893108952
 20
339.764165973396
 11
97.9434893108953
 21
339.264165973396
  0
LINE
  5
463
100
AcDbEntity
  8
0-0
100
AcDbLine
  6
CONTINUOUS
370
13
 10
97.9434893108953
 20
339.264165973396
 11
97.6434893108952
 21
337.214165973396
  0
LINE
  5
464
100
AcDbEntity
  8
0-0
100
AcDbLine
  6
CONTINUOUS
370
13
 10
97.6434893108952
 20
337.214165973396
 11
96.8434893108952
 21
336.564165973396
  0
LINE
  5
465
100
AcDbEntity
  8
0-0
100
AcDbLine
  6
CONTINUOUS
370
13
 10
96.8434893108952
 20
336.564165973396
 11
96.5684893108953
 21
336.964165973396
  0
LINE
  5
466
100
AcDbEntity
  8
0-0
100
AcDbLine
  6
CONTINUOUS
370
13
 10
96.5684893108953
 20
336.964165973396
 11
97.0184893108952
 21
339.389165973396
  0
LINE
  5
467
100
AcDbEntity
  8
0-0
100
AcDbLine
  6
CONTINUOUS
370
13
 10
97.0184893108952
 20
339.389165973396
 11
97.5934893108952
 21
339.764165973396
  0
LINE
  5
468
100
AcDbEntity
  8
0-0
100
AcDbLine
  6
CONTINUOUS
370
13
 10
98.1934893108953
 20
343.564165973396
 11
98.4184893108952
 21
343.989165973396
  0
LINE
  5
469
100
AcDbEntity
  8
0-0
100
AcDbLine
  6
CONTINUOUS
370
13
 10
98.4184893108952
 20
343.989165973396
 11
101.068489310895
 21
343.989165973396
  0
LINE
  5
46A
100
AcDbEntity
  8
0-0
100
AcDbLine
  6
CONTINUOUS
370
13
 10
101.068489310895
 20
343.989165973396
 11
101.343489310895
 21
343.639165973396
  0
LINE
  5
46B
100
AcDbEntity
  8
0-0
100
AcDbLine
  6
CONTINUOUS
370
13
 10
101.343489310895
 20
343.639165973396
 11
100.593489310895
 21
342.964165973396
  0
LINE
  5
46C
100
AcDbEntity
  8
0-0
100
AcDbLine
  6
CONTINUOUS
370
13
 10
100.593489310895
 20
342.964165973396
 11
98.8184893108953
 21
342.964165973396
  0
LINE
  5
46D
100
AcDbEntity
  8
0-0
100
AcDbLine
  6
CONTINUOUS
370
13
 10
98.8184893108953
 20
342.964165973396
 11
98.1934893108953
 21
343.564165973396
  0
LINE
  5
46E
100
AcDbEntity
  8
0-0
100
AcDbLine
  6
CONTINUOUS
370
13
 10
100.068489310895
 20
339.214165973396
 11
100.768489310895
 21
339.764165973396
  0
LINE
  5
46F
100
AcDbEntity
  8
0-0
100
AcDbLine
  6
CONTINUOUS
370
13
 10
100.768489310895
 20
339.764165973396
 11
101.118489310895
 21
339.289165973396
  0
LINE
  5
470
100
AcDbEntity
  8
0-0
100
AcDbLine
  6
CONTINUOUS
370
13
 10
101.118489310895
 20
339.289165973396
 11
100.668489310895
 21
336.864165973396
  0
LINE
  5
471
100
AcDbEntity
  8
0-0
100
AcDbLine
  6
CONTINUOUS
370
13
 10
100.668489310895
 20
336.864165973396
 11
100.168489310895
 21
336.464165973396
  0
LINE
  5
472
100
AcDbEntity
  8
0-0
100
AcDbLine
  6
CONTINUOUS
370
13
 10
100.168489310895
 20
336.464165973396
 11
99.6684893108952
 21
337.089165973396
  0
LINE
  5
473
100
AcDbEntity
  8
0-0
100
AcDbLine
  6
CONTINUOUS
370
13
 10
99.6684893108952
 20
337.089165973396
 11
100.068489310895
 21
339.214165973396
  0
LINE
  5
474
100
AcDbEntity
  8
0-0
100
AcDbLine
  6
CONTINUOUS
370
13
 10
100.093489310895
 20
340.439165973396
 11
100.518489310895
 21
339.914165973396
  0
LINE
  5
475
100
AcDbEntity
  8
0-0
100
AcDbLine
  6
CONTINUOUS
370
13
 10
100.518489310895
 20
339.914165973396
 11
99.9434893108953
 21
339.464165973396
  0
LINE
  5
476
100
AcDbEntity
  8
0-0
100
AcDbLine
  6
CONTINUOUS
370
13
 10
99.9434893108953
 20
339.464165973396
 11
98.1684893108952
 21
339.464165973396
  0
LINE
  5
477
100
AcDbEntity
  8
0-0
100
AcDbLine
  6
CONTINUOUS
370
13
 10
98.1684893108952
 20
339.464165973396
 11
97.7184893108952
 21
339.989165973396
  0
LINE
  5
478
100
AcDbEntity
  8
0-0
100
AcDbLine
  6
CONTINUOUS
370
13
 10
97.7184893108952
 20
339.989165973396
 11
98.4184893108952
 21
340.514165973396
  0
LINE
  5
479
100
AcDbEntity
  8
0-0
100
AcDbLine
  6
CONTINUOUS
370
13
 10
98.4184893108952
 20
340.514165973396
 11
100.093489310895
 21
340.439165973396
  0
LINE
  5
47A
100
AcDbEntity
  8
0-0
100
AcDbLine
  6
CONTINUOUS
370
13
 10
99.4184893108952
 20
336.989165973396
 11
99.9934893108952
 21
336.339165973396
  0
LINE
  5
47B
100
AcDbEntity
  8
0-0
100
AcDbLine
  6
CONTINUOUS
370
13
 10
99.9934893108952
 20
336.339165973396
 11
99.8434893108952
 21
335.939165973396
  0
LINE
  5
47C
100
AcDbEntity
  8
0-0
100
AcDbLine
  6
CONTINUOUS
370
13
 10
99.8434893108952
 20
335.939165973396
 11
97.2184893108952
 21
335.939165973396
  0
LINE
  5
47D
100
AcDbEntity
  8
0-0
100
AcDbLine
  6
CONTINUOUS
370
13
 10
97.2184893108952
 20
335.939165973396
 11
96.9934893108952
 21
336.364165973396
  0
LINE
  5
47E
100
AcDbEntity
  8
0-0
100
AcDbLine
  6
CONTINUOUS
370
13
 10
96.9934893108952
 20
336.364165973396
 11
97.7934893108952
 21
336.989165973396
  0
LINE
  5
47F
100
AcDbEntity
  8
0-0
100
AcDbLine
  6
CONTINUOUS
370
13
 10
97.7934893108952
 20
336.989165973396
 11
99.4184893108952
 21
336.989165973396
  0
LINE
  5
480
100
AcDbEntity
  8
0-0
100
AcDbLine
  6
CONTINUOUS
370
13
 10
100.718489310895
 20
342.789165973396
 11
101.468489310895
 21
343.489165973396
  0
LINE
  5
481
100
AcDbEntity
  8
0-0
100
AcDbLine
  6
CONTINUOUS
370
13
 10
101.468489310895
 20
343.489165973396
 11
101.793489310895
 21
343.064165973396
  0
LINE
  5
482
100
AcDbEntity
  8
0-0
100
AcDbLine
  6
CONTINUOUS
370
13
 10
101.793489310895
 20
343.064165973396
 11
101.368489310895
 21
340.589165973396
  0
LINE
  5
483
100
AcDbEntity
  8
0-0
100
AcDbLine
  6
CONTINUOUS
370
13
 10
101.368489310895
 20
340.589165973396
 11
100.718489310895
 21
340.064165973396
  0
LINE
  5
484
100
AcDbEntity
  8
0-0
100
AcDbLine
  6
CONTINUOUS
370
13
 10
100.718489310895
 20
340.064165973396
 11
100.318489310895
 21
340.539165973396
  0
LINE
  5
485
100
AcDbEntity
  8
0-0
100
AcDbLine
  6
CONTINUOUS
370
13
 10
100.318489310895
 20
340.539165973396
 11
100.718489310895
 21
342.789165973396
  0
LINE
  5
486
100
AcDbEntity
  8
0-0
100
AcDbLine
  6
CONTINUOUS
370
13
 10
98.6684893108952
 20
342.814165973396
 11
98.0184893108952
 21
343.464165973396
  0
LINE
  5
487
100
AcDbEntity
  8
0-0
100
AcDbLine
  6
CONTINUOUS
370
13
 10
98.0184893108952
 20
343.464165973396
 11
97.7434893108952
 21
343.339165973396
  0
LINE
  5
488
100
AcDbEntity
  8
0-0
100
AcDbLine
  6
CONTINUOUS
370
13
 10
97.7434893108952
 20
343.339165973396
 11
97.2434893108952
 21
340.514165973396
  0
LINE
  5
489
100
AcDbEntity
  8
0-0
100
AcDbLine
  6
CONTINUOUS
370
13
 10
97.2434893108952
 20
340.514165973396
 11
97.5684893108953
 21
340.139165973396
  0
LINE
  5
48A
100
AcDbEntity
  8
0-0
100
AcDbLine
  6
CONTINUOUS
370
13
 10
97.5684893108953
 20
340.139165973396
 11
98.2434893108952
 21
340.689165973396
  0
LINE
  5
48B
100
AcDbEntity
  8
0-0
100
AcDbLine
  6
CONTINUOUS
370
13
 10
98.2434893108952
 20
340.689165973396
 11
98.6684893108952
 21
342.814165973396
  0
CIRCLE
  5
48C
100
AcDbEntity
  8
0-0
100
AcDbCircle
  6
CONTINUOUS
370
13
 10
101.843489310895
 20
336.364165973396
 40
0.425
  0
LINE
  5
48D
100
AcDbEntity
  8
0-0
100
AcDbLine
  6
CONTINUOUS
370
13
 10
88.6184893108952
 20
345.539165973396
 11
95.6184893108952
 21
345.539165973396
  0
LINE
  5
48E
100
AcDbEntity
  8
0-0
100
AcDbLine
  6
CONTINUOUS
370
13
 10
95.6184893108952
 20
345.539165973396
 11
95.6184893108952
 21
334.539165973396
  0
LINE
  5
48F
100
AcDbEntity
  8
0-0
100
AcDbLine
  6
CONTINUOUS
370
13
 10
95.6184893108952
 20
334.539165973396
 11
88.6184893108952
 21
334.539165973396
  0
LINE
  5
490
100
AcDbEntity
  8
0-0
100
AcDbLine
  6
CONTINUOUS
370
13
 10
88.6184893108952
 20
334.539165973396
 11
88.6184893108952
 21
345.539165973396
  0
LINE
  5
491
100
AcDbEntity
  8
0-0
100
AcDbLine
  6
CONTINUOUS
370
13
 10
90.5934893108952
 20
339.764165973396
 11
90.9434893108953
 21
339.264165973396
  0
LINE
  5
492
100
AcDbEntity
  8
0-0
100
AcDbLine
  6
CONTINUOUS
370
13
 10
90.9434893108953
 20
339.264165973396
 11
90.6434893108952
 21
337.214165973396
  0
LINE
  5
493
100
AcDbEntity
  8
0-0
100
AcDbLine
  6
CONTINUOUS
370
13
 10
90.6434893108952
 20
337.214165973396
 11
89.8434893108952
 21
336.564165973396
  0
LINE
  5
494
100
AcDbEntity
  8
0-0
100
AcDbLine
  6
CONTINUOUS
370
13
 10
89.8434893108952
 20
336.564165973396
 11
89.5684893108953
 21
336.964165973396
  0
LINE
  5
495
100
AcDbEntity
  8
0-0
100
AcDbLine
  6
CONTINUOUS
370
13
 10
89.5684893108953
 20
336.964165973396
 11
90.0184893108952
 21
339.389165973396
  0
LINE
  5
496
100
AcDbEntity
  8
0-0
100
AcDbLine
  6
CONTINUOUS
370
13
 10
90.0184893108952
 20
339.389165973396
 11
90.5934893108952
 21
339.764165973396
  0
LINE
  5
497
100
AcDbEntity
  8
0-0
100
AcDbLine
  6
CONTINUOUS
370
13
 10
91.1934893108953
 20
343.564165973396
 11
91.4184893108952
 21
343.989165973396
  0
LINE
  5
498
100
AcDbEntity
  8
0-0
100
AcDbLine
  6
CONTINUOUS
370
13
 10
91.4184893108952
 20
343.989165973396
 11
94.0684893108953
 21
343.989165973396
  0
LINE
  5
499
100
AcDbEntity
  8
0-0
100
AcDbLine
  6
CONTINUOUS
370
13
 10
94.0684893108953
 20
343.989165973396
 11
94.3434893108952
 21
343.639165973396
  0
LINE
  5
49A
100
AcDbEntity
  8
0-0
100
AcDbLine
  6
CONTINUOUS
370
13
 10
94.3434893108952
 20
343.639165973396
 11
93.5934893108952
 21
342.964165973396
  0
LINE
  5
49B
100
AcDbEntity
  8
0-0
100
AcDbLine
  6
CONTINUOUS
370
13
 10
93.5934893108952
 20
342.964165973396
 11
91.8184893108953
 21
342.964165973396
  0
LINE
  5
49C
100
AcDbEntity
  8
0-0
100
AcDbLine
  6
CONTINUOUS
370
13
 10
91.8184893108953
 20
342.964165973396
 11
91.1934893108953
 21
343.564165973396
  0
LINE
  5
49D
100
AcDbEntity
  8
0-0
100
AcDbLine
  6
CONTINUOUS
370
13
 10
93.0684893108953
 20
339.214165973396
 11
93.7684893108952
 21
339.764165973396
  0
LINE
  5
49E
100
AcDbEntity
  8
0-0
100
AcDbLine
  6
CONTINUOUS
370
13
 10
93.7684893108952
 20
339.764165973396
 11
94.1184893108952
 21
339.289165973396
  0
LINE
  5
49F
100
AcDbEntity
  8
0-0
100
AcDbLine
  6
CONTINUOUS
370
13
 10
94.1184893108952
 20
339.289165973396
 11
93.6684893108952
 21
336.864165973396
  0
LINE
  5
4A0
100
AcDbEntity
  8
0-0
100
AcDbLine
  6
CONTINUOUS
370
13
 10
93.6684893108952
 20
336.864165973396
 11
93.1684893108952
 21
336.464165973396
  0
LINE
  5
4A1
100
AcDbEntity
  8
0-0
100
AcDbLine
  6
CONTINUOUS
370
13
 10
93.1684893108952
 20
336.464165973396
 11
92.6684893108952
 21
337.089165973396
  0
LINE
  5
4A2
100
AcDbEntity
  8
0-0
100
AcDbLine
  6
CONTINUOUS
370
13
 10
92.6684893108952
 20
337.089165973396
 11
93.0684893108953
 21
339.214165973396
  0
LINE
  5
4A3
100
AcDbEntity
  8
0-0
100
AcDbLine
  6
CONTINUOUS
370
13
 10
93.0934893108952
 20
340.439165973396
 11
93.5184893108952
 21
339.914165973396
  0
LINE
  5
4A4
100
AcDbEntity
  8
0-0
100
AcDbLine
  6
CONTINUOUS
370
13
 10
93.5184893108952
 20
339.914165973396
 11
92.9434893108953
 21
339.464165973396
  0
LINE
  5
4A5
100
AcDbEntity
  8
0-0
100
AcDbLine
  6
CONTINUOUS
370
13
 10
92.9434893108953
 20
339.464165973396
 11
91.1684893108952
 21
339.464165973396
  0
LINE
  5
4A6
100
AcDbEntity
  8
0-0
100
AcDbLine
  6
CONTINUOUS
370
13
 10
91.1684893108952
 20
339.464165973396
 11
90.7184893108952
 21
339.989165973396
  0
LINE
  5
4A7
100
AcDbEntity
  8
0-0
100
AcDbLine
  6
CONTINUOUS
370
13
 10
90.7184893108952
 20
339.989165973396
 11
91.4184893108952
 21
340.514165973396
  0
LINE
  5
4A8
100
AcDbEntity
  8
0-0
100
AcDbLine
  6
CONTINUOUS
370
13
 10
91.4184893108952
 20
340.514165973396
 11
93.0934893108952
 21
340.439165973396
  0
LINE
  5
4A9
100
AcDbEntity
  8
0-0
100
AcDbLine
  6
CONTINUOUS
370
13
 10
92.4184893108952
 20
336.989165973396
 11
92.9934893108952
 21
336.339165973396
  0
LINE
  5
4AA
100
AcDbEntity
  8
0-0
100
AcDbLine
  6
CONTINUOUS
370
13
 10
92.9934893108952
 20
336.339165973396
 11
92.8434893108952
 21
335.939165973396
  0
LINE
  5
4AB
100
AcDbEntity
  8
0-0
100
AcDbLine
  6
CONTINUOUS
370
13
 10
92.8434893108952
 20
335.939165973396
 11
90.2184893108952
 21
335.939165973396
  0
LINE
  5
4AC
100
AcDbEntity
  8
0-0
100
AcDbLine
  6
CONTINUOUS
370
13
 10
90.2184893108952
 20
335.939165973396
 11
89.9934893108952
 21
336.364165973396
  0
LINE
  5
4AD
100
AcDbEntity
  8
0-0
100
AcDbLine
  6
CONTINUOUS
370
13
 10
89.9934893108952
 20
336.364165973396
 11
90.7934893108952
 21
336.989165973396
  0
LINE
  5
4AE
100
AcDbEntity
  8
0-0
100
AcDbLine
  6
CONTINUOUS
370
13
 10
90.7934893108952
 20
336.989165973396
 11
92.4184893108952
 21
336.989165973396
  0
LINE
  5
4AF
100
AcDbEntity
  8
0-0
100
AcDbLine
  6
CONTINUOUS
370
13
 10
93.7184893108952
 20
342.789165973396
 11
94.4684893108952
 21
343.489165973396
  0
LINE
  5
4B0
100
AcDbEntity
  8
0-0
100
AcDbLine
  6
CONTINUOUS
370
13
 10
94.4684893108952
 20
343.489165973396
 11
94.7934893108952
 21
343.064165973396
  0
LINE
  5
4B1
100
AcDbEntity
  8
0-0
100
AcDbLine
  6
CONTINUOUS
370
13
 10
94.7934893108952
 20
343.064165973396
 11
94.3684893108952
 21
340.589165973396
  0
LINE
  5
4B2
100
AcDbEntity
  8
0-0
100
AcDbLine
  6
CONTINUOUS
370
13
 10
94.3684893108952
 20
340.589165973396
 11
93.7184893108952
 21
340.064165973396
  0
LINE
  5
4B3
100
AcDbEntity
  8
0-0
100
AcDbLine
  6
CONTINUOUS
370
13
 10
93.7184893108952
 20
340.064165973396
 11
93.3184893108953
 21
340.539165973396
  0
LINE
  5
4B4
100
AcDbEntity
  8
0-0
100
AcDbLine
  6
CONTINUOUS
370
13
 10
93.3184893108953
 20
340.539165973396
 11
93.7184893108952
 21
342.789165973396
  0
LINE
  5
4B5
100
AcDbEntity
  8
0-0
100
AcDbLine
  6
CONTINUOUS
370
13
 10
91.6684893108952
 20
342.814165973396
 11
91.0184893108952
 21
343.464165973396
  0
LINE
  5
4B6
100
AcDbEntity
  8
0-0
100
AcDbLine
  6
CONTINUOUS
370
13
 10
91.0184893108952
 20
343.464165973396
 11
90.7434893108952
 21
343.339165973396
  0
LINE
  5
4B7
100
AcDbEntity
  8
0-0
100
AcDbLine
  6
CONTINUOUS
370
13
 10
90.7434893108952
 20
343.339165973396
 11
90.2434893108952
 21
340.514165973396
  0
LINE
  5
4B8
100
AcDbEntity
  8
0-0
100
AcDbLine
  6
CONTINUOUS
370
13
 10
90.2434893108952
 20
340.514165973396
 11
90.5684893108953
 21
340.139165973396
  0
LINE
  5
4B9
100
AcDbEntity
  8
0-0
100
AcDbLine
  6
CONTINUOUS
370
13
 10
90.5684893108953
 20
340.139165973396
 11
91.2434893108952
 21
340.689165973396
  0
LINE
  5
4BA
100
AcDbEntity
  8
0-0
100
AcDbLine
  6
CONTINUOUS
370
13
 10
91.2434893108952
 20
340.689165973396
 11
91.6684893108952
 21
342.814165973396
  0
CIRCLE
  5
4BB
100
AcDbEntity
  8
0-0
100
AcDbCircle
  6
CONTINUOUS
370
13
 10
94.8434893108952
 20
336.364165973396
 40
0.425
  0
LINE
  5
4BC
100
AcDbEntity
  8
0-0
100
AcDbLine
  6
CONTINUOUS
370
13
 10
106.018489310895
 20
345.789165973396
 11
86.7747621866099
 21
397.446456801334
  0
LINE
  5
4BD
100
AcDbEntity
  8
0-0
100
AcDbLine
  6
CONTINUOUS
370
13
 10
106.018489310895
 20
345.789165973396
 11
104.279292567964
 21
348.233587109244
  0
LINE
  5
4BE
100
AcDbEntity
  8
0-0
100
AcDbLine
  6
CONTINUOUS
370
13
 10
106.018489310895
 20
345.789165973396
 11
105.734511317262
 21
348.775695146053
  0
TEXT
  5
4BF
100
AcDbEntity
  8
0-0
100
AcDbText
  6
CONTINUOUS
 10
87.7747621866099
 20
397.446456801334
 40
6
  1
LED8ｾｸﾞﾒﾝﾄ表示(5桁)
  7
Font_0
100
AcDbText
  0
LINE
  5
4C0
100
AcDbEntity
  8
0-0
100
AcDbLine
  6
CONTINUOUS
370
13
 10
86.7747621866099
 20
397.446456801334
 11
143.580950897929
 21
397.446456801334
  0
LINE
  5
4C1
100
AcDbEntity
  8
0-0
100
AcDbLine
  6
CONTINUOUS
370
13
 10
300.798630346373
 20
348.980733385999
 11
269.210070651984
 21
385.475660680331
  0
LINE
  5
4C2
100
AcDbEntity
  8
0-0
100
AcDbLine
  6
CONTINUOUS
370
13
 10
300.798630346373
 20
348.980733385999
 11
298.315090548713
 21
350.663597038657
  0
LINE
  5
4C3
100
AcDbEntity
  8
0-0
100
AcDbLine
  6
CONTINUOUS
370
13
 10
300.798630346373
 20
348.980733385999
 11
299.489253616619
 21
351.679905959136
  0
TEXT
  5
4C4
100
AcDbEntity
  8
0-0
100
AcDbText
  6
CONTINUOUS
 10
250.210070651984
 20
385.475660680331
 40
6
  1
電源SW
  7
Font_0
 72
2
 11
268.210070651984
 21
385.475660680331
100
AcDbText
  0
LINE
  5
4C5
100
AcDbEntity
  8
0-0
100
AcDbLine
  6
CONTINUOUS
370
13
 10
269.210070651984
 20
385.475660680331
 11
250.210070651985
 21
385.475660680331
  0
LINE
  5
4C6
100
AcDbEntity
  8
0-0
100
AcDbLine
  6
CONTINUOUS
370
13
 10
309.920998888149
 20
260.17133397675
 11
317.985582949784
 21
226.322690754769
  0
LINE
  5
4C7
100
AcDbEntity
  8
0-0
100
AcDbLine
  6
CONTINUOUS
370
13
 10
309.920998888149
 20
260.17133397675
 11
311.347923142613
 21
257.532416173555
  0
LINE
  5
4C8
100
AcDbEntity
  8
0-0
100
AcDbLine
  6
CONTINUOUS
370
13
 10
309.920998888149
 20
260.17133397675
 11
309.837292640193
 21
257.172501993452
  0
TEXT
  5
4C9
100
AcDbEntity
  8
0-0
100
AcDbText
  6
CONTINUOUS
 10
286.985582949784
 20
226.322690754769
 40
6
  1
DC電源入力
  7
Font_0
 72
2
 11
316.985582949784
 21
226.322690754769
100
AcDbText
  0
LINE
  5
4CA
100
AcDbEntity
  8
0-0
100
AcDbLine
  6
CONTINUOUS
370
13
 10
317.985582949784
 20
226.322690754769
 11
286.985582949784
 21
226.322690754769
  0
LINE
  5
4CB
100
AcDbEntity
  8
0-0
100
AcDbLine
  6
CONTINUOUS
370
13
 10
343.298630346373
 20
262.280733385997
 11
356.741410791968
 21
218.857987575407
  0
LINE
  5
4CC
100
AcDbEntity
  8
0-0
100
AcDbLine
  6
CONTINUOUS
370
13
 10
343.298630346373
 20
262.280733385997
 11
344.897322939949
 21
259.742194043925
  0
LINE
  5
4CD
100
AcDbEntity
  8
0-0
100
AcDbLine
  6
CONTINUOUS
370
13
 10
343.298630346373
 20
262.280733385997
 11
343.413869074216
 21
259.282947530469
  0
TEXT
  5
4CE
100
AcDbEntity
  8
0-0
100
AcDbText
  6
CONTINUOUS
 10
357.741410791968
 20
218.857987575407
 40
6
  1
通信インターフェイス
  7
Font_0
100
AcDbText
  0
LINE
  5
4CF
100
AcDbEntity
  8
0-0
100
AcDbLine
  6
CONTINUOUS
370
13
 10
356.741410791968
 20
218.857987575407
 11
417.741410791968
 21
218.857987575407
  0
LINE
  5
4D0
100
AcDbEntity
  8
0-0
100
AcDbLine
  6
CONTINUOUS
370
13
 10
384.578123780744
 20
262.699616451401
 11
419.237394580001
 21
239.070259607533
  0
LINE
  5
4D1
100
AcDbEntity
  8
0-0
100
AcDbLine
  6
CONTINUOUS
370
13
 10
384.578123780744
 20
262.699616451401
 11
387.40979199703
 21
261.708831352159
  0
LINE
  5
4D2
100
AcDbEntity
  8
0-0
100
AcDbLine
  6
CONTINUOUS
370
13
 10
384.578123780744
 20
262.699616451401
 11
386.535027841516
 21
260.425737277623
  0
TEXT
  5
4D3
100
AcDbEntity
  8
0-0
100
AcDbText
  6
CONTINUOUS
 10
420.237394580001
 20
239.070259607533
 40
6
  1
外部コネクタ
  7
Font_0
100
AcDbText
  0
LINE
  5
4D4
100
AcDbEntity
  8
0-0
100
AcDbLine
  6
CONTINUOUS
370
13
 10
419.237394580001
 20
239.070259607533
 11
456.237394580001
 21
239.070259607533
  0
LINE
  5
4D5
100
AcDbEntity
  8
0-0
100
AcDbLine
  6
CONTINUOUS
370
13
 10
162.516130546908
 20
121.666158979238
 11
196.134977481562
 21
68.5659004085165
  0
LINE
  5
4D6
100
AcDbEntity
  8
0-0
100
AcDbLine
  6
CONTINUOUS
370
13
 10
162.516130546908
 20
121.666158979238
 11
164.722248976573
 21
119.633170667837
  0
LINE
  5
4D7
100
AcDbEntity
  8
0-0
100
AcDbLine
  6
CONTINUOUS
370
13
 10
162.516130546908
 20
121.666158979238
 11
163.410190995054
 21
118.802480241136
  0
TEXT
  5
4D8
100
AcDbEntity
  8
0-0
100
AcDbText
  6
CONTINUOUS
 10
196.134977481562
 20
68.5659004085165
 40
6
  1
ポンプヘッド
  7
Font_0
 72
2
 11
232.134977481562
 21
68.5659004085165
100
AcDbText
  0
LINE
  5
4D9
100
AcDbEntity
  8
0-0
100
AcDbLine
  6
CONTINUOUS
370
13
 10
233.134977481562
 20
68.5659004085165
 11
196.134977481562
 21
68.5659004085165
  0
LINE
  5
4DA
100
AcDbEntity
  8
0-0
100
AcDbLine
  6
CONTINUOUS
370
13
 10
292.74263547543
 20
46.166158979238
 11
312.844933581894
 21
24.1776864555314
  0
LINE
  5
4DB
100
AcDbEntity
  8
0-0
100
AcDbLine
  6
CONTINUOUS
370
13
 10
292.74263547543
 20
46.166158979238
 11
295.270956272594
 21
44.5513543636178
  0
LINE
  5
4DC
100
AcDbEntity
  8
0-0
100
AcDbLine
  6
CONTINUOUS
370
13
 10
292.74263547543
 20
46.166158979238
 11
294.124823206881
 21
43.5035367613806
  0
TEXT
  5
4DD
100
AcDbEntity
  8
0-0
100
AcDbText
  6
CONTINUOUS
 10
286.61547199193
 20
24.1776864555314
 40
6
  1
ゴム脚
  7
Font_0
 72
2
 11
304.61547199193
 21
24.1776864555314
100
AcDbText
  0
LINE
  5
4DE
100
AcDbEntity
  8
0-0
100
AcDbLine
  6
CONTINUOUS
370
13
 10
312.844933581894
 20
24.1776864555314
 11
286.638127005001
 21
24.1776864555314
  0
LINE
  5
4DF
100
AcDbEntity
  8
0-0
100
AcDbLine
  6
CONTINUOUS
370
13
 10
398.754252729684
 20
46.1661589792379
 11
312.844933581894
 21
24.1776864555314
  0
LINE
  5
4E0
100
AcDbEntity
  8
0-0
100
AcDbLine
  6
CONTINUOUS
370
13
 10
398.754252729684
 20
46.1661589792379
 11
396.139497452919
 21
44.695426222199
  0
LINE
  5
4E1
100
AcDbEntity
  8
0-0
100
AcDbLine
  6
CONTINUOUS
370
13
 10
398.754252729684
 20
46.1661589792379
 11
395.754441856807
 21
46.199844687847
  0
TEXT
  5
4E2
100
AcDbEntity
  8
0-0
100
AcDbText
  6
CONTINUOUS
 10
463.006810046566
 20
10.545908301459
 40
4.5
  1
通信対応ローラーチューブポンプ
  7
Font_0
 11
463.006810046566
 21
15.045908301459
100
AcDbText
 73
3
  0
TEXT
  5
4E3
100
AcDbEntity
  8
0-0
100
AcDbText
  6
CONTINUOUS
 10
473.933572157548
 20
20.0569562313417
 40
4.5
  1
型式：ＭＣＲＰ２０４Ｄｉ
  7
Font_0
 11
473.933572157548
 21
24.5569562313417
100
AcDbText
 73
3
  0
TEXT
  5
4E4
100
AcDbEntity
  8
0-0
100
AcDbText
  6
CONTINUOUS
 10
80.0068944758965
 20
347.359201214418
 40
4
  1
POWER
  7
Font_0
 11
80.0068944758965
 21
351.359201214418
100
AcDbText
 73
3
  0
TEXT
  5
4E5
100
AcDbEntity
  8
0-0
100
AcDbText
  6
CONTINUOUS
 10
92.7938526730743
 20
309.004615905467
 40
3
  1
CCW
  7
Font_0
 11
92.7938526730743
 21
312.004615905467
100
AcDbText
 73
3
  0
TEXT
  5
4E6
100
AcDbEntity
  8
0-0
100
AcDbText
  6
CONTINUOUS
 10
115.365875465379
 20
308.93292390955
 40
3
  1
CW
  7
Font_0
 11
115.365875465379
 21
311.93292390955
100
AcDbText
 73
3
  0
TEXT
  5
4E7
100
AcDbEntity
  8
0-0
100
AcDbText
  6
CONTINUOUS
 10
82.8866880056425
 20
175.384332716392
 40
6
  1
MCRP204Di
  7
Font_0
 11
82.8866880056425
 21
181.384332716392
100
AcDbText
 73
3
  0
TEXT
  5
4E8
100
AcDbEntity
  8
0-0
100
AcDbText
  6
CONTINUOUS
 10
170.451230420311
 20
164.523269225812
 40
3.5
  1
CW
  7
Font_0
 11
170.451230420311
 21
168.023269225812
100
AcDbText
 73
3
  0
TEXT
  5
4E9
100
AcDbEntity
  8
0-0
100
AcDbText
  6
CONTINUOUS
 10
155.834295895769
 20
164.523269225812
 40
3.5
  1
CCW
  7
Font_0
 11
155.834295895769
 21
168.023269225812
100
AcDbText
 73
3
  0
LINE
  5
4EA
100
AcDbEntity
  8
0-0
100
AcDbLine
  6
CONTINUOUS
370
13
 10
170.373431310895
 20
178.640174085997
 11
159.593523310895
 21
178.640174085997
  0
LINE
  5
4EB
100
AcDbEntity
  8
0-0
100
AcDbLine
  6
CONTINUOUS
370
13
 10
170.973431310895
 20
170.747949870082
 11
170.973431310895
 21
178.202931747165
  0
LINE
  5
4EC
100
AcDbEntity
  8
0-0
100
AcDbLine
  6
CONTINUOUS
370
13
 10
159.593523310895
 20
170.310707531251
 11
170.373431310895
 21
170.310707531251
  0
LINE
  5
4ED
100
AcDbEntity
  8
0-0
100
AcDbLine
  6
CONTINUOUS
370
13
 10
158.993523310895
 20
178.202931747165
 11
158.993523310895
 21
170.747949870082
  0
LINE
  5
4EE
100
AcDbEntity
  8
0-0
100
AcDbLine
  6
CONTINUOUS
370
13
 10
163.654919310895
 20
178.640174085997
 11
163.654919310895
 21
170.310707531251
  0
LINE
  5
4EF
100
AcDbEntity
  8
0-0
100
AcDbLine
  6
CONTINUOUS
370
13
 10
167.965683310895
 20
178.640174085997
 11
167.965683310895
 21
170.310707531251
  0
LINE
  5
4F0
100
AcDbEntity
  8
0-0
100
AcDbLine
  6
CONTINUOUS
370
13
 10
170.453976310895
 20
178.640174085997
 11
170.453976310895
 21
170.310707531251
  0
LINE
  5
4F1
100
AcDbEntity
  8
0-0
100
AcDbLine
  6
CONTINUOUS
370
13
 10
158.464826310895
 20
170.39451231286
 11
159.240288310895
 21
170.39451231286
  0
LINE
  5
4F2
100
AcDbEntity
  8
0-0
100
AcDbLine
  6
CONTINUOUS
370
13
 10
170.726666310895
 20
170.39451231286
 11
171.572152310895
 21
170.39451231286
  0
LINE
  5
4F3
100
AcDbEntity
  8
0-0
100
AcDbLine
  6
CONTINUOUS
370
13
 10
170.726666310895
 20
178.556369304387
 11
171.572152310895
 21
178.556369304387
  0
LINE
  5
4F4
100
AcDbEntity
  8
0-0
100
AcDbLine
  6
CONTINUOUS
370
13
 10
158.464826310895
 20
178.556369304387
 11
159.240288310895
 21
178.556369304387
  0
LINE
  5
4F5
100
AcDbEntity
  8
0-0
100
AcDbLine
  6
CONTINUOUS
370
13
 10
158.464826310895
 20
170.030143697167
 11
158.464826310895
 21
178.92073792008
  0
LINE
  5
4F6
100
AcDbEntity
  8
0-0
100
AcDbLine
  6
CONTINUOUS
370
13
 10
171.572152310895
 20
170.030143697167
 11
171.572152310895
 21
178.92073792008
  0
LINE
  5
4F7
100
AcDbEntity
  8
0-0
100
AcDbLine
  6
CONTINUOUS
370
13
 10
169.018489310895
 20
170.285201728152
 11
169.018489310895
 21
170.030143697167
  0
LINE
  5
4F8
100
AcDbEntity
  8
0-0
100
AcDbLine
  6
CONTINUOUS
370
13
 10
168.018489310895
 20
170.285201728152
 11
168.018489310895
 21
170.030143697167
  0
LINE
  5
4F9
100
AcDbEntity
  8
0-0
100
AcDbLine
  6
CONTINUOUS
370
13
 10
161.018489310895
 20
170.030143697167
 11
161.018489310895
 21
170.285201728152
  0
LINE
  5
4FA
100
AcDbEntity
  8
0-0
100
AcDbLine
  6
CONTINUOUS
370
13
 10
162.018489310895
 20
170.030143697167
 11
162.018489310895
 21
170.285201728152
  0
LINE
  5
4FB
100
AcDbEntity
  8
0-0
100
AcDbLine
  6
CONTINUOUS
370
13
 10
162.018489310895
 20
170.030143697167
 11
162.018489310895
 21
170.285201728152
  0
LINE
  5
4FC
100
AcDbEntity
  8
0-0
100
AcDbLine
  6
CONTINUOUS
370
13
 10
168.018489310895
 20
178.92073792008
 11
168.018489310895
 21
178.665679889095
  0
LINE
  5
4FD
100
AcDbEntity
  8
0-0
100
AcDbLine
  6
CONTINUOUS
370
13
 10
169.018489310895
 20
178.92073792008
 11
169.018489310895
 21
178.665679889095
  0
LINE
  5
4FE
100
AcDbEntity
  8
0-0
100
AcDbLine
  6
CONTINUOUS
370
13
 10
162.018489310895
 20
178.92073792008
 11
171.522152310895
 21
178.92073792008
  0
LINE
  5
4FF
100
AcDbEntity
  8
0-0
100
AcDbLine
  6
CONTINUOUS
370
13
 10
162.018489310895
 20
178.665679889095
 11
162.018489310895
 21
178.92073792008
  0
LINE
  5
500
100
AcDbEntity
  8
0-0
100
AcDbLine
  6
CONTINUOUS
370
13
 10
161.018489310895
 20
178.92073792008
 11
162.018489310895
 21
178.92073792008
  0
LINE
  5
501
100
AcDbEntity
  8
0-0
100
AcDbLine
  6
CONTINUOUS
370
13
 10
161.018489310895
 20
178.665679889095
 11
161.018489310895
 21
178.92073792008
  0
LINE
  5
502
100
AcDbEntity
  8
0-0
100
AcDbLine
  6
CONTINUOUS
370
13
 10
171.522152310895
 20
178.92073792008
 11
173.618489310895
 21
178.92073792008
  0
LINE
  5
503
100
AcDbEntity
  8
0-0
100
AcDbLine
  6
CONTINUOUS
370
13
 10
171.522152310895
 20
170.030143697167
 11
158.514826310895
 21
170.030143697167
  0
LINE
  5
504
100
AcDbEntity
  8
0-0
100
AcDbLine
  6
CONTINUOUS
370
13
 10
158.514826310895
 20
178.92073792008
 11
161.018489310895
 21
178.92073792008
  0
LINE
  5
505
100
AcDbEntity
  8
0-0
100
AcDbLine
  6
CONTINUOUS
370
13
 10
158.514826310895
 20
170.030143697167
 11
156.418489310895
 21
170.030143697167
  0
LINE
  5
506
100
AcDbEntity
  8
0-0
100
AcDbLine
  6
CONTINUOUS
370
13
 10
173.618489310895
 20
170.030143697167
 11
171.522152310895
 21
170.030143697167
  0
LINE
  5
507
100
AcDbEntity
  8
0-0
100
AcDbLine
  6
CONTINUOUS
370
13
 10
174.018489310895
 20
178.629243027526
 11
174.018489310895
 21
170.321638589721
  0
LINE
  5
508
100
AcDbEntity
  8
0-0
100
AcDbLine
  6
CONTINUOUS
370
13
 10
156.418489310895
 20
178.92073792008
 11
158.514826310895
 21
178.92073792008
  0
LINE
  5
509
100
AcDbEntity
  8
0-0
100
AcDbLine
  6
CONTINUOUS
370
13
 10
156.018489310895
 20
170.321638589721
 11
156.018489310895
 21
178.629243027526
  0
ELLIPSE
  5
50A
100
AcDbEntity
  8
0-0
100
AcDbEllipse
  6
CONTINUOUS
370
13
 10
159.593523310895
 20
170.747949870082
 30
0.0
 11
0.599999999999994
 21
0
 31
0.0
210
0.0
220
0.0
230
1.0
 40
0.728737231386378
 41
3.14159265358979
 42
4.71238898038469
  0
ELLIPSE
  5
50B
100
AcDbEntity
  8
0-0
100
AcDbEllipse
  6
CONTINUOUS
370
13
 10
170.373431310895
 20
170.747949870082
 30
0.0
 11
0.599999999999994
 21
0
 31
0.0
210
0.0
220
0.0
230
1.0
 40
0.728737231386378
 41
4.71238898038469
 42
6.28318530717959
  0
ELLIPSE
  5
50C
100
AcDbEntity
  8
0-0
100
AcDbEllipse
  6
CONTINUOUS
370
13
 10
170.373431310895
 20
178.202931747165
 30
0.0
 11
0.599999999999994
 21
0
 31
0.0
210
0.0
220
0.0
230
1.0
 40
0.72873723138633
 41
6.28318530717959
 42
7.85398163397448
  0
ELLIPSE
  5
50D
100
AcDbEntity
  8
0-0
100
AcDbEllipse
  6
CONTINUOUS
370
13
 10
159.593523310895
 20
178.202931747165
 30
0.0
 11
0.599999999999994
 21
0
 31
0.0
210
0.0
220
0.0
230
1.0
 40
0.72873723138633
 41
1.5707963267949
 42
3.14159265358979
  0
ELLIPSE
  5
50E
100
AcDbEntity
  8
0-0
100
AcDbEllipse
  6
CONTINUOUS
370
13
 10
173.618489310895
 20
170.321638589721
 30
0.0
 11
0.400000000000006
 21
0
 31
0.0
210
0.0
220
0.0
230
1.0
 40
0.728737231386337
 41
4.71238898038469
 42
6.28318530717959
  0
ELLIPSE
  5
50F
100
AcDbEntity
  8
0-0
100
AcDbEllipse
  6
CONTINUOUS
370
13
 10
173.618489310895
 20
178.629243027526
 30
0.0
 11
0.400000000000006
 21
0
 31
0.0
210
0.0
220
0.0
230
1.0
 40
0.728737231386408
 41
6.28318530717959
 42
7.85398163397448
  0
ELLIPSE
  5
510
100
AcDbEntity
  8
0-0
100
AcDbEllipse
  6
CONTINUOUS
370
13
 10
156.418489310895
 20
178.629243027526
 30
0.0
 11
0.400000000000006
 21
0
 31
0.0
210
0.0
220
0.0
230
1.0
 40
0.728737231386337
 41
1.5707963267949
 42
3.14159265358979
  0
ELLIPSE
  5
511
100
AcDbEntity
  8
0-0
100
AcDbEllipse
  6
CONTINUOUS
370
13
 10
156.418489310895
 20
170.321638589721
 30
0.0
 11
0.400000000000006
 21
0
 31
0.0
210
0.0
220
0.0
230
1.0
 40
0.728737231386408
 41
3.14159265358979
 42
4.71238898038469
  0
LINE
  5
512
100
AcDbEntity
  8
0-0
100
AcDbLine
  6
CONTINUOUS
370
13
 10
146.412560710632
 20
234.239165973394
 11
146.412560710632
 21
245.039165973394
  0
LINE
  5
513
100
AcDbEntity
  8
0-0
100
AcDbLine
  6
CONTINUOUS
370
13
 10
136.412560710632
 20
234.239165973394
 11
136.412560710632
 21
245.039165973394
  0
LINE
  5
514
100
AcDbEntity
  8
0-0
100
AcDbLine
  6
CONTINUOUS
370
13
 10
146.412560710632
 20
245.039165973394
 11
136.412043934871
 21
245.039165973394
  0
LINE
  5
515
100
AcDbEntity
  8
0-0
100
AcDbLine
  6
CONTINUOUS
370
13
 10
146.412560710632
 20
234.239165973394
 11
136.412043934871
 21
234.239165973394
  0
LINE
  5
516
100
AcDbEntity
  8
0-0
100
AcDbLine
  6
CONTINUOUS
370
13
 10
258.554252729685
 20
101.366158979239
 11
258.554252729685
 21
93.9661589792388
  0
LINE
  5
517
100
AcDbEntity
  8
0-0
100
AcDbLine
  6
CONTINUOUS
370
13
 10
258.554252729685
 20
93.9661589792388
 11
258.754252729684
 21
93.766158979239
  0
LINE
  5
518
100
AcDbEntity
  8
0-0
100
AcDbLine
  6
CONTINUOUS
370
13
 10
258.754252729684
 20
101.566158979239
 11
258.554252729685
 21
101.366158979239
  0
CIRCLE
  5
519
100
AcDbEntity
  8
0-0
100
AcDbCircle
  6
CONTINUOUS
370
13
 10
144.016130546908
 20
97.6661589792383
 40
4
  0
LINE
  5
51A
100
AcDbEntity
  8
0-0
100
AcDbLine
  6
CONTINUOUS
370
13
 10
139.216130546908
 20
234.039165973394
 11
143.616130546908
 21
234.039165973394
  0
LINE
  5
51B
100
AcDbEntity
  8
0-0
100
AcDbLine
  6
CONTINUOUS
370
13
 10
143.616130546908
 20
234.039165973394
 11
143.816130546908
 21
234.239165973394
  0
LINE
  5
51C
100
AcDbEntity
  8
0-0
100
AcDbLine
  6
CONTINUOUS
370
13
 10
139.016130546908
 20
234.239165973394
 11
139.216130546908
 21
234.039165973394
  0
LINE
  5
51D
100
AcDbEntity
  8
0-0
100
AcDbLine
  6
CONTINUOUS
370
13
 10
108.516130546908
 20
89.1661589792394
 11
103.516130546908
 21
89.1661589792393
  0
LINE
  5
51E
100
AcDbEntity
  8
0-0
100
AcDbLine
  6
CONTINUOUS
370
13
 10
273.754252729684
 20
148.169728815515
 11
273.754252729684
 21
150.670245591276
  0
CIRCLE
  5
51F
100
AcDbEntity
  8
0-0
100
AcDbCircle
  6
CONTINUOUS
370
13
 10
144.016130546908
 20
97.6661589792385
 40
3
  0
LINE
  5
520
100
AcDbEntity
  8
0-0
100
AcDbLine
  6
CONTINUOUS
370
13
 10
142.162080925136
 20
98.4161589792383
 11
143.266130546909
 21
98.4161589792383
  0
LINE
  5
521
100
AcDbEntity
  8
0-0
100
AcDbLine
  6
CONTINUOUS
370
13
 10
142.162080925136
 20
96.9161589792382
 11
143.266130546908
 21
96.9161589792381
  0
LINE
  5
522
100
AcDbEntity
  8
0-0
100
AcDbLine
  6
CONTINUOUS
370
13
 10
143.266130546909
 20
95.812109357466
 11
143.266130546908
 21
96.9161589792381
  0
LINE
  5
523
100
AcDbEntity
  8
0-0
100
AcDbLine
  6
CONTINUOUS
370
13
 10
144.766130546909
 20
95.812109357466
 11
144.766130546908
 21
96.9161589792381
  0
LINE
  5
524
100
AcDbEntity
  8
0-0
100
AcDbLine
  6
CONTINUOUS
370
13
 10
145.870180168682
 20
98.4161589792382
 11
145.870180168682
 21
96.9161589792381
  0
LINE
  5
525
100
AcDbEntity
  8
0-0
100
AcDbLine
  6
CONTINUOUS
370
13
 10
142.162080925134
 20
98.4161589792382
 11
142.162080925134
 21
96.9161589792381
  0
LINE
  5
526
100
AcDbEntity
  8
0-0
100
AcDbLine
  6
CONTINUOUS
370
13
 10
143.266130546908
 20
95.8121093574643
 11
144.766130546909
 21
95.8121093574645
  0
LINE
  5
527
100
AcDbEntity
  8
0-0
100
AcDbLine
  6
CONTINUOUS
370
13
 10
143.266130546908
 20
99.5202086010123
 11
144.766130546909
 21
99.5202086010123
  0
LINE
  5
528
100
AcDbEntity
  8
0-0
100
AcDbLine
  6
CONTINUOUS
370
13
 10
144.766130546908
 20
96.9161589792381
 11
145.870180168682
 21
96.9161589792381
  0
LINE
  5
529
100
AcDbEntity
  8
0-0
100
AcDbLine
  6
CONTINUOUS
370
13
 10
143.266130546909
 20
98.4161589792383
 11
143.266130546908
 21
99.5202086010123
  0
LINE
  5
52A
100
AcDbEntity
  8
0-0
100
AcDbLine
  6
CONTINUOUS
370
13
 10
144.766130546909
 20
98.4161589792382
 11
145.870180168682
 21
98.4161589792382
  0
LINE
  5
52B
100
AcDbEntity
  8
0-0
100
AcDbLine
  6
CONTINUOUS
370
13
 10
144.766130546909
 20
98.4161589792382
 11
144.766130546909
 21
99.5202086010123
  0
CIRCLE
  5
52C
100
AcDbEntity
  8
0-0
100
AcDbCircle
  6
CONTINUOUS
370
13
 10
144.016130546908
 20
97.6661589792383
 40
4.2
  0
LINE
  5
52D
100
AcDbEntity
  8
0-0
100
AcDbLine
  6
CONTINUOUS
370
13
 10
158.791130546908
 20
122.409037386022
 11
158.791130546908
 21
120.923280572456
  0
LINE
  5
52E
100
AcDbEntity
  8
0-0
100
AcDbLine
  6
CONTINUOUS
370
13
 10
158.016130546908
 20
122.856483844644
 11
158.791130546908
 21
122.409037386022
  0
LINE
  5
52F
100
AcDbEntity
  8
0-0
100
AcDbLine
  6
CONTINUOUS
370
13
 10
158.016130546908
 20
120.475834113834
 11
158.791130546908
 21
120.923280572456
  0
ARC
  5
530
100
AcDbEntity
  8
0-0
100
AcDbCircle
  6
CONTINUOUS
370
13
 10
157.516130546908
 20
121.666158979239
 40
2.7
100
AcDbArc
 50
-79.328070714235
 51
79.3280707142368
  0
ARC
  5
531
100
AcDbEntity
  8
0-0
100
AcDbCircle
  6
CONTINUOUS
370
13
 10
157.516130546908
 20
121.666158979239
 40
3
100
AcDbArc
 50
-80.4059317731372
 51
80.4059317731377
  0
LINE
  5
532
100
AcDbEntity
  8
0-0
100
AcDbLine
  6
DIVIDE
370
13
 10
193.781502351268
 20
119.470006556532
 11
185.781502351268
 21
105.613600095981
  0
LINE
  5
533
100
AcDbEntity
  8
0-0
100
AcDbLine
  6
DIVIDE
370
13
 10
189.281502351268
 20
127.264235190592
 11
193.781502351268
 21
119.470006556532
  0
LINE
  5
534
100
AcDbEntity
  8
0-0
100
AcDbLine
  6
DIVIDE
370
13
 10
189.281502351268
 20
127.264235190592
 11
185.183426139915
 21
128.362311401945
  0
LINE
  5
535
100
AcDbEntity
  8
0-0
100
AcDbLine
  6
DIVIDE
370
13
 10
94.5147801292466
 20
141.287902517905
 11
81.5633797173637
 21
141.287902517905
  0
LINE
  5
536
100
AcDbEntity
  8
0-0
100
AcDbLine
  6
DIVIDE
370
13
 10
94.5147801292466
 20
139.687902517905
 11
81.4983641755872
 21
139.687902517905
  0
LINE
  5
537
100
AcDbEntity
  8
0-0
100
AcDbLine
  6
DIVIDE
370
13
 10
94.5147801292466
 20
103.535379650227
 11
82.1633147813448
 21
103.535379650227
  0
LINE
  5
538
100
AcDbEntity
  8
0-0
100
AcDbLine
  6
DIVIDE
370
13
 10
94.5147801292466
 20
101.935379650227
 11
82.192867300334
 21
101.935379650227
  0
LWPOLYLINE
  5
539
100
AcDbEntity
  8
0-0
100
AcDbPolyline
  6
DIVIDE
370
13
 90
     28
 10
81.530938486386
  20
141.302732396525
 10
81.6209029662088
  20
141.249899255649
 10
81.7030890243158
  20
141.196692149821
 10
81.7760566220313
  20
141.143094341575
 10
81.8383657206796
  20
141.089089093445
 10
81.8885762815852
  20
141.034659667965
 10
81.9252482660725
  20
140.979789327669
 10
81.9469416354657
  20
140.924461335091
 10
81.9522163510892
  20
140.868658952765
 10
81.9396323742674
  20
140.812365443225
 10
81.9018217761791
  20
140.746126510868
 10
81.8433852944701
  20
140.679262640898
 10
81.7699138530939
  20
140.611838816224
 10
81.686998376004
  20
140.543920019753
 10
81.6002297871542
  20
140.475571234391
 10
81.5151990104979
  20
140.406857443046
 10
81.4374969699888
  20
140.337843628625
 10
81.3727145895805
  20
140.268594774036
 10
81.3264427932265
  20
140.199175862185
 10
81.3060366224847
  20
140.144468196419
 10
81.2993107004608
  20
140.089681037211
 10
81.3050229113928
  20
140.034799947539
 10
81.3219311395186
  20
139.979810490382
 10
81.3487932690762
  20
139.924698228716
 10
81.3843671843038
  20
139.869448725519
 10
81.4274107694393
  20
139.81404754377
 10
81.4766819087207
  20
139.758480246446
 10
81.530938486386
  20
139.702732396525
  0
LWPOLYLINE
  5
53A
100
AcDbEntity
  8
0-0
100
AcDbPolyline
  6
DIVIDE
370
13
 90
     28
 10
81.530938486386
  20
141.302732396525
 10
81.4808604873045
  20
141.251871887154
 10
81.435000368695
  20
141.202673252168
 10
81.3944937105039
  20
141.154758318373
 10
81.3604760926778
  20
141.107748912575
 10
81.3340830951632
  20
141.06126686158
 10
81.3164502979066
  20
141.014933992197
 10
81.3087132808543
  20
140.96837213123
 10
81.3120076239531
  20
140.921203105487
 10
81.3274689071493
  20
140.873048741773
 10
81.3559973284731
  20
140.823026762113
 10
81.3947416617059
  20
140.772762961493
 10
81.4402084759182
  20
140.723420729541
 10
81.4889043401805
  20
140.676163455883
 10
81.5373358235633
  20
140.632154530148
 10
81.5820094951372
  20
140.592557341962
 10
81.6194319239728
  20
140.558535280954
 10
81.6461096791405
  20
140.53125173675
 10
81.6585493297109
  20
140.511870098978
 10
81.6590418795163
  20
140.508927992476
 10
81.6588329327555
  20
140.50635677462
 10
81.6579912015478
  20
140.504133562756
 10
81.6565853980124
  20
140.502235474231
 10
81.6546842342686
  20
140.500639626394
 10
81.6523564224357
  20
140.499323136591
 10
81.6496706746329
  20
140.49826312217
 10
81.6466957029795
  20
140.497436700478
 10
81.6435002195947
  20
140.496820988862
  0
LWPOLYLINE
  5
53B
100
AcDbEntity
  8
0-0
100
AcDbPolyline
  6
DIVIDE
370
13
 90
     28
 10
82.198271921174
  20
103.542669160616
 10
82.2882364009967
  20
103.48983601974
 10
82.3704224591037
  20
103.436628913912
 10
82.4433900568192
  20
103.383031105666
 10
82.5056991554675
  20
103.329025857536
 10
82.5559097163731
  20
103.274596432056
 10
82.5925817008604
  20
103.21972609176
 10
82.6142750702536
  20
103.164398099183
 10
82.6195497858771
  20
103.108595716857
 10
82.6069658090553
  20
103.052302207317
 10
82.5691552109671
  20
102.986063274959
 10
82.5107187292581
  20
102.919199404989
 10
82.4372472878819
  20
102.851775580315
 10
82.354331810792
  20
102.783856783844
 10
82.2675632219422
  20
102.715507998482
 10
82.1825324452859
  20
102.646794207137
 10
82.1048304047767
  20
102.577780392716
 10
82.0400480243684
  20
102.508531538127
 10
81.9937762280144
  20
102.439112626276
 10
81.9733700572726
  20
102.38440496051
 10
81.9666441352487
  20
102.329617801302
 10
81.9723563461807
  20
102.27473671163
 10
81.9892645743065
  20
102.219747254473
 10
82.0161267038642
  20
102.164634992807
 10
82.0517006190918
  20
102.10938548961
 10
82.0947442042272
  20
102.053984307861
 10
82.1440153435086
  20
101.998417010537
 10
82.198271921174
  20
101.942669160616
  0
LWPOLYLINE
  5
53C
100
AcDbEntity
  8
0-0
100
AcDbPolyline
  6
DIVIDE
370
13
 90
     28
 10
82.198271921174
  20
103.542669160616
 10
82.1481939220924
  20
103.491808651246
 10
82.1023338034829
  20
103.442610016259
 10
82.0618271452918
  20
103.394695082464
 10
82.0278095274658
  20
103.347685676666
 10
82.0014165299511
  20
103.301203625672
 10
81.9837837326945
  20
103.254870756288
 10
81.9760467156423
  20
103.208308895321
 10
81.979341058741
  20
103.161139869578
 10
81.9948023419372
  20
103.112985505864
 10
82.023330763261
  20
103.062963526204
 10
82.0620750964938
  20
103.012699725584
 10
82.1075419107062
  20
102.963357493632
 10
82.1562377749685
  20
102.916100219974
 10
82.2046692583513
  20
102.872091294239
 10
82.2493429299253
  20
102.832494106053
 10
82.2867653587609
  20
102.798472045045
 10
82.3134431139287
  20
102.771188500841
 10
82.3258827644991
  20
102.75180686307
 10
82.3263753143044
  20
102.748864756568
 10
82.3261663675436
  20
102.746293538711
 10
82.3253246363358
  20
102.744070326847
 10
82.3239188328004
  20
102.742172238322
 10
82.3220176690567
  20
102.740576390485
 10
82.3196898572237
  20
102.739259900683
 10
82.3170041094209
  20
102.738199886261
 10
82.3140291377674
  20
102.737373464569
 10
82.3108336543826
  20
102.736757752953
  0
LWPOLYLINE
  5
53D
100
AcDbEntity
  8
0-0
100
AcDbPolyline
  6
DIVIDE
370
13
 90
     28
 10
81.530938486386
  20
240.853995852013
 10
81.6209029662088
  20
240.801162711137
 10
81.7030890243158
  20
240.747955605309
 10
81.7760566220313
  20
240.694357797063
 10
81.8383657206796
  20
240.640352548933
 10
81.8885762815852
  20
240.585923123453
 10
81.9252482660725
  20
240.531052783157
 10
81.9469416354657
  20
240.475724790579
 10
81.9522163510892
  20
240.419922408253
 10
81.9396323742674
  20
240.363628898713
 10
81.9018217761791
  20
240.297389966356
 10
81.8433852944701
  20
240.230526096386
 10
81.7699138530939
  20
240.163102271712
 10
81.686998376004
  20
240.095183475241
 10
81.6002297871542
  20
240.026834689879
 10
81.5151990104979
  20
239.958120898534
 10
81.4374969699888
  20
239.889107084113
 10
81.3727145895805
  20
239.819858229524
 10
81.3264427932265
  20
239.750439317673
 10
81.3060366224847
  20
239.695731651907
 10
81.2993107004608
  20
239.640944492699
 10
81.3050229113928
  20
239.586063403027
 10
81.3219311395186
  20
239.53107394587
 10
81.3487932690762
  20
239.475961684204
 10
81.3843671843038
  20
239.420712181007
 10
81.4274107694393
  20
239.365310999258
 10
81.4766819087207
  20
239.309743701934
 10
81.530938486386
  20
239.253995852013
  0
LWPOLYLINE
  5
53E
100
AcDbEntity
  8
0-0
100
AcDbPolyline
  6
DIVIDE
370
13
 90
     28
 10
81.530938486386
  20
240.853995852013
 10
81.4808604873045
  20
240.803135342642
 10
81.435000368695
  20
240.753936707656
 10
81.3944937105039
  20
240.706021773861
 10
81.3604760926778
  20
240.659012368062
 10
81.3340830951632
  20
240.612530317068
 10
81.3164502979066
  20
240.566197447685
 10
81.3087132808543
  20
240.519635586718
 10
81.3120076239531
  20
240.472466560974
 10
81.3274689071493
  20
240.424312197261
 10
81.3559973284731
  20
240.374290217601
 10
81.3947416617059
  20
240.324026416981
 10
81.4402084759182
  20
240.274684185029
 10
81.4889043401805
  20
240.227426911371
 10
81.5373358235633
  20
240.183417985635
 10
81.5820094951372
  20
240.14382079745
 10
81.6194319239728
  20
240.109798736442
 10
81.6461096791405
  20
240.082515192238
 10
81.6585493297109
  20
240.063133554466
 10
81.6590418795163
  20
240.060191447964
 10
81.6588329327555
  20
240.057620230108
 10
81.6579912015478
  20
240.055397018244
 10
81.6565853980124
  20
240.053498929719
 10
81.6546842342686
  20
240.051903081882
 10
81.6523564224357
  20
240.050586592079
 10
81.6496706746329
  20
240.049526577658
 10
81.6466957029795
  20
240.048700155966
 10
81.6435002195947
  20
240.04808444435
  0
LINE
  5
53F
100
AcDbEntity
  8
0-0
100
AcDbLine
  6
DASHDOT
370
13
 10
80.9442539204281
 20
240.039165973394
 11
138.417883745518
 21
240.039165973394
  0
LINE
  5
540
100
AcDbEntity
  8
0-0
100
AcDbLine
  6
DIVIDE
370
13
 10
136.412560710632
 20
240.839165973393
 11
112.766130546908
 21
240.839165973393
  0
LINE
  5
541
100
AcDbEntity
  8
0-0
100
AcDbLine
  6
DIVIDE
370
13
 10
99.2661305469081
 20
240.839165973393
 11
81.5648568192162
 21
240.839165973393
  0
LINE
  5
542
100
AcDbEntity
  8
0-0
100
AcDbLine
  6
DIVIDE
370
13
 10
136.412560710632
 20
239.239165973393
 11
112.766130546908
 21
239.239165973393
  0
LINE
  5
543
100
AcDbEntity
  8
0-0
100
AcDbLine
  6
DIVIDE
370
13
 10
99.2661305469081
 20
239.239165973393
 11
81.5534732454207
 21
239.239165973393
  0
LINE
  5
544
100
AcDbEntity
  8
0-0
100
AcDbLine
  6
CONTINUOUS
370
13
 10
114.264780129247
 20
218.389647598888
 11
51.4565555449296
 21
218.389647598888
  0
LINE
  5
545
100
AcDbEntity
  8
0-0
100
AcDbLine
  6
CONTINUOUS
370
13
 10
51.9565555449296
 20
218.389647598888
 11
51.9565555449296
 21
254.039165973396
  0
LINE
  5
546
100
AcDbEntity
  8
0-0
100
AcDbLine
  6
CONTINUOUS
370
13
 10
51.9565555449296
 20
218.389647598888
 11
51.4389174547246
 21
220.321499251466
  0
LINE
  5
547
100
AcDbEntity
  8
0-0
100
AcDbLine
  6
CONTINUOUS
370
13
 10
51.9565555449296
 20
218.389647598888
 11
52.4741936351347
 21
220.321499251466
  0
LINE
  5
548
100
AcDbEntity
  8
0-0
100
AcDbLine
  6
CONTINUOUS
370
13
 10
51.9565555449296
 20
254.039165973396
 11
52.4741936351347
 21
252.107314320818
  0
LINE
  5
549
100
AcDbEntity
  8
0-0
100
AcDbLine
  6
CONTINUOUS
370
13
 10
51.9565555449296
 20
254.039165973396
 11
51.4389174547246
 21
252.107314320818
  0
TEXT
  5
54A
100
AcDbEntity
  8
0-0
100
AcDbText
  6
CONTINUOUS
 10
51.7065555449296
 20
228.214406786142
 40
8
  1
35.7
  7
Font_0
 50
90
 72
1
 11
51.7065555449296
 21
236.214406786142
100
AcDbText
  0
LINE
  5
54B
100
AcDbEntity
  8
0-0
100
AcDbLine
  6
CONTINUOUS
370
13
 10
69.521947610434
 20
254.039165973396
 11
51.4565555449296
 21
254.039165973396
  0
LINE
  5
54C
100
AcDbEntity
  8
0-0
100
AcDbLine
  6
CONTINUOUS
370
13
 10
159.918514310895
 20
389.660076973396
 11
51.4565555449296
 21
389.660076973396
  0
LINE
  5
54D
100
AcDbEntity
  8
0-0
100
AcDbLine
  6
CONTINUOUS
370
13
 10
51.9565555449296
 20
389.660076973396
 11
51.9565555449296
 21
384.039165973396
  0
LINE
  5
54E
100
AcDbEntity
  8
0-0
100
AcDbLine
  6
CONTINUOUS
370
13
 10
51.9565555449296
 20
389.660076973396
 11
51.4389174547246
 21
391.591928625974
  0
LINE
  5
54F
100
AcDbEntity
  8
0-0
100
AcDbLine
  6
CONTINUOUS
370
13
 10
51.9565555449296
 20
389.660076973396
 11
52.4741936351347
 21
391.591928625974
  0
LINE
  5
550
100
AcDbEntity
  8
0-0
100
AcDbLine
  6
CONTINUOUS
370
13
 10
51.9565555449296
 20
384.039165973396
 11
52.4741936351347
 21
382.107314320818
  0
LINE
  5
551
100
AcDbEntity
  8
0-0
100
AcDbLine
  6
CONTINUOUS
370
13
 10
51.9565555449296
 20
384.039165973396
 11
51.4389174547246
 21
382.107314320818
  0
TEXT
  5
552
100
AcDbEntity
  8
0-0
100
AcDbText
  6
CONTINUOUS
 10
51.7065555449296
 20
380.849621473396
 40
8
  1
5.6
  7
Font_0
 50
90
 72
1
 11
51.7065555449296
 21
386.849621473396
100
AcDbText
  0
LINE
  5
553
100
AcDbEntity
  8
0-0
100
AcDbLine
  6
CONTINUOUS
370
13
 10
70.9933727632348
 20
384.039165973396
 11
51.4565555449296
 21
384.039165973396
  0
LINE
  5
554
100
AcDbEntity
  8
0-0
100
AcDbLine
  6
CONTINUOUS
370
13
 10
282.754252729684
 20
147.699026437516
 11
282.754252729684
 21
129.902308595167
  0
LINE
  5
555
100
AcDbEntity
  8
0-0
100
AcDbLine
  6
CONTINUOUS
370
13
 10
282.754252729684
 20
125.2863118969
 11
282.754252729684
 21
116.0487068969
  0
LINE
  5
556
100
AcDbEntity
  8
0-0
100
AcDbLine
  6
CONTINUOUS
370
13
 10
282.754252729684
 20
106.286311396896
 11
282.754252729684
 21
97.0487063968965
  0
LINE
  5
557
100
AcDbEntity
  8
0-0
100
AcDbLine
  6
CONTINUOUS
370
13
 10
116.016130546908
 20
225.03964759889
 11
134.016130546908
 21
225.03964759889
  0
LINE
  5
558
100
AcDbEntity
  8
0-0
100
AcDbLine
  6
CONTINUOUS
370
13
 10
144.016130546908
 20
225.03964759889
 11
134.016130546908
 21
225.03964759889
  0
LINE
  5
559
100
AcDbEntity
  8
0-0
100
AcDbLine
  6
CONTINUOUS
370
13
 10
146.016130546908
 20
230.039165973396
 11
146.016130546908
 21
227.03964759889
  0
LINE
  5
55A
100
AcDbEntity
  8
0-0
100
AcDbLine
  6
CONTINUOUS
370
13
 10
114.016130546908
 20
227.03964759889
 11
116.016130546908
 21
225.03964759889
  0
LINE
  5
55B
100
AcDbEntity
  8
0-0
100
AcDbLine
  6
CONTINUOUS
370
13
 10
146.016130546908
 20
227.03964759889
 11
144.016130546908
 21
225.03964759889
  0
LINE
  5
55C
100
AcDbEntity
  8
0-0
100
AcDbLine
  6
CONTINUOUS
370
13
 10
146.016130546908
 20
245.039165973396
 11
107.016130546908
 21
245.039165973396
  0
LINE
  5
55D
100
AcDbEntity
  8
0-0
100
AcDbLine
  6
CONTINUOUS
370
13
 10
153.016130546908
 20
245.039165973396
 11
146.016130546908
 21
245.039165973396
  0
LINE
  5
55E
100
AcDbEntity
  8
0-0
100
AcDbLine
  6
CONTINUOUS
370
13
 10
136.412560710632
 20
235.039165973396
 11
130.016130546908
 21
235.039165973396
  0
LINE
  5
55F
100
AcDbEntity
  8
0-0
100
AcDbLine
  6
CONTINUOUS
370
13
 10
145.514780129247
 20
218.38964759889
 11
114.514780129247
 21
218.38964759889
  0
LINE
  5
560
100
AcDbEntity
  8
0-0
100
AcDbLine
  6
CONTINUOUS
370
13
 10
113.014780129247
 20
219.88964759889
 11
113.014780129247
 21
222.88964759889
  0
LINE
  5
561
100
AcDbEntity
  8
0-0
100
AcDbLine
  6
CONTINUOUS
370
13
 10
147.014780129247
 20
222.88964759889
 11
147.014780129247
 21
219.88964759889
  0
LINE
  5
562
100
AcDbEntity
  8
0-0
100
AcDbLine
  6
CONTINUOUS
370
13
 10
145.514780129247
 20
224.38964759889
 11
114.514780129247
 21
224.38964759889
  0
LINE
  5
563
100
AcDbEntity
  8
0-0
100
AcDbLine
  6
CONTINUOUS
370
13
 10
130.016130546908
 20
235.039165973396
 11
130.016130546908
 21
245.039165973396
  0
LINE
  5
564
100
AcDbEntity
  8
0-0
100
AcDbLine
  6
CONTINUOUS
370
13
 10
138.016130546908
 20
245.039165973396
 11
158.016130546908
 21
245.039165973396
  0
LINE
  5
565
100
AcDbEntity
  8
0-0
100
AcDbLine
  6
CONTINUOUS
370
13
 10
138.016130546908
 20
230.039165973396
 11
158.016130546908
 21
230.039165973396
  0
LINE
  5
566
100
AcDbEntity
  8
0-0
100
AcDbLine
  6
CONTINUOUS
370
13
 10
146.412560710632
 20
234.239165973397
 11
146.412560710632
 21
245.039165973397
  0
LINE
  5
567
100
AcDbEntity
  8
0-0
100
AcDbLine
  6
CONTINUOUS
370
13
 10
136.412560710632
 20
234.239165973397
 11
136.412560710632
 21
245.039165973397
  0
LINE
  5
568
100
AcDbEntity
  8
0-0
100
AcDbLine
  6
CONTINUOUS
370
13
 10
146.412560710632
 20
245.039165973397
 11
136.412043934871
 21
245.039165973397
  0
LINE
  5
569
100
AcDbEntity
  8
0-0
100
AcDbLine
  6
CONTINUOUS
370
13
 10
253.754734355178
 20
135.666158979239
 11
253.754734355178
 21
107.66615897924
  0
LINE
  5
56A
100
AcDbEntity
  8
0-0
100
AcDbLine
  6
CONTINUOUS
370
13
 10
255.754734355178
 20
137.666158979239
 11
253.754734355178
 21
135.666158979239
  0
LINE
  5
56B
100
AcDbEntity
  8
0-0
100
AcDbLine
  6
CONTINUOUS
370
13
 10
255.754734355178
 20
105.66615897924
 11
253.754734355178
 21
107.66615897924
  0
LINE
  5
56C
100
AcDbEntity
  8
0-0
100
AcDbLine
  6
CONTINUOUS
370
13
 10
273.754252729684
 20
98.6661589792395
 11
273.754252729684
 21
105.66615897924
  0
LINE
  5
56D
100
AcDbEntity
  8
0-0
100
AcDbLine
  6
CONTINUOUS
370
13
 10
247.104734355178
 20
106.166158979239
 11
247.104734355178
 21
137.166158979239
  0
LINE
  5
56E
100
AcDbEntity
  8
0-0
100
AcDbLine
  6
CONTINUOUS
370
13
 10
251.604734355178
 20
138.666158979239
 11
248.604734355178
 21
138.666158979239
  0
LINE
  5
56F
100
AcDbEntity
  8
0-0
100
AcDbLine
  6
CONTINUOUS
370
13
 10
251.604734355178
 20
104.666158979239
 11
248.604734355178
 21
104.666158979239
  0
LINE
  5
570
100
AcDbEntity
  8
0-0
100
AcDbLine
  6
CONTINUOUS
370
13
 10
253.104734355178
 20
106.166158979239
 11
253.104734355178
 21
137.166158979239
  0
CIRCLE
  5
571
100
AcDbEntity
  8
0-0
100
AcDbCircle
  6
CONTINUOUS
370
13
 10
250.104734355178
 20
121.664808561578
 40
2
  0
CIRCLE
  5
572
100
AcDbEntity
  8
0-0
100
AcDbCircle
  6
CONTINUOUS
370
13
 10
250.104734355178
 20
121.664808561578
 40
1.65
  0
LINE
  5
573
100
AcDbEntity
  8
0-0
100
AcDbLine
  6
CONTINUOUS
370
13
 10
258.754252729684
 20
151.666158979239
 11
258.754252729684
 21
91.6661589792394
  0
LINE
  5
574
100
AcDbEntity
  8
0-0
100
AcDbLine
  6
CONTINUOUS
370
13
 10
265.254252729684
 20
151.666158979239
 11
258.754252729684
 21
151.666158979239
  0
LINE
  5
575
100
AcDbEntity
  8
0-0
100
AcDbLine
  6
CONTINUOUS
370
13
 10
270.254252729684
 20
151.666158979239
 11
273.754252729684
 21
151.666158979239
  0
LINE
  5
576
100
AcDbEntity
  8
0-0
100
AcDbLine
  6
CONTINUOUS
370
13
 10
258.754252729684
 20
94.6697288155154
 11
273.754252729684
 21
94.6697288155154
  0
LINE
  5
577
100
AcDbEntity
  8
0-0
100
AcDbLine
  6
CONTINUOUS
370
13
 10
273.754252729684
 20
91.6661589792394
 11
258.754252729684
 21
91.6661589792394
  0
LINE
  5
578
100
AcDbEntity
  8
0-0
100
AcDbLine
  6
CONTINUOUS
370
13
 10
258.754252729684
 20
137.809752518688
 11
270.177686780091
 21
137.809752518688
  0
LINE
  5
579
100
AcDbEntity
  8
0-0
100
AcDbLine
  6
CONTINUOUS
370
13
 10
258.754252729684
 20
105.52256543979
 11
273.754252729684
 21
105.52256543979
  0
LINE
  5
57A
100
AcDbEntity
  8
0-0
100
AcDbLine
  6
CONTINUOUS
370
13
 10
150.516130546908
 20
233.539165973396
 11
150.516130546908
 21
245.039165973396
  0
LINE
  5
57B
100
AcDbEntity
  8
0-0
100
AcDbLine
  6
CONTINUOUS
370
13
 10
138.016130546908
 20
234.239165973397
 11
138.016130546908
 21
230.039165973396
  0
LINE
  5
57C
100
AcDbEntity
  8
0-0
100
AcDbLine
  6
CONTINUOUS
370
13
 10
146.516130546908
 20
233.039165973396
 11
146.516130546908
 21
245.039165973396
  0
LINE
  5
57D
100
AcDbEntity
  8
0-0
100
AcDbLine
  6
CONTINUOUS
370
13
 10
146.516130546908
 20
241.039165973396
 11
150.516130546908
 21
241.039165973396
  0
LINE
  5
57E
100
AcDbEntity
  8
0-0
100
AcDbLine
  6
CONTINUOUS
370
13
 10
146.516130546908
 20
237.039165973396
 11
150.516130546908
 21
237.039165973396
  0
LINE
  5
57F
100
AcDbEntity
  8
0-0
100
AcDbLine
  6
CONTINUOUS
370
13
 10
152.366983507994
 20
233.539165973396
 11
150.516130546908
 21
233.539165973396
  0
LINE
  5
580
100
AcDbEntity
  8
0-0
100
AcDbLine
  6
CONTINUOUS
370
13
 10
156.366983507994
 20
243.539165973397
 11
156.366983507994
 21
245.039165973396
  0
LINE
  5
581
100
AcDbEntity
  8
0-0
100
AcDbLine
  6
CONTINUOUS
370
13
 10
138.016130546908
 20
233.039165973396
 11
146.516130546908
 21
233.039165973396
  0
LINE
  5
582
100
AcDbEntity
  8
0-0
100
AcDbLine
  6
CONTINUOUS
370
13
 10
141.016130546908
 20
230.039165973396
 11
141.016130546908
 21
233.039165973396
  0
ARC
  5
583
100
AcDbEntity
  8
0-0
100
AcDbCircle
  6
CONTINUOUS
370
13
 10
152.366983507994
 20
237.539165973396
 40
4
100
AcDbArc
 50
-90
 51
-48.5903778907175
  0
LINE
  5
584
100
AcDbEntity
  8
0-0
100
AcDbLine
  6
CONTINUOUS
370
13
 10
114.514780129247
 20
224.38964759889
 11
113.014780129247
 21
222.88964759889
  0
LINE
  5
585
100
AcDbEntity
  8
0-0
100
AcDbLine
  6
CONTINUOUS
370
13
 10
114.514780129247
 20
218.38964759889
 11
113.014780129247
 21
219.88964759889
  0
LINE
  5
586
100
AcDbEntity
  8
0-0
100
AcDbLine
  6
CONTINUOUS
370
13
 10
145.514780129247
 20
218.38964759889
 11
147.014780129247
 21
219.88964759889
  0
LINE
  5
587
100
AcDbEntity
  8
0-0
100
AcDbLine
  6
CONTINUOUS
370
13
 10
147.014780129247
 20
222.88964759889
 11
145.514780129247
 21
224.38964759889
  0
LINE
  5
588
100
AcDbEntity
  8
0-0
100
AcDbLine
  6
CONTINUOUS
370
13
 10
113.014780129247
 20
222.88964759889
 11
147.014780129247
 21
222.88964759889
  0
LINE
  5
589
100
AcDbEntity
  8
0-0
100
AcDbLine
  6
CONTINUOUS
370
13
 10
113.014780129247
 20
219.88964759889
 11
147.014780129247
 21
219.88964759889
  0
LINE
  5
58A
100
AcDbEntity
  8
0-0
100
AcDbLine
  6
CONTINUOUS
370
13
 10
248.604734355178
 20
138.666158979239
 11
247.104734355178
 21
137.166158979239
  0
LINE
  5
58B
100
AcDbEntity
  8
0-0
100
AcDbLine
  6
CONTINUOUS
370
13
 10
251.604734355178
 20
138.666158979239
 11
253.104734355178
 21
137.166158979239
  0
LINE
  5
58C
100
AcDbEntity
  8
0-0
100
AcDbLine
  6
CONTINUOUS
370
13
 10
248.604734355178
 20
104.666158979239
 11
247.104734355178
 21
106.166158979239
  0
LINE
  5
58D
100
AcDbEntity
  8
0-0
100
AcDbLine
  6
CONTINUOUS
370
13
 10
251.604734355178
 20
104.666158979239
 11
253.104734355178
 21
106.166158979239
  0
LINE
  5
58E
100
AcDbEntity
  8
0-0
100
AcDbLine
  6
CONTINUOUS
370
13
 10
271.218354344822
 20
140.169728815515
 11
273.754252729684
 21
140.169728815515
  0
LINE
  5
58F
100
AcDbEntity
  8
0-0
100
AcDbLine
  6
CONTINUOUS
370
13
 10
138.412076736575
 20
234.034379903162
 11
144.412513153227
 21
234.034379903162
  0
LINE
  5
590
100
AcDbEntity
  8
0-0
100
AcDbLine
  6
CONTINUOUS
370
13
 10
138.412091492276
 20
234.034379903162
 11
144.412513153227
 21
234.034379903162
  0
LINE
  5
591
100
AcDbEntity
  8
0-0
100
AcDbLine
  6
CONTINUOUS
370
13
 10
144.062076736575
 20
233.334379903162
 11
138.762076736575
 21
233.334379903162
  0
LINE
  5
592
100
AcDbEntity
  8
0-0
100
AcDbLine
  6
CONTINUOUS
370
13
 10
138.412076736575
 20
233.684379903162
 11
138.412076736575
 21
234.034379903162
  0
LINE
  5
593
100
AcDbEntity
  8
0-0
100
AcDbLine
  6
CONTINUOUS
370
13
 10
144.412076736575
 20
233.684379903162
 11
144.412076736575
 21
234.034379903162
  0
ARC
  5
594
100
AcDbEntity
  8
0-0
100
AcDbCircle
  6
CONTINUOUS
370
13
 10
138.762076736575
 20
233.684379903162
 40
0.35
100
AcDbArc
 50
180
 51
-90
  0
ARC
  5
595
100
AcDbEntity
  8
0-0
100
AcDbCircle
  6
CONTINUOUS
370
13
 10
144.062076736575
 20
233.684379903162
 40
0.35
100
AcDbArc
 50
-90
 51
0
  0
LINE
  5
596
100
AcDbEntity
  8
0-0
100
AcDbLine
  6
CONTINUOUS
370
13
 10
146.412560710632
 20
234.239165973397
 11
136.412043934871
 21
234.239165973397
  0
LINE
  5
597
100
AcDbEntity
  8
0-0
100
AcDbLine
  6
CONTINUOUS
370
13
 10
262.254252729684
 20
149.133830430654
 11
262.254252729684
 21
151.666158979239
  0
LINE
  5
598
100
AcDbEntity
  8
0-0
100
AcDbLine
  6
CONTINUOUS
370
13
 10
127.016130546909
 20
225.03964759889
 11
127.016130546908
 21
224.38964759889
  0
LINE
  5
599
100
AcDbEntity
  8
0-0
100
AcDbLine
  6
CONTINUOUS
370
13
 10
133.016130546909
 20
225.03964759889
 11
133.016130546909
 21
224.38964759889
  0
ARC
  5
59A
100
AcDbEntity
  8
0-0
100
AcDbCircle
  6
CONTINUOUS
370
13
 10
141.416130546908
 20
145.666158979239
 40
5
100
AcDbArc
 50
109.8363073669
 51
-132.843643043597
  0
CIRCLE
  5
59B
100
AcDbEntity
  8
0-0
100
AcDbCircle
  6
CONTINUOUS
370
13
 10
130.016130546908
 20
121.666158979239
 40
16
  0
CIRCLE
  5
59C
100
AcDbEntity
  8
0-0
100
AcDbCircle
  6
CONTINUOUS
370
13
 10
130.016130546908
 20
121.66615897924
 40
15
  0
LINE
  5
59D
100
AcDbEntity
  8
0-0
100
AcDbLine
  6
CONTINUOUS
370
13
 10
258.554252729684
 20
101.36615897924
 11
258.554252729684
 21
93.9661589792395
  0
LINE
  5
59E
100
AcDbEntity
  8
0-0
100
AcDbLine
  6
CONTINUOUS
370
13
 10
258.554252729684
 20
93.9661589792395
 11
258.754252729684
 21
93.7661589792396
  0
LINE
  5
59F
100
AcDbEntity
  8
0-0
100
AcDbLine
  6
CONTINUOUS
370
13
 10
258.754252729684
 20
101.566158979239
 11
258.554252729684
 21
101.36615897924
  0
CIRCLE
  5
5A0
100
AcDbEntity
  8
0-0
100
AcDbCircle
  6
CONTINUOUS
370
13
 10
144.016130546908
 20
97.6661589792389
 40
4
  0
LINE
  5
5A1
100
AcDbEntity
  8
0-0
100
AcDbLine
  6
CONTINUOUS
370
13
 10
139.216130546908
 20
234.039165973397
 11
143.616130546908
 21
234.039165973397
  0
LINE
  5
5A2
100
AcDbEntity
  8
0-0
100
AcDbLine
  6
CONTINUOUS
370
13
 10
143.616130546908
 20
234.039165973397
 11
143.816130546908
 21
234.239165973397
  0
LINE
  5
5A3
100
AcDbEntity
  8
0-0
100
AcDbLine
  6
CONTINUOUS
370
13
 10
139.016130546908
 20
234.239165973397
 11
139.216130546908
 21
234.039165973397
  0
ARC
  5
5A4
100
AcDbEntity
  8
0-0
100
AcDbCircle
  6
CONTINUOUS
370
13
 10
130.016130546908
 20
121.666158979239
 40
16
100
AcDbArc
 50
-59.6284372271245
 51
59.6284372271244
  0
LINE
  5
5A5
100
AcDbEntity
  8
0-0
100
AcDbLine
  6
CONTINUOUS
370
13
 10
138.016130546908
 20
106.828369386446
 11
138.016130546908
 21
94.6661589792389
  0
LINE
  5
5A6
100
AcDbEntity
  8
0-0
100
AcDbLine
  6
CONTINUOUS
370
13
 10
150.016130546908
 20
91.6661589792389
 11
158.016130546908
 21
105.52256543979
  0
LINE
  5
5A7
100
AcDbEntity
  8
0-0
100
AcDbLine
  6
CONTINUOUS
370
13
 10
150.4491432488
 20
150.916158979239
 11
158.016130546908
 21
137.809752518688
  0
LINE
  5
5A8
100
AcDbEntity
  8
0-0
100
AcDbLine
  6
CONTINUOUS
370
13
 10
149.150105143124
 20
151.666158979239
 11
141.016130546908
 21
151.666158979239
  0
LINE
  5
5A9
100
AcDbEntity
  8
0-0
100
AcDbLine
  6
CONTINUOUS
370
13
 10
141.016130546908
 20
91.6661589792389
 11
138.016130546908
 21
94.6661589792389
  0
LINE
  5
5AA
100
AcDbEntity
  8
0-0
100
AcDbLine
  6
CONTINUOUS
370
13
 10
141.016130546908
 20
151.666158979239
 11
138.016130546908
 21
148.666158979239
  0
LINE
  5
5AB
100
AcDbEntity
  8
0-0
100
AcDbLine
  6
CONTINUOUS
370
13
 10
141.016130546908
 20
91.6661589792389
 11
150.016130546908
 21
91.6661589792389
  0
LINE
  5
5AC
100
AcDbEntity
  8
0-0
100
AcDbLine
  6
CONTINUOUS
370
13
 10
158.016130546908
 20
137.809752518688
 11
158.016130546908
 21
105.52256543979
  0
LINE
  5
5AD
100
AcDbEntity
  8
0-0
100
AcDbLine
  6
CONTINUOUS
370
13
 10
138.016130546908
 20
136.503948572032
 11
138.016130546908
 21
148.666158979239
  0
ARC
  5
5AE
100
AcDbEntity
  8
0-0
100
AcDbCircle
  6
CONTINUOUS
370
13
 10
149.150105143124
 20
150.166158979239
 40
1.5
100
AcDbArc
 50
29.9999999999997
 51
89.9999999999984
  0
ARC
  5
5AF
100
AcDbEntity
  8
0-0
100
AcDbCircle
  6
CONTINUOUS
370
13
 10
144.016130546908
 20
106.828369386446
 40
6
100
AcDbArc
 50
170.080811044173
 51
180
  0
ARC
  5
5B0
100
AcDbEntity
  8
0-0
100
AcDbCircle
  6
CONTINUOUS
370
13
 10
144.016130546908
 20
136.503948572032
 40
6
100
AcDbArc
 50
180
 51
-170.080811044174
  0
LINE
  5
5B1
100
AcDbEntity
  8
0-0
100
AcDbLine
  6
CONTINUOUS
370
13
 10
151.016130546908
 20
150.166158979239
 11
166.513994591909
 21
150.166158979239
  0
LINE
  5
5B2
100
AcDbEntity
  8
0-0
100
AcDbLine
  6
CONTINUOUS
370
13
 10
156.078308373399
 20
141.166158979239
 11
166.513994591909
 21
141.166158979239
  0
ARC
  5
5B3
100
AcDbEntity
  8
0-0
100
AcDbCircle
  6
CONTINUOUS
370
13
 10
151.016130546908
 20
149.666158979239
 40
0.5
100
AcDbArc
 50
90
 51
104.457731776648
  0
LINE
  5
5B4
100
AcDbEntity
  8
0-0
100
AcDbLine
  6
CONTINUOUS
370
13
 10
150.516130546908
 20
235.039165973397
 11
150.516130546908
 21
243.039165973397
  0
LINE
  5
5B5
100
AcDbEntity
  8
0-0
100
AcDbLine
  6
CONTINUOUS
370
13
 10
151.016130546908
 20
243.539165973397
 11
166.513994591909
 21
243.539165973397
  0
LINE
  5
5B6
100
AcDbEntity
  8
0-0
100
AcDbLine
  6
CONTINUOUS
370
13
 10
151.016130546908
 20
234.539165973397
 11
166.513994591909
 21
234.539165973397
  0
ARC
  5
5B7
100
AcDbEntity
  8
0-0
100
AcDbCircle
  6
CONTINUOUS
370
13
 10
151.016130546908
 20
243.039165973397
 40
0.5
100
AcDbArc
 50
90
 51
180
  0
ARC
  5
5B8
100
AcDbEntity
  8
0-0
100
AcDbCircle
  6
CONTINUOUS
370
13
 10
151.016130546908
 20
235.039165973397
 40
0.5
100
AcDbArc
 50
180
 51
-90
  0
LINE
  5
5B9
100
AcDbEntity
  8
0-0
100
AcDbLine
  6
CONTINUOUS
370
13
 10
166.513994591909
 20
140.975743219416
 11
166.513994591909
 21
150.356574739063
  0
ARC
  5
5BA
100
AcDbEntity
  8
0-0
100
AcDbCircle
  6
CONTINUOUS
370
13
 10
171.013994591909
 20
145.66615897924
 40
6.5
100
AcDbArc
 50
-133.447711492946
 51
133.813061460403
  0
LINE
  5
5BB
100
AcDbEntity
  8
0-0
100
AcDbLine
  6
CONTINUOUS
370
13
 10
166.513994591909
 20
234.348581070488
 11
166.513994591909
 21
243.729412590135
  0
ARC
  5
5BC
100
AcDbEntity
  8
0-0
100
AcDbCircle
  6
CONTINUOUS
370
13
 10
171.013994591909
 20
239.038996830311
 40
6.5
100
AcDbArc
 50
-133.447711492946
 51
133.813061460403
  0
CIRCLE
  5
5BD
100
AcDbEntity
  8
0-0
100
AcDbCircle
  6
CONTINUOUS
370
13
 10
267.754252729684
 20
145.669728815516
 40
6.5
  0
LINE
  5
5BE
100
AcDbEntity
  8
0-0
100
AcDbLine
  6
CONTINUOUS
370
13
 10
108.516130546908
 20
89.1661589792401
 11
103.516130546908
 21
89.16615897924
  0
ARC
  5
5BF
100
AcDbEntity
  8
0-0
100
AcDbCircle
  6
CONTINUOUS
370
13
 10
130.016130546908
 20
121.666158979239
 40
23
100
AcDbArc
 50
-116.962388997481
 51
-69.6455936017628
  0
ARC
  5
5C0
100
AcDbEntity
  8
0-0
100
AcDbCircle
  6
CONTINUOUS
370
13
 10
130.016130546908
 20
121.666158979239
 40
23
100
AcDbArc
 50
72.7130547215597
 51
116.962388997479
  0
CIRCLE
  5
5C1
100
AcDbEntity
  8
0-0
100
AcDbCircle
  6
CONTINUOUS
370
13
 10
130.016130546908
 20
121.66615897924
 40
16.0013504176615
  0
LINE
  5
5C2
100
AcDbEntity
  8
0-0
100
AcDbLine
  6
CONTINUOUS
370
13
 10
158.016130546908
 20
245.039165973396
 11
158.016130546908
 21
243.539165973397
  0
LINE
  5
5C3
100
AcDbEntity
  8
0-0
100
AcDbLine
  6
CONTINUOUS
370
13
 10
158.016130546908
 20
234.539165973397
 11
158.016130546908
 21
230.039165973396
  0
LINE
  5
5C4
100
AcDbEntity
  8
0-0
100
AcDbLine
  6
CONTINUOUS
370
13
 10
273.754252729684
 20
151.666158979239
 11
273.754252729684
 21
148.169728815516
  0
LINE
  5
5C5
100
AcDbEntity
  8
0-0
100
AcDbLine
  6
CONTINUOUS
370
13
 10
273.754252729684
 20
148.169728815516
 11
273.754252729684
 21
150.670245591276
  0
LINE
  5
5C6
100
AcDbEntity
  8
0-0
100
AcDbLine
  6
CONTINUOUS
370
13
 10
273.754252729684
 20
143.169728815516
 11
273.754252729684
 21
109.035838955427
  0
LINE
  5
5C7
100
AcDbEntity
  8
0-0
100
AcDbLine
  6
CONTINUOUS
370
13
 10
273.754252729684
 20
109.035838955427
 11
273.754252729684
 21
91.6661589792394
  0
LINE
  5
5C8
100
AcDbEntity
  8
0-0
100
AcDbLine
  6
CONTINUOUS
370
13
 10
273.754252729684
 20
107.61615897924
 11
273.754252729684
 21
109.035838955427
  0
LINE
  5
5C9
100
AcDbEntity
  8
0-0
100
AcDbLine
  6
CONTINUOUS
370
13
 10
248.604734355178
 20
138.666158979239
 11
248.604734355178
 21
122.98768421711
  0
LINE
  5
5CA
100
AcDbEntity
  8
0-0
100
AcDbLine
  6
CONTINUOUS
370
13
 10
248.604734355178
 20
120.341932906046
 11
248.604734355178
 21
104.666158979239
  0
LINE
  5
5CB
100
AcDbEntity
  8
0-0
100
AcDbLine
  6
CONTINUOUS
370
13
 10
251.604734355178
 20
138.666158979239
 11
251.604734355178
 21
122.98768421711
  0
LINE
  5
5CC
100
AcDbEntity
  8
0-0
100
AcDbLine
  6
CONTINUOUS
370
13
 10
251.604734355178
 20
120.341932906046
 11
251.604734355178
 21
104.666158979239
  0
LINE
  5
5CD
100
AcDbEntity
  8
0-0
100
AcDbLine
  6
CONTINUOUS
370
13
 10
147.014780129247
 20
222.88964759889
 11
147.014780129247
 21
219.88964759889
  0
LINE
  5
5CE
100
AcDbEntity
  8
0-0
100
AcDbLine
  6
CONTINUOUS
370
13
 10
113.014780129247
 20
219.88964759889
 11
113.014780129247
 21
222.88964759889
  0
LINE
  5
5CF
100
AcDbEntity
  8
0-0
100
AcDbLine
  6
CONTINUOUS
370
13
 10
147.014780129247
 20
222.88964759889
 11
113.014780129247
 21
222.88964759889
  0
LINE
  5
5D0
100
AcDbEntity
  8
0-0
100
AcDbLine
  6
CONTINUOUS
370
13
 10
147.014780129247
 20
219.88964759889
 11
113.014780129247
 21
219.88964759889
  0
LINE
  5
5D1
100
AcDbEntity
  8
0-0
100
AcDbLine
  6
CONTINUOUS
370
13
 10
113.124505682722
 20
219.88964759889
 11
113.014780129247
 21
219.999373152366
  0
LINE
  5
5D2
100
AcDbEntity
  8
0-0
100
AcDbLine
  6
CONTINUOUS
370
13
 10
115.245826026282
 20
219.88964759889
 11
113.014780129247
 21
222.120693495926
  0
LINE
  5
5D3
100
AcDbEntity
  8
0-0
100
AcDbLine
  6
CONTINUOUS
370
13
 10
117.367146369842
 20
219.88964759889
 11
114.367146369842
 21
222.88964759889
  0
LINE
  5
5D4
100
AcDbEntity
  8
0-0
100
AcDbLine
  6
CONTINUOUS
370
13
 10
119.488466713402
 20
219.88964759889
 11
116.488466713402
 21
222.88964759889
  0
LINE
  5
5D5
100
AcDbEntity
  8
0-0
100
AcDbLine
  6
CONTINUOUS
370
13
 10
121.609787056961
 20
219.88964759889
 11
118.609787056961
 21
222.88964759889
  0
LINE
  5
5D6
100
AcDbEntity
  8
0-0
100
AcDbLine
  6
CONTINUOUS
370
13
 10
123.730235770933
 20
219.890519228478
 11
120.731107400521
 21
222.88964759889
  0
LINE
  5
5D7
100
AcDbEntity
  8
0-0
100
AcDbLine
  6
CONTINUOUS
370
13
 10
125.85242774408
 20
219.88964759889
 11
122.85242774408
 21
222.88964759889
  0
LINE
  5
5D8
100
AcDbEntity
  8
0-0
100
AcDbLine
  6
CONTINUOUS
370
13
 10
127.97374808764
 20
219.88964759889
 11
124.97374808764
 21
222.88964759889
  0
LINE
  5
5D9
100
AcDbEntity
  8
0-0
100
AcDbLine
  6
CONTINUOUS
370
13
 10
130.0950684312
 20
219.88964759889
 11
127.095068431199
 21
222.88964759889
  0
LINE
  5
5DA
100
AcDbEntity
  8
0-0
100
AcDbLine
  6
CONTINUOUS
370
13
 10
132.216388774759
 20
219.88964759889
 11
129.216388774759
 21
222.88964759889
  0
LINE
  5
5DB
100
AcDbEntity
  8
0-0
100
AcDbLine
  6
CONTINUOUS
370
13
 10
134.337709118319
 20
219.88964759889
 11
131.337709118319
 21
222.88964759889
  0
LINE
  5
5DC
100
AcDbEntity
  8
0-0
100
AcDbLine
  6
CONTINUOUS
370
13
 10
136.459029461879
 20
219.88964759889
 11
133.459029461879
 21
222.88964759889
  0
LINE
  5
5DD
100
AcDbEntity
  8
0-0
100
AcDbLine
  6
CONTINUOUS
370
13
 10
138.580349805438
 20
219.88964759889
 11
135.580349805438
 21
222.88964759889
  0
LINE
  5
5DE
100
AcDbEntity
  8
0-0
100
AcDbLine
  6
CONTINUOUS
370
13
 10
140.701670148998
 20
219.88964759889
 11
137.701670148998
 21
222.88964759889
  0
LINE
  5
5DF
100
AcDbEntity
  8
0-0
100
AcDbLine
  6
CONTINUOUS
370
13
 10
142.822990492558
 20
219.88964759889
 11
139.822990492557
 21
222.88964759889
  0
LINE
  5
5E0
100
AcDbEntity
  8
0-0
100
AcDbLine
  6
CONTINUOUS
370
13
 10
144.944310836117
 20
219.88964759889
 11
141.944310836117
 21
222.88964759889
  0
LINE
  5
5E1
100
AcDbEntity
  8
0-0
100
AcDbLine
  6
CONTINUOUS
370
13
 10
147.014780129247
 20
219.94049864932
 11
144.065631179677
 21
222.88964759889
  0
LINE
  5
5E2
100
AcDbEntity
  8
0-0
100
AcDbLine
  6
CONTINUOUS
370
13
 10
147.014780129247
 20
222.06181899288
 11
146.186951523236
 21
222.88964759889
  0
LINE
  5
5E3
100
AcDbEntity
  8
0-0
100
AcDbLine
  6
CONTINUOUS
370
13
 10
113.014780129247
 20
221.887236689161
 11
114.017191038976
 21
222.88964759889
  0
LINE
  5
5E4
100
AcDbEntity
  8
0-0
100
AcDbLine
  6
CONTINUOUS
370
13
 10
113.138511382536
 20
219.88964759889
 11
116.138511382536
 21
222.88964759889
  0
LINE
  5
5E5
100
AcDbEntity
  8
0-0
100
AcDbLine
  6
CONTINUOUS
370
13
 10
115.259831726095
 20
219.88964759889
 11
118.259831726095
 21
222.88964759889
  0
LINE
  5
5E6
100
AcDbEntity
  8
0-0
100
AcDbLine
  6
CONTINUOUS
370
13
 10
117.381152069655
 20
219.88964759889
 11
120.381152069655
 21
222.88964759889
  0
LINE
  5
5E7
100
AcDbEntity
  8
0-0
100
AcDbLine
  6
CONTINUOUS
370
13
 10
119.502472413215
 20
219.88964759889
 11
122.502472413215
 21
222.88964759889
  0
LINE
  5
5E8
100
AcDbEntity
  8
0-0
100
AcDbLine
  6
CONTINUOUS
370
13
 10
121.623792756774
 20
219.88964759889
 11
124.623792756774
 21
222.88964759889
  0
LINE
  5
5E9
100
AcDbEntity
  8
0-0
100
AcDbLine
  6
CONTINUOUS
370
13
 10
123.745113100334
 20
219.88964759889
 11
126.745113100334
 21
222.88964759889
  0
LINE
  5
5EA
100
AcDbEntity
  8
0-0
100
AcDbLine
  6
CONTINUOUS
370
13
 10
125.866433443894
 20
219.88964759889
 11
128.866433443894
 21
222.88964759889
  0
LINE
  5
5EB
100
AcDbEntity
  8
0-0
100
AcDbLine
  6
CONTINUOUS
370
13
 10
127.987753787453
 20
219.88964759889
 11
130.987753787453
 21
222.88964759889
  0
LINE
  5
5EC
100
AcDbEntity
  8
0-0
100
AcDbLine
  6
CONTINUOUS
370
13
 10
130.109074131013
 20
219.88964759889
 11
133.109074131013
 21
222.88964759889
  0
LINE
  5
5ED
100
AcDbEntity
  8
0-0
100
AcDbLine
  6
CONTINUOUS
370
13
 10
132.230394474572
 20
219.88964759889
 11
135.230394474572
 21
222.88964759889
  0
LINE
  5
5EE
100
AcDbEntity
  8
0-0
100
AcDbLine
  6
CONTINUOUS
370
13
 10
134.351714818132
 20
219.88964759889
 11
137.351714818132
 21
222.88964759889
  0
LINE
  5
5EF
100
AcDbEntity
  8
0-0
100
AcDbLine
  6
CONTINUOUS
370
13
 10
136.473035161692
 20
219.88964759889
 11
139.473035161692
 21
222.88964759889
  0
LINE
  5
5F0
100
AcDbEntity
  8
0-0
100
AcDbLine
  6
CONTINUOUS
370
13
 10
138.594355505251
 20
219.88964759889
 11
141.594355505252
 21
222.88964759889
  0
LINE
  5
5F1
100
AcDbEntity
  8
0-0
100
AcDbLine
  6
CONTINUOUS
370
13
 10
140.715675848811
 20
219.88964759889
 11
143.715675848811
 21
222.88964759889
  0
LINE
  5
5F2
100
AcDbEntity
  8
0-0
100
AcDbLine
  6
CONTINUOUS
370
13
 10
142.83699619237
 20
219.88964759889
 11
145.836996192371
 21
222.88964759889
  0
LINE
  5
5F3
100
AcDbEntity
  8
0-0
100
AcDbLine
  6
CONTINUOUS
370
13
 10
144.95831653593
 20
219.88964759889
 11
147.014780129247
 21
221.946111192207
  0
LINE
  5
5F4
100
AcDbEntity
  8
0-0
100
AcDbLine
  6
CONTINUOUS
370
13
 10
248.604734355178
 20
138.666158979239
 11
251.604734355178
 21
138.666158979239
  0
LINE
  5
5F5
100
AcDbEntity
  8
0-0
100
AcDbLine
  6
CONTINUOUS
370
13
 10
251.604734355178
 20
104.666158979239
 11
248.604734355178
 21
104.666158979239
  0
LINE
  5
5F6
100
AcDbEntity
  8
0-0
100
AcDbLine
  6
CONTINUOUS
370
13
 10
251.604734355178
 20
104.775884532715
 11
251.495008801702
 21
104.666158979239
  0
LINE
  5
5F7
100
AcDbEntity
  8
0-0
100
AcDbLine
  6
CONTINUOUS
370
13
 10
251.604734355178
 20
106.897204876275
 11
249.373688458143
 21
104.666158979239
  0
LINE
  5
5F8
100
AcDbEntity
  8
0-0
100
AcDbLine
  6
CONTINUOUS
370
13
 10
251.604734355178
 20
109.018525219835
 11
248.604734355178
 21
106.018525219835
  0
LINE
  5
5F9
100
AcDbEntity
  8
0-0
100
AcDbLine
  6
CONTINUOUS
370
13
 10
251.604734355178
 20
111.139845563394
 11
248.604734355178
 21
108.139845563394
  0
LINE
  5
5FA
100
AcDbEntity
  8
0-0
100
AcDbLine
  6
CONTINUOUS
370
13
 10
251.604734355178
 20
113.261165906954
 11
248.604734355178
 21
110.261165906954
  0
LINE
  5
5FB
100
AcDbEntity
  8
0-0
100
AcDbLine
  6
CONTINUOUS
370
13
 10
251.603862725591
 20
115.381614620926
 11
248.604734355178
 21
112.382486250513
  0
LINE
  5
5FC
100
AcDbEntity
  8
0-0
100
AcDbLine
  6
CONTINUOUS
370
13
 10
251.604734355178
 20
117.503806594073
 11
248.604734355178
 21
114.503806594073
  0
LINE
  5
5FD
100
AcDbEntity
  8
0-0
100
AcDbLine
  6
CONTINUOUS
370
13
 10
251.604734355178
 20
119.625126937633
 11
248.604734355178
 21
116.625126937633
  0
LINE
  5
5FE
100
AcDbEntity
  8
0-0
100
AcDbLine
  6
CONTINUOUS
370
13
 10
249.590369810437
 20
119.732082736451
 11
248.604734355178
 21
118.746447281192
  0
LINE
  5
5FF
100
AcDbEntity
  8
0-0
100
AcDbLine
  6
CONTINUOUS
370
13
 10
251.604734355178
 20
123.867767624752
 11
251.12309501094
 21
123.386128280514
  0
LINE
  5
600
100
AcDbEntity
  8
0-0
100
AcDbLine
  6
CONTINUOUS
370
13
 10
251.604734355178
 20
125.989087968312
 11
248.604734355178
 21
122.989087968312
  0
LINE
  5
601
100
AcDbEntity
  8
0-0
100
AcDbLine
  6
CONTINUOUS
370
13
 10
251.604734355178
 20
128.110408311871
 11
248.604734355178
 21
125.110408311871
  0
LINE
  5
602
100
AcDbEntity
  8
0-0
100
AcDbLine
  6
CONTINUOUS
370
13
 10
251.604734355178
 20
130.231728655431
 11
248.604734355178
 21
127.231728655431
  0
LINE
  5
603
100
AcDbEntity
  8
0-0
100
AcDbLine
  6
CONTINUOUS
370
13
 10
251.604734355178
 20
132.353048998991
 11
248.604734355178
 21
129.353048998991
  0
LINE
  5
604
100
AcDbEntity
  8
0-0
100
AcDbLine
  6
CONTINUOUS
370
13
 10
251.604734355178
 20
134.47436934255
 11
248.604734355178
 21
131.47436934255
  0
LINE
  5
605
100
AcDbEntity
  8
0-0
100
AcDbLine
  6
CONTINUOUS
370
13
 10
251.604734355178
 20
136.59568968611
 11
248.604734355178
 21
133.59568968611
  0
LINE
  5
606
100
AcDbEntity
  8
0-0
100
AcDbLine
  6
CONTINUOUS
370
13
 10
251.553883304748
 20
138.666158979239
 11
248.604734355178
 21
135.71701002967
  0
LINE
  5
607
100
AcDbEntity
  8
0-0
100
AcDbLine
  6
CONTINUOUS
370
13
 10
249.432562961188
 20
138.666158979239
 11
248.604734355178
 21
137.838330373229
  0
LINE
  5
608
100
AcDbEntity
  8
0-0
100
AcDbLine
  6
CONTINUOUS
370
13
 10
249.607145264908
 20
104.666158979239
 11
248.604734355178
 21
105.668569888969
  0
LINE
  5
609
100
AcDbEntity
  8
0-0
100
AcDbLine
  6
CONTINUOUS
370
13
 10
251.604734355178
 20
104.789890232528
 11
248.604734355178
 21
107.789890232529
  0
LINE
  5
60A
100
AcDbEntity
  8
0-0
100
AcDbLine
  6
CONTINUOUS
370
13
 10
251.604734355178
 20
106.911210576088
 11
248.604734355178
 21
109.911210576088
  0
LINE
  5
60B
100
AcDbEntity
  8
0-0
100
AcDbLine
  6
CONTINUOUS
370
13
 10
251.604734355178
 20
109.032530919648
 11
248.604734355178
 21
112.032530919648
  0
LINE
  5
60C
100
AcDbEntity
  8
0-0
100
AcDbLine
  6
CONTINUOUS
370
13
 10
251.604734355178
 20
111.153851263208
 11
248.604734355178
 21
114.153851263208
  0
LINE
  5
60D
100
AcDbEntity
  8
0-0
100
AcDbLine
  6
CONTINUOUS
370
13
 10
251.604734355178
 20
113.275171606767
 11
248.604734355178
 21
116.275171606767
  0
LINE
  5
60E
100
AcDbEntity
  8
0-0
100
AcDbLine
  6
CONTINUOUS
370
13
 10
251.604734355178
 20
115.396491950327
 11
248.604734355178
 21
118.396491950327
  0
LINE
  5
60F
100
AcDbEntity
  8
0-0
100
AcDbLine
  6
CONTINUOUS
370
13
 10
251.604734355178
 20
117.517812293886
 11
249.27958618843
 21
119.842960460634
  0
LINE
  5
610
100
AcDbEntity
  8
0-0
100
AcDbLine
  6
CONTINUOUS
370
13
 10
251.604734355178
 20
119.639132637446
 11
251.231470502578
 21
120.012396490046
  0
LINE
  5
611
100
AcDbEntity
  8
0-0
100
AcDbLine
  6
CONTINUOUS
370
13
 10
249.734875220652
 20
123.630312115532
 11
248.604734355178
 21
124.760452981006
  0
LINE
  5
612
100
AcDbEntity
  8
0-0
100
AcDbLine
  6
CONTINUOUS
370
13
 10
251.604734355178
 20
123.881773324565
 11
248.604734355178
 21
126.881773324565
  0
LINE
  5
613
100
AcDbEntity
  8
0-0
100
AcDbLine
  6
CONTINUOUS
370
13
 10
251.604734355178
 20
126.003093668125
 11
248.604734355178
 21
129.003093668125
  0
LINE
  5
614
100
AcDbEntity
  8
0-0
100
AcDbLine
  6
CONTINUOUS
370
13
 10
251.604734355178
 20
128.124414011685
 11
248.604734355178
 21
131.124414011685
  0
LINE
  5
615
100
AcDbEntity
  8
0-0
100
AcDbLine
  6
CONTINUOUS
370
13
 10
251.604734355178
 20
130.245734355244
 11
248.604734355178
 21
133.245734355244
  0
LINE
  5
616
100
AcDbEntity
  8
0-0
100
AcDbLine
  6
CONTINUOUS
370
13
 10
251.604734355178
 20
132.367054698804
 11
248.604734355178
 21
135.367054698804
  0
LINE
  5
617
100
AcDbEntity
  8
0-0
100
AcDbLine
  6
CONTINUOUS
370
13
 10
251.604734355178
 20
134.488375042363
 11
248.604734355178
 21
137.488375042364
  0
LINE
  5
618
100
AcDbEntity
  8
0-0
100
AcDbLine
  6
CONTINUOUS
370
13
 10
251.604734355178
 20
136.609695385923
 11
249.548270761862
 21
138.666158979239
  0
LINE
  5
619
100
AcDbEntity
  8
0-0
100
AcDbLine
  6
CONTINUOUS
370
13
 10
248.604734355178
 20
138.666158979239
 11
248.604734355178
 21
122.989087968312
  0
LINE
  5
61A
100
AcDbEntity
  8
0-0
100
AcDbLine
  6
CONTINUOUS
370
13
 10
248.604734355178
 20
120.341932906046
 11
248.604734355178
 21
104.666158979239
  0
LINE
  5
61B
100
AcDbEntity
  8
0-0
100
AcDbLine
  6
CONTINUOUS
370
13
 10
251.604734355178
 20
138.666158979239
 11
251.604734355178
 21
122.98768421711
  0
LINE
  5
61C
100
AcDbEntity
  8
0-0
100
AcDbLine
  6
CONTINUOUS
370
13
 10
251.604734355178
 20
120.341932906046
 11
251.604734355178
 21
104.666158979239
  0
LINE
  5
61D
100
AcDbEntity
  8
0-0
100
AcDbLine
  6
CONTINUOUS
370
13
 10
146.016130546908
 20
227.03964759889
 11
129.016130546908
 21
227.03964759889
  0
LINE
  5
61E
100
AcDbEntity
  8
0-0
100
AcDbLine
  6
CONTINUOUS
370
13
 10
258.554252729684
 20
93.4661589792395
 11
258.554252729684
 21
93.4661589792395
  0
LINE
  5
61F
100
AcDbEntity
  8
0-0
100
AcDbLine
  6
CONTINUOUS
370
13
 10
258.554252729684
 20
101.86615897924
 11
258.554252729684
 21
101.86615897924
  0
LINE
  5
620
100
AcDbEntity
  8
0-0
100
AcDbLine
  6
CONTINUOUS
370
13
 10
258.554252729684
 20
101.86615897924
 11
258.554252729684
 21
93.4661589792395
  0
LINE
  5
621
100
AcDbEntity
  8
0-0
100
AcDbLine
  6
CONTINUOUS
370
13
 10
256.554252729684
 20
99.8661589792395
 11
256.554252729684
 21
95.4661589792395
  0
ARC
  5
622
100
AcDbEntity
  8
0-0
100
AcDbCircle
  6
CONTINUOUS
370
13
 10
258.554252729684
 20
95.4661589792395
 40
2
100
AcDbArc
 50
180.000000000001
 51
270.000000000001
  0
ARC
  5
623
100
AcDbEntity
  8
0-0
100
AcDbCircle
  6
CONTINUOUS
370
13
 10
258.554252729684
 20
99.8661589792395
 40
2
100
AcDbArc
 50
450.000000000002
 51
540
  0
LINE
  5
624
100
AcDbEntity
  8
0-0
100
AcDbLine
  6
BYLAYER
370
13
 10
97.7944430469082
 20
131.416159562052
 11
99.2378180469082
 21
131.416159562052
  0
LINE
  5
625
100
AcDbEntity
  8
0-0
100
AcDbLine
  6
BYLAYER
370
13
 10
99.2378180469082
 20
133.916158396427
 11
97.7944430469082
 21
133.916158396427
  0
CIRCLE
  5
626
100
AcDbEntity
  8
0-0
100
AcDbCircle
  6
BYLAYER
370
13
 10
98.5161305469082
 20
132.666158979239
 40
2.4035896769725
  0
CIRCLE
  5
627
100
AcDbEntity
  8
0-0
100
AcDbCircle
  6
BYLAYER
370
13
 10
98.5161305469082
 20
132.666158979239
 40
2.74999999999989
  0
LINE
  5
628
100
AcDbEntity
  8
0-0
100
AcDbLine
  6
BYLAYER
370
13
 10
97.072755546908
 20
132.666158979239
 11
97.7944430469082
 21
131.416159562052
  0
LINE
  5
629
100
AcDbEntity
  8
0-0
100
AcDbLine
  6
BYLAYER
370
13
 10
97.7944430469082
 20
133.916158396427
 11
97.072755546908
 21
132.666158979239
  0
LINE
  5
62A
100
AcDbEntity
  8
0-0
100
AcDbLine
  6
BYLAYER
370
13
 10
99.2378180469082
 20
131.416159562052
 11
99.9595055469083
 21
132.666158979239
  0
LINE
  5
62B
100
AcDbEntity
  8
0-0
100
AcDbLine
  6
BYLAYER
370
13
 10
99.9595055469083
 20
132.666158979239
 11
99.2378180469082
 21
133.916158396427
  0
LINE
  5
62C
100
AcDbEntity
  8
0-0
100
AcDbLine
  6
BYLAYER
370
13
 10
97.7944430469082
 20
109.416159562052
 11
99.2378180469082
 21
109.416159562052
  0
LINE
  5
62D
100
AcDbEntity
  8
0-0
100
AcDbLine
  6
BYLAYER
370
13
 10
99.2378180469082
 20
111.916158396427
 11
97.7944430469082
 21
111.916158396427
  0
CIRCLE
  5
62E
100
AcDbEntity
  8
0-0
100
AcDbCircle
  6
BYLAYER
370
13
 10
98.5161305469082
 20
110.666158979239
 40
2.4035896769725
  0
CIRCLE
  5
62F
100
AcDbEntity
  8
0-0
100
AcDbCircle
  6
BYLAYER
370
13
 10
98.5161305469082
 20
110.666158979239
 40
2.74999999999989
  0
LINE
  5
630
100
AcDbEntity
  8
0-0
100
AcDbLine
  6
BYLAYER
370
13
 10
97.072755546908
 20
110.666158979239
 11
97.7944430469082
 21
109.416159562052
  0
LINE
  5
631
100
AcDbEntity
  8
0-0
100
AcDbLine
  6
BYLAYER
370
13
 10
97.7944430469082
 20
111.916158396427
 11
97.072755546908
 21
110.666158979239
  0
LINE
  5
632
100
AcDbEntity
  8
0-0
100
AcDbLine
  6
BYLAYER
370
13
 10
99.2378180469082
 20
109.416159562052
 11
99.9595055469083
 21
110.666158979239
  0
LINE
  5
633
100
AcDbEntity
  8
0-0
100
AcDbLine
  6
BYLAYER
370
13
 10
99.9595055469083
 20
110.666158979239
 11
99.2378180469082
 21
111.916158396427
  0
CIRCLE
  5
634
100
AcDbEntity
  8
0-0
100
AcDbCircle
  6
CONTINUOUS
370
13
 10
144.016130546908
 20
97.6661589792395
 40
4
  0
CIRCLE
  5
635
100
AcDbEntity
  8
0-0
100
AcDbCircle
  6
CONTINUOUS
370
13
 10
144.016130546908
 20
97.6661589792395
 40
3
  0
LINE
  5
636
100
AcDbEntity
  8
0-0
100
AcDbLine
  6
CONTINUOUS
370
13
 10
142.162080925136
 20
98.4161589792393
 11
143.266130546908
 21
98.4161589792394
  0
LINE
  5
637
100
AcDbEntity
  8
0-0
100
AcDbLine
  6
CONTINUOUS
370
13
 10
142.162080925136
 20
96.9161589792392
 11
143.266130546908
 21
96.9161589792391
  0
LINE
  5
638
100
AcDbEntity
  8
0-0
100
AcDbLine
  6
CONTINUOUS
370
13
 10
143.266130546908
 20
95.812109357467
 11
143.266130546908
 21
96.9161589792391
  0
LINE
  5
639
100
AcDbEntity
  8
0-0
100
AcDbLine
  6
CONTINUOUS
370
13
 10
144.766130546908
 20
95.812109357467
 11
144.766130546908
 21
96.9161589792391
  0
LINE
  5
63A
100
AcDbEntity
  8
0-0
100
AcDbLine
  6
CONTINUOUS
370
13
 10
145.870180168682
 20
98.4161589792392
 11
145.870180168682
 21
96.9161589792391
  0
LINE
  5
63B
100
AcDbEntity
  8
0-0
100
AcDbLine
  6
CONTINUOUS
370
13
 10
142.162080925134
 20
98.4161589792393
 11
142.162080925134
 21
96.9161589792391
  0
LINE
  5
63C
100
AcDbEntity
  8
0-0
100
AcDbLine
  6
CONTINUOUS
370
13
 10
143.266130546908
 20
95.8121093574653
 11
144.766130546908
 21
95.8121093574655
  0
LINE
  5
63D
100
AcDbEntity
  8
0-0
100
AcDbLine
  6
CONTINUOUS
370
13
 10
143.266130546908
 20
99.5202086010133
 11
144.766130546908
 21
99.5202086010133
  0
LINE
  5
63E
100
AcDbEntity
  8
0-0
100
AcDbLine
  6
CONTINUOUS
370
13
 10
144.766130546908
 20
96.9161589792391
 11
145.870180168682
 21
96.9161589792391
  0
LINE
  5
63F
100
AcDbEntity
  8
0-0
100
AcDbLine
  6
CONTINUOUS
370
13
 10
143.266130546908
 20
98.4161589792394
 11
143.266130546908
 21
99.5202086010133
  0
LINE
  5
640
100
AcDbEntity
  8
0-0
100
AcDbLine
  6
CONTINUOUS
370
13
 10
144.766130546908
 20
98.4161589792393
 11
145.870180168682
 21
98.4161589792392
  0
LINE
  5
641
100
AcDbEntity
  8
0-0
100
AcDbLine
  6
CONTINUOUS
370
13
 10
144.766130546908
 20
98.4161589792393
 11
144.766130546908
 21
99.5202086010133
  0
LINE
  5
642
100
AcDbEntity
  8
0-0
100
AcDbLine
  6
CONTINUOUS
370
13
 10
143.048360713381
 20
122.364791368543
 11
140.074730085342
 21
121.967902356361
  0
LINE
  5
643
100
AcDbEntity
  8
0-0
100
AcDbLine
  6
CONTINUOUS
370
13
 10
143.048360713381
 20
122.364791368543
 11
141.269617904173
 21
125.964767024447
  0
LINE
  5
644
100
AcDbEntity
  8
0-0
100
AcDbLine
  6
CONTINUOUS
370
13
 10
140.074730085342
 20
121.967902356361
 11
141.269617904173
 21
125.964767024447
  0
LINE
  5
645
100
AcDbEntity
  8
0-0
100
AcDbLine
  6
CONTINUOUS
370
13
 10
143.058480317542
 20
120.732187853945
 11
140.084849689503
 21
121.129076866127
  0
LINE
  5
646
100
AcDbEntity
  8
0-0
100
AcDbLine
  6
CONTINUOUS
370
13
 10
143.058480317542
 20
120.732187853945
 11
141.279737508333
 21
117.132212198041
  0
LINE
  5
647
100
AcDbEntity
  8
0-0
100
AcDbLine
  6
CONTINUOUS
370
13
 10
140.084849689503
 20
121.129076866127
 11
141.279737508333
 21
117.132212198041
  0
ARC
  5
648
100
AcDbEntity
  8
0-0
100
AcDbCircle
  6
DIVIDE
370
13
 10
157.800740237734
 20
121.790514632222
 40
16
100
AcDbArc
 50
-118.247495151507
 51
-1.75250484849342
  0
LINE
  5
649
100
AcDbEntity
  8
0-0
100
AcDbLine
  6
DIVIDE
370
13
 10
147.534696637633
 20
106.625807289156
 11
138.418054335555
 21
101.362311401946
  0
ARC
  5
64A
100
AcDbEntity
  8
0-0
100
AcDbCircle
  6
DIVIDE
370
13
 10
157.800740237734
 20
121.790514632222
 40
14.4
100
AcDbArc
 50
-102.463723610133
 51
-17.5362732735535
  0
LINE
  5
64B
100
AcDbEntity
  8
0-0
100
AcDbLine
  6
DIVIDE
370
13
 10
141.819978124201
 20
89.4700065565329
 11
157.819978124201
 21
89.4700065565328
  0
LINE
  5
64C
100
AcDbEntity
  8
0-0
100
AcDbLine
  6
DIVIDE
370
13
 10
193.781502351268
 20
119.470006556533
 11
185.781502351268
 21
105.613600095982
  0
LINE
  5
64D
100
AcDbEntity
  8
0-0
100
AcDbLine
  6
DIVIDE
370
13
 10
189.281502351268
 20
127.264235190593
 11
193.781502351268
 21
119.470006556533
  0
LINE
  5
64E
100
AcDbEntity
  8
0-0
100
AcDbLine
  6
DIVIDE
370
13
 10
137.319978124201
 20
97.2642351905928
 11
138.418054335555
 21
101.362311401946
  0
LINE
  5
64F
100
AcDbEntity
  8
0-0
100
AcDbLine
  6
DIVIDE
370
13
 10
189.281502351268
 20
127.264235190593
 11
185.183426139914
 21
128.362311401946
  0
LINE
  5
650
100
AcDbEntity
  8
0-0
100
AcDbLine
  6
DIVIDE
370
13
 10
137.319978124201
 20
97.2642351905928
 11
141.819978124201
 21
89.4700065565329
  0
LINE
  5
651
100
AcDbEntity
  8
0-0
100
AcDbLine
  6
DIVIDE
370
13
 10
185.781502351268
 20
105.613600095982
 11
157.819978124201
 21
89.4700065565328
  0
LINE
  5
652
100
AcDbEntity
  8
0-0
100
AcDbLine
  6
DIVIDE
370
13
 10
176.066783837836
 20
123.098815514736
 11
185.183426139914
 21
128.362311401946
  0
LINE
  5
653
100
AcDbEntity
  8
0-0
100
AcDbLine
  6
DIVIDE
370
13
 10
134.079217726726
 20
167.928101354902
 11
125.95517932209
 21
163.237685595079
  0
ARC
  5
654
100
AcDbEntity
  8
0-0
100
AcDbCircle
  6
DIVIDE
370
13
 10
127.767198524408
 20
169.480007792021
 40
6.5
100
AcDbArc
 50
-13.8130614604036
 51
-106.186938539597
  0
LINE
  5
655
100
AcDbEntity
  8
0-0
100
AcDbLine
  6
DIVIDE
370
13
 10
140.480232162046
 20
155.460387613299
 11
133.55202893177
 21
151.460387613299
  0
LINE
  5
656
100
AcDbEntity
  8
0-0
100
AcDbLine
  6
DIVIDE
370
13
 10
126.120084207378
 20
163.332893474991
 11
132.869016229878
 21
151.643400315192
  0
LINE
  5
657
100
AcDbEntity
  8
0-0
100
AcDbLine
  6
DIVIDE
370
13
 10
133.914312841438
 20
167.832893474991
 11
140.663244863938
 21
156.143400315192
  0
LINE
  5
658
100
AcDbEntity
  8
0-0
100
AcDbLine
  6
DIVIDE
370
13
 10
133.55202893177
 20
151.460387613299
 11
132.869016229878
 21
151.643400315192
  0
LINE
  5
659
100
AcDbEntity
  8
0-0
100
AcDbLine
  6
DIVIDE
370
13
 10
140.480232162046
 20
155.460387613299
 11
140.663244863938
 21
156.143400315192
  0
LINE
  5
65A
100
AcDbEntity
  8
0-0
100
AcDbLine
  6
DIVIDE
370
13
 10
138.315168652585
 20
154.210387613299
 11
140.235041633662
 21
150.885070065994
  0
LINE
  5
65B
100
AcDbEntity
  8
0-0
100
AcDbLine
  6
DIVIDE
370
13
 10
135.717092441232
 20
152.710387613299
 11
137.832244437689
 21
149.046836889704
  0
LINE
  5
65C
100
AcDbEntity
  8
0-0
100
AcDbLine
  6
DIVIDE
370
13
 10
137.976900062367
 20
149.396285998162
 11
138.049967842465
 21
149.269728890636
  0
LINE
  5
65D
100
AcDbEntity
  8
0-0
100
AcDbLine
  6
DIVIDE
370
13
 10
137.717092441232
 20
149.246285998162
 11
139.797219460153
 21
150.447247892485
  0
LINE
  5
65E
100
AcDbEntity
  8
0-0
100
AcDbLine
  6
DIVIDE
370
13
 10
140.095295671507
 20
150.745324103838
 11
140.165168652585
 21
151.006093619297
  0
LINE
  5
65F
100
AcDbEntity
  8
0-0
100
AcDbLine
  6
DIVIDE
370
13
 10
137.976900062367
 20
149.396285998162
 11
137.567092441231
 21
149.506093619297
  0
POINT
  5
660
100
AcDbEntity
  8
0-0
100
AcDbPoint
 10
137.717092441232
 20
149.246285998162
  0
ARC
  5
661
100
AcDbEntity
  8
0-0
100
AcDbCircle
  6
DIVIDE
370
13
 10
152.534696637633
 20
97.9655532513121
 40
10
100
AcDbArc
 50
77.5362731164223
 51
120
  0
ARC
  5
662
100
AcDbEntity
  8
0-0
100
AcDbCircle
  6
DIVIDE
370
13
 10
181.066783837836
 20
114.438561476891
 40
10
100
AcDbArc
 50
120
 51
162.463722396086
  0
LINE
  5
663
100
AcDbEntity
  8
0-0
100
AcDbLine
  6
CONTINUOUS
370
13
 10
95.0161305469078
 20
245.039165973396
 11
153.016130546908
 21
245.039165973396
  0
LINE
  5
664
100
AcDbEntity
  8
0-0
100
AcDbLine
  6
CONTINUOUS
370
13
 10
162.016130546908
 20
245.039165973396
 11
153.016130546908
 21
245.039165973396
  0
LINE
  5
665
100
AcDbEntity
  8
0-0
100
AcDbLine
  6
CONTINUOUS
370
13
 10
162.516130546908
 20
245.539165973396
 11
162.516130546908
 21
254.039165973396
  0
LINE
  5
666
100
AcDbEntity
  8
0-0
100
AcDbLine
  6
CONTINUOUS
370
13
 10
162.516130546908
 20
245.539165973396
 11
162.016130546908
 21
245.039165973396
  0
LINE
  5
667
100
AcDbEntity
  8
0-0
100
AcDbLine
  6
CONTINUOUS
370
13
 10
94.5161305469078
 20
245.539165973396
 11
94.5161305469078
 21
254.039165973396
  0
LINE
  5
668
100
AcDbEntity
  8
0-0
100
AcDbLine
  6
CONTINUOUS
370
13
 10
95.0161305469078
 20
245.039165973396
 11
94.5161305469078
 21
245.539165973396
  0
CIRCLE
  5
669
100
AcDbEntity
  8
0-0
100
AcDbCircle
  6
CONTINUOUS
370
13
 10
106.016130546908
 20
232.039165973396
 40
2.5
  0
LINE
  5
66A
100
AcDbEntity
  8
0-0
100
AcDbLine
  6
CONTINUOUS
370
13
 10
99.7661305469082
 20
242.039165973396
 11
99.7661305469082
 21
228.039165973396
  0
LINE
  5
66B
100
AcDbEntity
  8
0-0
100
AcDbLine
  6
CONTINUOUS
370
13
 10
112.266130546908
 20
228.039165973396
 11
112.266130546908
 21
242.039165973396
  0
LINE
  5
66C
100
AcDbEntity
  8
0-0
100
AcDbLine
  6
CONTINUOUS
370
13
 10
101.766130546908
 20
226.039165973396
 11
110.266130546908
 21
226.039165973396
  0
LINE
  5
66D
100
AcDbEntity
  8
0-0
100
AcDbLine
  6
CONTINUOUS
370
13
 10
101.766130546908
 20
244.039165973396
 11
110.266130546908
 21
244.039165973396
  0
LINE
  5
66E
100
AcDbEntity
  8
0-0
100
AcDbLine
  6
CONTINUOUS
370
13
 10
112.266130546908
 20
228.039165973396
 11
110.266130546908
 21
226.039165973396
  0
LINE
  5
66F
100
AcDbEntity
  8
0-0
100
AcDbLine
  6
CONTINUOUS
370
13
 10
112.266130546908
 20
242.039165973396
 11
110.266130546908
 21
244.039165973396
  0
LINE
  5
670
100
AcDbEntity
  8
0-0
100
AcDbLine
  6
CONTINUOUS
370
13
 10
101.766130546908
 20
244.039165973396
 11
99.7661305469082
 21
242.039165973396
  0
LINE
  5
671
100
AcDbEntity
  8
0-0
100
AcDbLine
  6
CONTINUOUS
370
13
 10
99.7661305469082
 20
228.039165973396
 11
101.766130546908
 21
226.039165973396
  0
LINE
  5
672
100
AcDbEntity
  8
0-0
100
AcDbLine
  6
CONTINUOUS
370
13
 10
112.266130546908
 20
242.039165973396
 11
110.266130546908
 21
244.039165973396
  0
LINE
  5
673
100
AcDbEntity
  8
0-0
100
AcDbLine
  6
CONTINUOUS
370
13
 10
112.266130546908
 20
228.039165973396
 11
110.266130546908
 21
226.039165973396
  0
LINE
  5
674
100
AcDbEntity
  8
0-0
100
AcDbLine
  6
CONTINUOUS
370
13
 10
101.766130546908
 20
226.039165973396
 11
99.7661305469082
 21
228.039165973396
  0
LINE
  5
675
100
AcDbEntity
  8
0-0
100
AcDbLine
  6
CONTINUOUS
370
13
 10
99.7661305469082
 20
242.039165973396
 11
101.766130546908
 21
244.039165973396
  0
LINE
  5
676
100
AcDbEntity
  8
0-0
100
AcDbLine
  6
CONTINUOUS
370
13
 10
94.5161305469082
 20
227.039165973396
 11
94.5161305469082
 21
245.039165973396
  0
LINE
  5
677
100
AcDbEntity
  8
0-0
100
AcDbLine
  6
CONTINUOUS
370
13
 10
129.016130546908
 20
245.039165973396
 11
94.5161305469082
 21
245.039165973396
  0
LINE
  5
678
100
AcDbEntity
  8
0-0
100
AcDbLine
  6
CONTINUOUS
370
13
 10
129.016130546908
 20
227.039165973396
 11
129.016130546908
 21
245.039165973396
  0
LINE
  5
679
100
AcDbEntity
  8
0-0
100
AcDbLine
  6
CONTINUOUS
370
13
 10
120.516130546908
 20
227.039165973396
 11
120.516130546908
 21
236.289165973396
  0
LINE
  5
67A
100
AcDbEntity
  8
0-0
100
AcDbLine
  6
CONTINUOUS
370
13
 10
120.516130546908
 20
243.789165973396
 11
120.516130546908
 21
245.039165973396
  0
LINE
  5
67B
100
AcDbEntity
  8
0-0
100
AcDbLine
  6
CONTINUOUS
370
13
 10
94.5161305469082
 20
243.789165973396
 11
101.516130546908
 21
243.789165973396
  0
LINE
  5
67C
100
AcDbEntity
  8
0-0
100
AcDbLine
  6
CONTINUOUS
370
13
 10
110.516130546908
 20
243.789165973396
 11
120.516130546908
 21
243.789165973396
  0
LINE
  5
67D
100
AcDbEntity
  8
0-0
100
AcDbLine
  6
CONTINUOUS
370
13
 10
94.5161305469082
 20
240.039165973396
 11
99.7661305469082
 21
240.039165973396
  0
LINE
  5
67E
100
AcDbEntity
  8
0-0
100
AcDbLine
  6
CONTINUOUS
370
13
 10
112.266130546908
 20
240.039165973396
 11
128.412577156315
 21
240.039165973396
  0
LINE
  5
67F
100
AcDbEntity
  8
0-0
100
AcDbLine
  6
CONTINUOUS
370
13
 10
94.5161305469082
 20
236.289165973396
 11
99.7661305469082
 21
236.289165973396
  0
LINE
  5
680
100
AcDbEntity
  8
0-0
100
AcDbLine
  6
CONTINUOUS
370
13
 10
112.266130546908
 20
236.289165973396
 11
120.516130546908
 21
236.289165973396
  0
LINE
  5
681
100
AcDbEntity
  8
0-0
100
AcDbLine
  6
CONTINUOUS
370
13
 10
101.516130546908
 20
245.039165973396
 11
101.516130546908
 21
243.789165973396
  0
LINE
  5
682
100
AcDbEntity
  8
0-0
100
AcDbLine
  6
CONTINUOUS
370
13
 10
110.516130546908
 20
245.039165973396
 11
110.516130546908
 21
243.789165973396
  0
LINE
  5
683
100
AcDbEntity
  8
0-0
100
AcDbLine
  6
CONTINUOUS
370
13
 10
128.340150749444
 20
240.039165973396
 11
120.516130546908
 21
236.289165973396
  0
LINE
  5
684
100
AcDbEntity
  8
0-0
100
AcDbLine
  6
CONTINUOUS
370
13
 10
128.340150749443
 20
240.039165973396
 11
120.516130546908
 21
243.789165973396
  0
LINE
  5
685
100
AcDbEntity
  8
0-0
100
AcDbLine
  6
CONTINUOUS
370
13
 10
129.016130546908
 20
227.039165973396
 11
111.266130546908
 21
227.039165973396
  0
LINE
  5
686
100
AcDbEntity
  8
0-0
100
AcDbLine
  6
CONTINUOUS
370
13
 10
100.766130546908
 20
227.039165973396
 11
94.5161305469082
 21
227.039165973396
  0
CIRCLE
  5
687
100
AcDbEntity
  8
0-0
100
AcDbCircle
  6
DIVIDE
370
13
 10
106.016130546908
 20
232.039165973396
 40
2.5
  0
LINE
  5
688
100
AcDbEntity
  8
0-0
100
AcDbLine
  6
DIVIDE
370
13
 10
96.0161305469082
 20
225.789165973396
 11
110.016130546908
 21
225.789165973396
  0
LINE
  5
689
100
AcDbEntity
  8
0-0
100
AcDbLine
  6
DIVIDE
370
13
 10
110.016130546908
 20
238.289165973396
 11
96.0161305469082
 21
238.289165973396
  0
LINE
  5
68A
100
AcDbEntity
  8
0-0
100
AcDbLine
  6
DIVIDE
370
13
 10
112.016130546908
 20
227.789165973396
 11
112.016130546908
 21
236.289165973396
  0
LINE
  5
68B
100
AcDbEntity
  8
0-0
100
AcDbLine
  6
DIVIDE
370
13
 10
94.0161305469082
 20
227.789165973396
 11
94.0161305469082
 21
236.289165973396
  0
LINE
  5
68C
100
AcDbEntity
  8
0-0
100
AcDbLine
  6
DIVIDE
370
13
 10
110.016130546908
 20
238.289165973396
 11
112.016130546908
 21
236.289165973396
  0
LINE
  5
68D
100
AcDbEntity
  8
0-0
100
AcDbLine
  6
DIVIDE
370
13
 10
96.0161305469082
 20
238.289165973396
 11
94.0161305469082
 21
236.289165973396
  0
LINE
  5
68E
100
AcDbEntity
  8
0-0
100
AcDbLine
  6
DIVIDE
370
13
 10
94.0161305469082
 20
227.789165973396
 11
96.0161305469082
 21
225.789165973396
  0
LINE
  5
68F
100
AcDbEntity
  8
0-0
100
AcDbLine
  6
DIVIDE
370
13
 10
110.016130546908
 20
225.789165973396
 11
112.016130546908
 21
227.789165973396
  0
LINE
  5
690
100
AcDbEntity
  8
0-0
100
AcDbLine
  6
DIVIDE
370
13
 10
96.0161305469082
 20
238.289165973396
 11
94.0161305469082
 21
236.289165973396
  0
LINE
  5
691
100
AcDbEntity
  8
0-0
100
AcDbLine
  6
DIVIDE
370
13
 10
110.016130546908
 20
238.289165973396
 11
112.016130546908
 21
236.289165973396
  0
LINE
  5
692
100
AcDbEntity
  8
0-0
100
AcDbLine
  6
DIVIDE
370
13
 10
112.016130546908
 20
227.789165973396
 11
110.016130546908
 21
225.789165973396
  0
LINE
  5
693
100
AcDbEntity
  8
0-0
100
AcDbLine
  6
DIVIDE
370
13
 10
96.0161305469082
 20
225.789165973396
 11
94.0161305469082
 21
227.789165973396
  0
CIRCLE
  5
694
100
AcDbEntity
  8
0-0
100
AcDbCircle
  6
DIVIDE
370
13
 10
144.016130546908
 20
94.666158979239
 40
4
  0
LINE
  5
695
100
AcDbEntity
  8
0-0
100
AcDbLine
  6
CONTINUOUS
370
13
 10
162.516130546908
 20
92.1661589792396
 11
159.516130546908
 21
89.1661589792396
  0
LINE
  5
696
100
AcDbEntity
  8
0-0
100
AcDbLine
  6
CONTINUOUS
370
13
 10
162.516130546908
 20
151.16615897924
 11
159.516130546908
 21
154.16615897924
  0
ARC
  5
697
100
AcDbEntity
  8
0-0
100
AcDbCircle
  6
CONTINUOUS
370
13
 10
157.516130546908
 20
121.66615897924
 40
3.75
100
AcDbArc
 50
-82.3377443392322
 51
82.3377443392317
  0
CIRCLE
  5
698
100
AcDbEntity
  8
0-0
100
AcDbCircle
  6
CONTINUOUS
370
13
 10
144.016130546908
 20
97.6661589792396
 40
4
  0
LINE
  5
699
100
AcDbEntity
  8
0-0
100
AcDbLine
  6
CONTINUOUS
370
13
 10
159.516130546908
 20
89.1661589792397
 11
94.5161305469082
 21
89.1661589792399
  0
LINE
  5
69A
100
AcDbEntity
  8
0-0
100
AcDbLine
  6
CONTINUOUS
370
13
 10
159.516130546908
 20
154.16615897924
 11
94.5161305469082
 21
154.16615897924
  0
LINE
  5
69B
100
AcDbEntity
  8
0-0
100
AcDbLine
  6
CONTINUOUS
370
13
 10
94.5161305469082
 20
154.16615897924
 11
94.5161305469082
 21
89.1661589792399
  0
LINE
  5
69C
100
AcDbEntity
  8
0-0
100
AcDbLine
  6
CONTINUOUS
370
13
 10
162.016130546908
 20
92.3732657604261
 11
159.309023765722
 21
89.6661589792397
  0
LINE
  5
69D
100
AcDbEntity
  8
0-0
100
AcDbLine
  6
CONTINUOUS
370
13
 10
162.016130546908
 20
150.959052198053
 11
159.309023765722
 21
153.66615897924
  0
ARC
  5
69E
100
AcDbEntity
  8
0-0
100
AcDbCircle
  6
CONTINUOUS
370
13
 10
130.016130546908
 20
121.66615897924
 40
23
100
AcDbArc
 50
-116.96238899748
 51
-69.6455936017628
  0
ARC
  5
69F
100
AcDbEntity
  8
0-0
100
AcDbCircle
  6
CONTINUOUS
370
13
 10
130.016130546908
 20
121.66615897924
 40
23
100
AcDbArc
 50
72.7130547215596
 51
116.962388997479
  0
LINE
  5
6A0
100
AcDbEntity
  8
0-0
100
AcDbLine
  6
CONTINUOUS
370
13
 10
162.516130546908
 20
151.16615897924
 11
162.516130546908
 21
150.16615897924
  0
LINE
  5
6A1
100
AcDbEntity
  8
0-0
100
AcDbLine
  6
CONTINUOUS
370
13
 10
162.516130546908
 20
141.16615897924
 11
162.516130546908
 21
92.1661589792396
  0
LINE
  5
6A2
100
AcDbEntity
  8
0-0
100
AcDbLine
  6
CONTINUOUS
370
13
 10
162.016130546908
 20
150.959052198053
 11
162.016130546908
 21
150.16615897924
  0
LINE
  5
6A3
100
AcDbEntity
  8
0-0
100
AcDbLine
  6
CONTINUOUS
370
13
 10
162.016130546908
 20
141.16615897924
 11
162.016130546908
 21
92.3732657604261
  0
LINE
  5
6A4
100
AcDbEntity
  8
0-0
100
AcDbLine
  6
CONTINUOUS
370
13
 10
159.309023765722
 20
153.66615897924
 11
99.2661305469081
 21
153.66615897924
  0
LINE
  5
6A5
100
AcDbEntity
  8
0-0
100
AcDbLine
  6
CONTINUOUS
370
13
 10
99.2661305469081
 20
153.66615897924
 11
95.0161305469082
 21
153.66615897924
  0
LINE
  5
6A6
100
AcDbEntity
  8
0-0
100
AcDbLine
  6
CONTINUOUS
370
13
 10
159.309023765722
 20
89.6661589792397
 11
99.2661305469081
 21
89.6661589792399
  0
LINE
  5
6A7
100
AcDbEntity
  8
0-0
100
AcDbLine
  6
CONTINUOUS
370
13
 10
99.2661305469081
 20
89.6661589792399
 11
95.0161305469082
 21
89.6661589792399
  0
LINE
  5
6A8
100
AcDbEntity
  8
0-0
100
AcDbLine
  6
CONTINUOUS
370
13
 10
95.0161305469082
 20
153.66615897924
 11
95.0161305469082
 21
141.66615897924
  0
LINE
  5
6A9
100
AcDbEntity
  8
0-0
100
AcDbLine
  6
CONTINUOUS
370
13
 10
95.0161305469082
 20
101.66615897924
 11
95.0161305469082
 21
89.6661589792399
  0
LINE
  5
6AA
100
AcDbEntity
  8
0-0
100
AcDbLine
  6
CONTINUOUS
370
13
 10
99.7661305469082
 20
153.06615897924
 11
112.266130546908
 21
153.06615897924
  0
LINE
  5
6AB
100
AcDbEntity
  8
0-0
100
AcDbLine
  6
CONTINUOUS
370
13
 10
101.516130546908
 20
137.06615897924
 11
110.516130546908
 21
137.06615897924
  0
LINE
  5
6AC
100
AcDbEntity
  8
0-0
100
AcDbLine
  6
CONTINUOUS
370
13
 10
101.516130546908
 20
141.66615897924
 11
101.516130546908
 21
137.06615897924
  0
LINE
  5
6AD
100
AcDbEntity
  8
0-0
100
AcDbLine
  6
CONTINUOUS
370
13
 10
110.516130546908
 20
141.66615897924
 11
110.516130546908
 21
137.06615897924
  0
LINE
  5
6AE
100
AcDbEntity
  8
0-0
100
AcDbLine
  6
CONTINUOUS
370
13
 10
99.7661305469082
 20
141.66615897924
 11
101.516130546908
 21
141.66615897924
  0
LINE
  5
6AF
100
AcDbEntity
  8
0-0
100
AcDbLine
  6
CONTINUOUS
370
13
 10
99.7661305469082
 20
153.06615897924
 11
99.7661305469082
 21
141.66615897924
  0
LINE
  5
6B0
100
AcDbEntity
  8
0-0
100
AcDbLine
  6
CONTINUOUS
370
13
 10
101.766130546908
 20
153.06615897924
 11
101.766130546908
 21
137.06615897924
  0
LINE
  5
6B1
100
AcDbEntity
  8
0-0
100
AcDbLine
  6
CONTINUOUS
370
13
 10
110.266130546908
 20
153.06615897924
 11
110.266130546908
 21
137.06615897924
  0
LINE
  5
6B2
100
AcDbEntity
  8
0-0
100
AcDbLine
  6
CONTINUOUS
370
13
 10
112.266130546908
 20
153.06615897924
 11
112.266130546908
 21
141.66615897924
  0
ARC
  5
6B3
100
AcDbEntity
  8
0-0
100
AcDbCircle
  6
CONTINUOUS
370
13
 10
130.016130546908
 20
121.66615897924
 40
16
100
AcDbArc
 50
93.583321698472
 51
-93.583321698472
  0
LINE
  5
6B4
100
AcDbEntity
  8
0-0
100
AcDbLine
  6
CONTINUOUS
370
13
 10
94.5161305469082
 20
141.66615897924
 11
94.5161305469082
 21
101.66615897924
  0
CIRCLE
  5
6B5
100
AcDbEntity
  8
0-0
100
AcDbCircle
  6
CONTINUOUS
370
13
 10
98.5161305469082
 20
132.66615897924
 40
3
  0
CIRCLE
  5
6B6
100
AcDbEntity
  8
0-0
100
AcDbCircle
  6
CONTINUOUS
370
13
 10
98.5161305469082
 20
110.66615897924
 40
3
  0
CIRCLE
  5
6B7
100
AcDbEntity
  8
0-0
100
AcDbCircle
  6
CONTINUOUS
370
13
 10
98.5161305469082
 20
132.66615897924
 40
1.6
  0
CIRCLE
  5
6B8
100
AcDbEntity
  8
0-0
100
AcDbCircle
  6
CONTINUOUS
370
13
 10
98.5161305469082
 20
110.66615897924
 40
1.6
  0
LINE
  5
6B9
100
AcDbEntity
  8
0-0
100
AcDbLine
  6
CONTINUOUS
370
13
 10
129.016130546908
 20
138.145343699068
 11
120.516130546908
 21
141.66615897924
  0
LINE
  5
6BA
100
AcDbEntity
  8
0-0
100
AcDbLine
  6
CONTINUOUS
370
13
 10
129.016130546908
 20
138.135518690575
 11
129.016130546908
 21
137.634878401911
  0
LINE
  5
6BB
100
AcDbEntity
  8
0-0
100
AcDbLine
  6
CONTINUOUS
370
13
 10
129.016130546908
 20
105.196799267904
 11
129.016130546908
 21
105.697439556568
  0
LINE
  5
6BC
100
AcDbEntity
  8
0-0
100
AcDbLine
  6
CONTINUOUS
370
13
 10
129.016130546908
 20
105.186974259411
 11
120.516130546908
 21
101.66615897924
  0
LINE
  5
6BD
100
AcDbEntity
  8
0-0
100
AcDbLine
  6
CONTINUOUS
370
13
 10
101.516130546908
 20
141.66615897924
 11
101.516130546908
 21
135.86615897924
  0
LINE
  5
6BE
100
AcDbEntity
  8
0-0
100
AcDbLine
  6
CONTINUOUS
370
13
 10
110.516130546908
 20
141.66615897924
 11
110.516130546908
 21
135.86615897924
  0
LINE
  5
6BF
100
AcDbEntity
  8
0-0
100
AcDbLine
  6
CONTINUOUS
370
13
 10
101.516130546908
 20
107.46615897924
 11
101.516130546908
 21
101.66615897924
  0
LINE
  5
6C0
100
AcDbEntity
  8
0-0
100
AcDbLine
  6
CONTINUOUS
370
13
 10
110.516130546908
 20
107.46615897924
 11
110.516130546908
 21
101.66615897924
  0
LINE
  5
6C1
100
AcDbEntity
  8
0-0
100
AcDbLine
  6
CONTINUOUS
370
13
 10
101.516130546908
 20
101.66615897924
 11
94.5161305469082
 21
101.66615897924
  0
LINE
  5
6C2
100
AcDbEntity
  8
0-0
100
AcDbLine
  6
CONTINUOUS
370
13
 10
120.516130546908
 20
101.66615897924
 11
110.516130546908
 21
101.66615897924
  0
LINE
  5
6C3
100
AcDbEntity
  8
0-0
100
AcDbLine
  6
CONTINUOUS
370
13
 10
101.516130546908
 20
141.66615897924
 11
94.5161305469082
 21
141.66615897924
  0
LINE
  5
6C4
100
AcDbEntity
  8
0-0
100
AcDbLine
  6
CONTINUOUS
370
13
 10
120.516130546908
 20
141.66615897924
 11
110.516130546908
 21
141.66615897924
  0
LINE
  5
6C5
100
AcDbEntity
  8
0-0
100
AcDbLine
  6
CONTINUOUS
370
13
 10
110.516130546908
 20
107.46615897924
 11
101.516130546908
 21
107.46615897924
  0
LINE
  5
6C6
100
AcDbEntity
  8
0-0
100
AcDbLine
  6
CONTINUOUS
370
13
 10
110.516130546908
 20
135.86615897924
 11
101.516130546908
 21
135.86615897924
  0
LINE
  5
6C7
100
AcDbEntity
  8
0-0
100
AcDbLine
  6
CONTINUOUS
370
13
 10
99.7661305469082
 20
90.2661589792397
 11
112.266130546908
 21
90.2661589792398
  0
LINE
  5
6C8
100
AcDbEntity
  8
0-0
100
AcDbLine
  6
CONTINUOUS
370
13
 10
101.516130546908
 20
106.26615897924
 11
110.516130546908
 21
106.26615897924
  0
LINE
  5
6C9
100
AcDbEntity
  8
0-0
100
AcDbLine
  6
CONTINUOUS
370
13
 10
101.516130546908
 20
101.66615897924
 11
101.516130546908
 21
106.26615897924
  0
LINE
  5
6CA
100
AcDbEntity
  8
0-0
100
AcDbLine
  6
CONTINUOUS
370
13
 10
110.516130546908
 20
101.66615897924
 11
110.516130546908
 21
106.26615897924
  0
LINE
  5
6CB
100
AcDbEntity
  8
0-0
100
AcDbLine
  6
CONTINUOUS
370
13
 10
110.516130546908
 20
101.66615897924
 11
112.266130546908
 21
101.66615897924
  0
LINE
  5
6CC
100
AcDbEntity
  8
0-0
100
AcDbLine
  6
CONTINUOUS
370
13
 10
99.7661305469082
 20
101.66615897924
 11
101.516130546908
 21
101.66615897924
  0
LINE
  5
6CD
100
AcDbEntity
  8
0-0
100
AcDbLine
  6
CONTINUOUS
370
13
 10
99.7661305469082
 20
90.2661589792397
 11
99.7661305469082
 21
101.66615897924
  0
LINE
  5
6CE
100
AcDbEntity
  8
0-0
100
AcDbLine
  6
CONTINUOUS
370
13
 10
101.766130546908
 20
90.2661589792398
 11
101.766130546908
 21
106.26615897924
  0
LINE
  5
6CF
100
AcDbEntity
  8
0-0
100
AcDbLine
  6
CONTINUOUS
370
13
 10
110.266130546908
 20
90.2661589792398
 11
110.266130546908
 21
106.26615897924
  0
LINE
  5
6D0
100
AcDbEntity
  8
0-0
100
AcDbLine
  6
CONTINUOUS
370
13
 10
112.266130546908
 20
90.2661589792398
 11
112.266130546908
 21
101.66615897924
  0
LINE
  5
6D1
100
AcDbEntity
  8
0-0
100
AcDbLine
  6
DIVIDE
370
13
 10
99.7661305469082
 20
159.06615897924
 11
112.266130546908
 21
159.06615897924
  0
LINE
  5
6D2
100
AcDbEntity
  8
0-0
100
AcDbLine
  6
DIVIDE
370
13
 10
101.516130546908
 20
143.06615897924
 11
110.516130546908
 21
143.06615897924
  0
LINE
  5
6D3
100
AcDbEntity
  8
0-0
100
AcDbLine
  6
DIVIDE
370
13
 10
101.516130546908
 20
147.66615897924
 11
101.516130546908
 21
143.06615897924
  0
LINE
  5
6D4
100
AcDbEntity
  8
0-0
100
AcDbLine
  6
DIVIDE
370
13
 10
110.516130546908
 20
147.66615897924
 11
110.516130546908
 21
143.06615897924
  0
LINE
  5
6D5
100
AcDbEntity
  8
0-0
100
AcDbLine
  6
DIVIDE
370
13
 10
110.516130546908
 20
147.66615897924
 11
112.266130546908
 21
147.66615897924
  0
LINE
  5
6D6
100
AcDbEntity
  8
0-0
100
AcDbLine
  6
DIVIDE
370
13
 10
99.7661305469082
 20
147.66615897924
 11
101.516130546908
 21
147.66615897924
  0
LINE
  5
6D7
100
AcDbEntity
  8
0-0
100
AcDbLine
  6
DIVIDE
370
13
 10
99.7661305469082
 20
159.06615897924
 11
99.7661305469082
 21
147.66615897924
  0
LINE
  5
6D8
100
AcDbEntity
  8
0-0
100
AcDbLine
  6
DIVIDE
370
13
 10
112.266130546908
 20
159.06615897924
 11
112.266130546908
 21
147.66615897924
  0
LINE
  5
6D9
100
AcDbEntity
  8
0-0
100
AcDbLine
  6
DIVIDE
370
13
 10
99.7661305469082
 20
84.2661589792397
 11
112.266130546908
 21
84.2661589792398
  0
LINE
  5
6DA
100
AcDbEntity
  8
0-0
100
AcDbLine
  6
DIVIDE
370
13
 10
101.516130546908
 20
100.26615897924
 11
110.516130546908
 21
100.26615897924
  0
LINE
  5
6DB
100
AcDbEntity
  8
0-0
100
AcDbLine
  6
DIVIDE
370
13
 10
101.516130546908
 20
95.6661589792398
 11
101.516130546908
 21
100.26615897924
  0
LINE
  5
6DC
100
AcDbEntity
  8
0-0
100
AcDbLine
  6
DIVIDE
370
13
 10
110.516130546908
 20
95.6661589792397
 11
110.516130546908
 21
100.26615897924
  0
LINE
  5
6DD
100
AcDbEntity
  8
0-0
100
AcDbLine
  6
DIVIDE
370
13
 10
110.516130546908
 20
95.6661589792397
 11
112.266130546908
 21
95.6661589792397
  0
LINE
  5
6DE
100
AcDbEntity
  8
0-0
100
AcDbLine
  6
DIVIDE
370
13
 10
99.7661305469082
 20
95.6661589792397
 11
101.516130546908
 21
95.6661589792398
  0
LINE
  5
6DF
100
AcDbEntity
  8
0-0
100
AcDbLine
  6
DIVIDE
370
13
 10
99.7661305469082
 20
84.2661589792397
 11
99.7661305469082
 21
95.6661589792397
  0
LINE
  5
6E0
100
AcDbEntity
  8
0-0
100
AcDbLine
  6
DIVIDE
370
13
 10
112.266130546908
 20
84.2661589792398
 11
112.266130546908
 21
95.6661589792397
  0
LINE
  5
6E1
100
AcDbEntity
  8
0-0
100
AcDbLine
  6
CONTINUOUS
370
13
 10
273.754252729684
 20
90.6661589792395
 11
273.754252729684
 21
98.6661589792396
  0
LINE
  5
6E2
100
AcDbEntity
  8
0-0
100
AcDbLine
  6
CONTINUOUS
370
13
 10
274.254252729684
 20
154.16615897924
 11
282.754252729684
 21
154.16615897924
  0
LINE
  5
6E3
100
AcDbEntity
  8
0-0
100
AcDbLine
  6
CONTINUOUS
370
13
 10
274.254252729684
 20
154.16615897924
 11
273.754252729684
 21
153.66615897924
  0
LINE
  5
6E4
100
AcDbEntity
  8
0-0
100
AcDbLine
  6
CONTINUOUS
370
13
 10
273.754252729684
 20
153.66615897924
 11
273.754252729684
 21
148.169728815516
  0
LINE
  5
6E5
100
AcDbEntity
  8
0-0
100
AcDbLine
  6
CONTINUOUS
370
13
 10
273.754252729684
 20
136.035838955428
 11
273.754252729684
 21
112.766037043039
  0
LINE
  5
6E6
100
AcDbEntity
  8
0-0
100
AcDbLine
  6
CONTINUOUS
370
13
 10
273.754252729684
 20
109.035838955427
 11
273.754252729684
 21
98.6661589792396
  0
LINE
  5
6E7
100
AcDbEntity
  8
0-0
100
AcDbLine
  6
CONTINUOUS
370
13
 10
255.754252729684
 20
153.06615897924
 11
273.754252729684
 21
153.06615897924
  0
LINE
  5
6E8
100
AcDbEntity
  8
0-0
100
AcDbLine
  6
CONTINUOUS
370
13
 10
255.754252729684
 20
137.06615897924
 11
259.729384990872
 21
137.06615897924
  0
LINE
  5
6E9
100
AcDbEntity
  8
0-0
100
AcDbLine
  6
CONTINUOUS
370
13
 10
255.754252729684
 20
141.66615897924
 11
259.756178588125
 21
141.66615897924
  0
LINE
  5
6EA
100
AcDbEntity
  8
0-0
100
AcDbLine
  6
CONTINUOUS
370
13
 10
271.754252729684
 20
153.06615897924
 11
271.754252729684
 21
151.697276493245
  0
LINE
  5
6EB
100
AcDbEntity
  8
0-0
100
AcDbLine
  6
CONTINUOUS
370
13
 10
273.754252729684
 20
153.06615897924
 11
273.754252729684
 21
151.681990986718
  0
LINE
  5
6EC
100
AcDbEntity
  8
0-0
100
AcDbLine
  6
CONTINUOUS
370
13
 10
257.754252729684
 20
153.06615897924
 11
257.754252729684
 21
141.66615897924
  0
LINE
  5
6ED
100
AcDbEntity
  8
0-0
100
AcDbLine
  6
CONTINUOUS
370
13
 10
255.754252729684
 20
153.06615897924
 11
255.754252729684
 21
137.06615897924
  0
LINE
  5
6EE
100
AcDbEntity
  8
0-0
100
AcDbLine
  6
CONTINUOUS
370
13
 10
255.754252729684
 20
90.2661589792397
 11
273.754252729684
 21
90.2661589792397
  0
LINE
  5
6EF
100
AcDbEntity
  8
0-0
100
AcDbLine
  6
CONTINUOUS
370
13
 10
255.754252729684
 20
106.26615897924
 11
256.154734355178
 21
106.26615897924
  0
LINE
  5
6F0
100
AcDbEntity
  8
0-0
100
AcDbLine
  6
CONTINUOUS
370
13
 10
271.754252729684
 20
90.2661589792397
 11
271.754252729684
 21
91.6781811509258
  0
LINE
  5
6F1
100
AcDbEntity
  8
0-0
100
AcDbLine
  6
CONTINUOUS
370
13
 10
273.754252729684
 20
90.2661589792397
 11
273.754252729684
 21
91.6653665777872
  0
LINE
  5
6F2
100
AcDbEntity
  8
0-0
100
AcDbLine
  6
CONTINUOUS
370
13
 10
255.754252729684
 20
90.2661589792397
 11
255.754252729684
 21
106.26615897924
  0
LINE
  5
6F3
100
AcDbEntity
  8
0-0
100
AcDbLine
  6
DIVIDE
370
13
 10
255.754252729684
 20
159.06615897924
 11
273.754252729684
 21
159.06615897924
  0
LINE
  5
6F4
100
AcDbEntity
  8
0-0
100
AcDbLine
  6
DIVIDE
370
13
 10
255.754252729684
 20
143.06615897924
 11
259.729384990872
 21
143.06615897924
  0
LINE
  5
6F5
100
AcDbEntity
  8
0-0
100
AcDbLine
  6
DIVIDE
370
13
 10
273.754252729684
 20
159.06615897924
 11
273.754252729684
 21
151.786590182501
  0
LINE
  5
6F6
100
AcDbEntity
  8
0-0
100
AcDbLine
  6
DIVIDE
370
13
 10
255.754252729684
 20
159.06615897924
 11
255.754252729684
 21
143.06615897924
  0
LINE
  5
6F7
100
AcDbEntity
  8
0-0
100
AcDbLine
  6
DIVIDE
370
13
 10
255.754252729684
 20
84.2661589792397
 11
273.754252729684
 21
84.2661589792397
  0
LINE
  5
6F8
100
AcDbEntity
  8
0-0
100
AcDbLine
  6
DIVIDE
370
13
 10
273.754252729684
 20
84.2661589792397
 11
273.754252729684
 21
88.6653665777872
  0
LINE
  5
6F9
100
AcDbEntity
  8
0-0
100
AcDbLine
  6
DIVIDE
370
13
 10
255.754252729684
 20
84.2661589792397
 11
255.754252729684
 21
100.26615897924
  0
LINE
  5
6FA
100
AcDbEntity
  8
0-0
100
AcDbLine
  6
CONTINUOUS
370
13
 10
257.754252729684
 20
90.2661589792397
 11
257.754252729684
 21
94.5943791905316
  0
LINE
  5
6FB
100
AcDbEntity
  8
0-0
100
AcDbLine
  6
CONTINUOUS
370
13
 10
257.754252729684
 20
100.737938767948
 11
257.754252729684
 21
101.66615897924
  0
LINE
  5
6FC
100
AcDbEntity
  8
0-0
100
AcDbLine
  6
CONTINUOUS
370
13
 10
255.754252729684
 20
101.66615897924
 11
258.682472940977
 21
101.66615897924
  0
LINE
  5
6FD
100
AcDbEntity
  8
0-0
100
AcDbLine
  6
CONTINUOUS
370
13
 10
259.554252729684
 20
101.66615897924
 11
259.762453863255
 21
101.66615897924
  0
LINE
  5
6FE
100
AcDbEntity
  8
0-0
100
AcDbLine
  6
BYLAYER
370
13
 10
94.0184893108948
 20
252.539165973396
 11
86.0184893108951
 21
252.539165973396
  0
LINE
  5
6FF
100
AcDbEntity
  8
0-0
100
AcDbLine
  6
BYLAYER
370
13
 10
94.0184893108948
 20
254.039165973396
 11
86.0184893108951
 21
254.039165973396
  0
LINE
  5
700
100
AcDbEntity
  8
0-0
100
AcDbLine
  6
BYLAYER
370
13
 10
93.0184893108948
 20
250.739165973396
 11
87.0184893108951
 21
250.739165973396
  0
LINE
  5
701
100
AcDbEntity
  8
0-0
100
AcDbLine
  6
BYLAYER
370
13
 10
87.2184893108951
 20
250.739165973396
 11
87.2184893108951
 21
252.539165973396
  0
LINE
  5
702
100
AcDbEntity
  8
0-0
100
AcDbLine
  6
BYLAYER
370
13
 10
87.0184893108951
 20
250.739165973396
 11
87.0184893108951
 21
252.539165973396
  0
LINE
  5
703
100
AcDbEntity
  8
0-0
100
AcDbLine
  6
BYLAYER
370
13
 10
86.0184893108951
 20
254.039165973396
 11
86.0184893108951
 21
252.539165973396
  0
LINE
  5
704
100
AcDbEntity
  8
0-0
100
AcDbLine
  6
BYLAYER
370
13
 10
92.818489310895
 20
250.739165973396
 11
92.818489310895
 21
252.539165973396
  0
LINE
  5
705
100
AcDbEntity
  8
0-0
100
AcDbLine
  6
BYLAYER
370
13
 10
93.0184893108951
 20
250.739165973396
 11
93.018489310895
 21
252.539165973396
  0
LINE
  5
706
100
AcDbEntity
  8
0-0
100
AcDbLine
  6
BYLAYER
370
13
 10
94.0184893108948
 20
254.039165973396
 11
94.0184893108948
 21
252.539165973396
  0
LINE
  5
707
100
AcDbEntity
  8
0-0
100
AcDbLine
  6
CONTINUOUS
370
13
 10
183.022406518081
 20
158.663492136414
 11
77.0184893108949
 21
158.663492136414
  0
ENDSEC
  0
SECTION
  2
OBJECTS
  0
DICTIONARY
  5
708
100
AcDbDictionary
  3
ACAD_GROUP
350
709
  3
ACAD_MLINESTYLE
350
70A
  0
DICTIONARY
  5
709
102
{ACAD_REACTORS
330
708
102
}
100
AcDbDictionary
  0
DICTIONARY
  5
70A
102
{ACAD_REACTORS
330
708
102
}
100
AcDbDictionary
  3
STANDARD
350
70B
  0
MLINESTYLE
  5
70B
102
{ACAD_REACTORS
330
70A
102
}
100
AcDbMlineStyle
  2
Standard
 70
     0
  3

 62
     0
 51
90.0
 52
90.0
 71
     2
 49
0.5
 62
   256
  6
ByLayer
 49
-0.5
 62
   256
  6
ByLayer
  0
ENDSEC
  0
EOF
