999
Outputted By AR_CAD Ver.1.7.0
  0
SECTION
  2
HEADER
  9
$ACADVER
  1
AC1014
  9
$DWGCODEPAGE
  3
ANSI_932
  9
$EXTMIN
 10
0
 20
0
  9
$EXTMAX
 10
297
 20
210
  9
$INSBASE
 10
0.0
 20
0.0
 30
0.0
  9
$HANDLING
 70
     1
  9
$HANDSEED
  5
639
  9
$LTSCALE
 40
1
  0
ENDSEC
  0
SECTION
  2
TABLES
  0
TABLE
  2
VPORT
  5
1
100
AcDbSymbolTable
 70
     1
  0
VPORT
  5
30
100
AcDbSymbolTableRecord
100
AcDbViewportTableRecord
  2
*ACTIVE
 70
     0
 10
0.0
 20
0.0
 11
1.0
 21
1.0
 12
210.0
 22
148.5
 13
0.0
 23
0.0
 14
10.0
 24
10.0
 15
10.0
 25
10.0
 16
0.0
 26
0.0
 36
1.0
 17
0.0
 27
0.0
 37
0.0
 40
302.94
 41
1.333333
 42
50.0
 43
0.0
 44
0.0
 50
0.0
 51
0.0
 71
     0
 72
   100
 73
     1
 74
     1
 75
     0
 76
     0
 77
     0
 78
     0
  0
ENDTAB
  0
TABLE
  2
LTYPE
  5
2
100
AcDbSymbolTable
 70
     11
  0
LTYPE
  5
31
100
AcDbSymbolTableRecord
100
AcDbLinetypeTableRecord
  2
BYBLOCK
 70
    64
 3

 72
    65
 73
    0
 40
    0
  0
LTYPE
  5
32
100
AcDbSymbolTableRecord
100
AcDbLinetypeTableRecord
  2
BYLAYER
 70
    64
 3

 72
    65
 73
    0
 40
    0
  0
LTYPE
  5
33
100
AcDbSymbolTableRecord
100
AcDbLinetypeTableRecord
  2
CONTINUOUS
 70
    64
 3
CONTINUOUS
 72
    65
 73
    0
 40
    0
  0
LTYPE
  5
34
100
AcDbSymbolTableRecord
100
AcDbLinetypeTableRecord
  2
DASHED
 70
    64
 3

 72
    65
 73
    2
 40
    0.75
 49
    0.5
 74
    0
 49
    -0.25
 74
    0
  0
LTYPE
  5
35
100
AcDbSymbolTableRecord
100
AcDbLinetypeTableRecord
  2
DOT
 70
    64
 3

 72
    65
 73
    2
 40
    0.5
 49
    0.25
 74
    0
 49
    -0.25
 74
    0
  0
LTYPE
  5
36
100
AcDbSymbolTableRecord
100
AcDbLinetypeTableRecord
  2
DASHDOT
 70
    64
 3

 72
    65
 73
    4
 40
    3.5
 49
    1.841
 74
    0
 49
    -0.553
 74
    0
 49
    0.553
 74
    0
 49
    -0.553
 74
    0
  0
LTYPE
  5
37
100
AcDbSymbolTableRecord
100
AcDbLinetypeTableRecord
  2
DIVIDE
 70
    64
 3

 72
    65
 73
    6
 40
    3.5
 49
    1.4
 74
    0
 49
    -0.42
 74
    0
 49
    0.42
 74
    0
 49
    -0.42
 74
    0
 49
    0.42
 74
    0
 49
    -0.42
 74
    0
  0
LTYPE
  5
38
100
AcDbSymbolTableRecord
100
AcDbLinetypeTableRecord
  2
HIDDEN
 70
    64
 3

 72
    65
 73
    2
 40
    4
 49
    2
 74
    0
 49
    -2
 74
    0
  0
LTYPE
  5
39
100
AcDbSymbolTableRecord
100
AcDbLinetypeTableRecord
  2
CENTER
 70
    64
 3

 72
    65
 73
    4
 40
    2
 49
    1.25
 74
    0
 49
    -0.25
 74
    0
 49
    0.25
 74
    0
 49
    -0.25
 74
    0
  0
LTYPE
  5
3A
100
AcDbSymbolTableRecord
100
AcDbLinetypeTableRecord
  2
PHANTOM
 70
    64
 3

 72
    65
 73
    6
 40
    2.5
 49
    1.25
 74
    0
 49
    -0.25
 74
    0
 49
    0.25
 74
    0
 49
    -0.25
 74
    0
 49
    0.25
 74
    0
 49
    -0.25
 74
    0
  0
LTYPE
  5
3B
100
AcDbSymbolTableRecord
100
AcDbLinetypeTableRecord
  2
BORDER
 70
    64
 3

 72
    65
 73
    6
 40
    1.75
 49
    0.5
 74
    0
 49
    -0.25
 74
    0
 49
    0.5
 74
    0
 49
    -0.25
 74
    0
 49
    0
 74
    0
 49
    -0.25
 74
    0
  0
LTYPE
  5
3C
100
AcDbSymbolTableRecord
100
AcDbLinetypeTableRecord
  2

 70
    64
 3

 72
    65
 73
    2
 40
    6
 49
    4
 74
    0
 49
    -2
 74
    0
  0
ENDTAB
  0
TABLE
  2
LAYER
  5
3
100
AcDbSymbolTable
 70
   257
  0
LAYER
  5
3D
100
AcDbSymbolTableRecord
100
AcDbLayerTableRecord
  2
0-0
 70
    0
 62
250
  6
CONTINUOUS
  0
LAYER
  5
3E
100
AcDbSymbolTableRecord
100
AcDbLayerTableRecord
  2
0-1
 70
    0
 62
3
  6
CONTINUOUS
  0
LAYER
  5
3F
100
AcDbSymbolTableRecord
100
AcDbLayerTableRecord
  2
0-2
 70
    0
 62
9
  6
CONTINUOUS
  0
LAYER
  5
40
100
AcDbSymbolTableRecord
100
AcDbLayerTableRecord
  2
0-3
 70
    0
 62
250
  6
CONTINUOUS
  0
LAYER
  5
41
100
AcDbSymbolTableRecord
100
AcDbLayerTableRecord
  2
0-4
 70
    0
 62
6
  6
CONTINUOUS
  0
LAYER
  5
42
100
AcDbSymbolTableRecord
100
AcDbLayerTableRecord
  2
0-5
 70
    0
 62
1
  6
CONTINUOUS
  0
LAYER
  5
43
100
AcDbSymbolTableRecord
100
AcDbLayerTableRecord
  2
0-6
 70
    0
 62
7
  6
CONTINUOUS
  0
LAYER
  5
44
100
AcDbSymbolTableRecord
100
AcDbLayerTableRecord
  2
0-7
 70
    0
 62
51
  6
CONTINUOUS
  0
LAYER
  5
45
100
AcDbSymbolTableRecord
100
AcDbLayerTableRecord
  2
0-8
 70
    0
 62
61
  6
CONTINUOUS
  0
LAYER
  5
46
100
AcDbSymbolTableRecord
100
AcDbLayerTableRecord
  2
0-9
 70
    0
 62
111
  6
CONTINUOUS
  0
LAYER
  5
47
100
AcDbSymbolTableRecord
100
AcDbLayerTableRecord
  2
0-a
 70
    0
 62
91
  6
CONTINUOUS
  0
LAYER
  5
48
100
AcDbSymbolTableRecord
100
AcDbLayerTableRecord
  2
0-b
 70
    0
 62
131
  6
CONTINUOUS
  0
LAYER
  5
49
100
AcDbSymbolTableRecord
100
AcDbLayerTableRecord
  2
0-c
 70
    0
 62
161
  6
CONTINUOUS
  0
LAYER
  5
4A
100
AcDbSymbolTableRecord
100
AcDbLayerTableRecord
  2
0-d
 70
    0
 62
5
  6
CONTINUOUS
  0
LAYER
  5
4B
100
AcDbSymbolTableRecord
100
AcDbLayerTableRecord
  2
0-e
 70
    0
 62
7
  6
CONTINUOUS
  0
LAYER
  5
4C
100
AcDbSymbolTableRecord
100
AcDbLayerTableRecord
  2
0-f
 70
    0
 62
11
  6
CONTINUOUS
  0
LAYER
  5
4D
100
AcDbSymbolTableRecord
100
AcDbLayerTableRecord
  2
1-0
 70
    0
 62
250
  6
CONTINUOUS
  0
LAYER
  5
4E
100
AcDbSymbolTableRecord
100
AcDbLayerTableRecord
  2
1-1
 70
    0
 62
70
  6
CONTINUOUS
  0
LAYER
  5
4F
100
AcDbSymbolTableRecord
100
AcDbLayerTableRecord
  2
1-2
 70
    0
 62
211
  6
CONTINUOUS
  0
LAYER
  5
50
100
AcDbSymbolTableRecord
100
AcDbLayerTableRecord
  2
1-3
 70
    0
 62
137
  6
CONTINUOUS
  0
LAYER
  5
51
100
AcDbSymbolTableRecord
100
AcDbLayerTableRecord
  2
1-4
 70
    0
 62
4
  6
CONTINUOUS
  0
LAYER
  5
52
100
AcDbSymbolTableRecord
100
AcDbLayerTableRecord
  2
1-5
 70
    0
 62
131
  6
CONTINUOUS
  0
LAYER
  5
53
100
AcDbSymbolTableRecord
100
AcDbLayerTableRecord
  2
1-6
 70
    0
 62
4
  6
CONTINUOUS
  0
LAYER
  5
54
100
AcDbSymbolTableRecord
100
AcDbLayerTableRecord
  2
1-7
 70
    0
 62
4
  6
CONTINUOUS
  0
LAYER
  5
55
100
AcDbSymbolTableRecord
100
AcDbLayerTableRecord
  2
1-8
 70
    0
 62
250
  6
CONTINUOUS
  0
LAYER
  5
56
100
AcDbSymbolTableRecord
100
AcDbLayerTableRecord
  2
1-9
 70
    0
 62
250
  6
CONTINUOUS
  0
LAYER
  5
57
100
AcDbSymbolTableRecord
100
AcDbLayerTableRecord
  2
1-a
 70
    0
 62
250
  6
CONTINUOUS
  0
LAYER
  5
58
100
AcDbSymbolTableRecord
100
AcDbLayerTableRecord
  2
1-b
 70
    0
 62
250
  6
CONTINUOUS
  0
LAYER
  5
59
100
AcDbSymbolTableRecord
100
AcDbLayerTableRecord
  2
1-c
 70
    0
 62
250
  6
CONTINUOUS
  0
LAYER
  5
5A
100
AcDbSymbolTableRecord
100
AcDbLayerTableRecord
  2
1-d
 70
    0
 62
250
  6
CONTINUOUS
  0
LAYER
  5
5B
100
AcDbSymbolTableRecord
100
AcDbLayerTableRecord
  2
1-e
 70
    0
 62
250
  6
CONTINUOUS
  0
LAYER
  5
5C
100
AcDbSymbolTableRecord
100
AcDbLayerTableRecord
  2
1-f
 70
    0
 62
250
  6
CONTINUOUS
  0
LAYER
  5
5D
100
AcDbSymbolTableRecord
100
AcDbLayerTableRecord
  2
2-0
 70
    4
 62
250
  6
CONTINUOUS
  0
LAYER
  5
5E
100
AcDbSymbolTableRecord
100
AcDbLayerTableRecord
  2
2-1
 70
    4
 62
250
  6
CONTINUOUS
  0
LAYER
  5
5F
100
AcDbSymbolTableRecord
100
AcDbLayerTableRecord
  2
2-2
 70
    4
 62
250
  6
CONTINUOUS
  0
LAYER
  5
60
100
AcDbSymbolTableRecord
100
AcDbLayerTableRecord
  2
2-3
 70
    4
 62
250
  6
CONTINUOUS
  0
LAYER
  5
61
100
AcDbSymbolTableRecord
100
AcDbLayerTableRecord
  2
2-4
 70
    4
 62
250
  6
CONTINUOUS
  0
LAYER
  5
62
100
AcDbSymbolTableRecord
100
AcDbLayerTableRecord
  2
2-5
 70
    4
 62
250
  6
CONTINUOUS
  0
LAYER
  5
63
100
AcDbSymbolTableRecord
100
AcDbLayerTableRecord
  2
2-6
 70
    4
 62
250
  6
CONTINUOUS
  0
LAYER
  5
64
100
AcDbSymbolTableRecord
100
AcDbLayerTableRecord
  2
2-7
 70
    4
 62
250
  6
CONTINUOUS
  0
LAYER
  5
65
100
AcDbSymbolTableRecord
100
AcDbLayerTableRecord
  2
2-8
 70
    4
 62
250
  6
CONTINUOUS
  0
LAYER
  5
66
100
AcDbSymbolTableRecord
100
AcDbLayerTableRecord
  2
2-9
 70
    4
 62
250
  6
CONTINUOUS
  0
LAYER
  5
67
100
AcDbSymbolTableRecord
100
AcDbLayerTableRecord
  2
2-a
 70
    4
 62
250
  6
CONTINUOUS
  0
LAYER
  5
68
100
AcDbSymbolTableRecord
100
AcDbLayerTableRecord
  2
2-b
 70
    4
 62
250
  6
CONTINUOUS
  0
LAYER
  5
69
100
AcDbSymbolTableRecord
100
AcDbLayerTableRecord
  2
2-c
 70
    4
 62
250
  6
CONTINUOUS
  0
LAYER
  5
6A
100
AcDbSymbolTableRecord
100
AcDbLayerTableRecord
  2
2-d
 70
    4
 62
250
  6
CONTINUOUS
  0
LAYER
  5
6B
100
AcDbSymbolTableRecord
100
AcDbLayerTableRecord
  2
2-e
 70
    4
 62
250
  6
CONTINUOUS
  0
LAYER
  5
6C
100
AcDbSymbolTableRecord
100
AcDbLayerTableRecord
  2
2-f
 70
    4
 62
250
  6
CONTINUOUS
  0
LAYER
  5
6D
100
AcDbSymbolTableRecord
100
AcDbLayerTableRecord
  2
3-0
 70
    0
 62
250
  6
CONTINUOUS
  0
LAYER
  5
6E
100
AcDbSymbolTableRecord
100
AcDbLayerTableRecord
  2
3-1
 70
    0
 62
250
  6
CONTINUOUS
  0
LAYER
  5
6F
100
AcDbSymbolTableRecord
100
AcDbLayerTableRecord
  2
3-2
 70
    0
 62
250
  6
CONTINUOUS
  0
LAYER
  5
70
100
AcDbSymbolTableRecord
100
AcDbLayerTableRecord
  2
3-3
 70
    0
 62
250
  6
CONTINUOUS
  0
LAYER
  5
71
100
AcDbSymbolTableRecord
100
AcDbLayerTableRecord
  2
3-4
 70
    0
 62
250
  6
CONTINUOUS
  0
LAYER
  5
72
100
AcDbSymbolTableRecord
100
AcDbLayerTableRecord
  2
3-5
 70
    0
 62
250
  6
CONTINUOUS
  0
LAYER
  5
73
100
AcDbSymbolTableRecord
100
AcDbLayerTableRecord
  2
3-6
 70
    0
 62
250
  6
CONTINUOUS
  0
LAYER
  5
74
100
AcDbSymbolTableRecord
100
AcDbLayerTableRecord
  2
3-7
 70
    0
 62
250
  6
CONTINUOUS
  0
LAYER
  5
75
100
AcDbSymbolTableRecord
100
AcDbLayerTableRecord
  2
3-8
 70
    0
 62
250
  6
CONTINUOUS
  0
LAYER
  5
76
100
AcDbSymbolTableRecord
100
AcDbLayerTableRecord
  2
3-9
 70
    0
 62
250
  6
CONTINUOUS
  0
LAYER
  5
77
100
AcDbSymbolTableRecord
100
AcDbLayerTableRecord
  2
3-a
 70
    0
 62
250
  6
CONTINUOUS
  0
LAYER
  5
78
100
AcDbSymbolTableRecord
100
AcDbLayerTableRecord
  2
3-b
 70
    0
 62
250
  6
CONTINUOUS
  0
LAYER
  5
79
100
AcDbSymbolTableRecord
100
AcDbLayerTableRecord
  2
3-c
 70
    0
 62
250
  6
CONTINUOUS
  0
LAYER
  5
7A
100
AcDbSymbolTableRecord
100
AcDbLayerTableRecord
  2
3-d
 70
    0
 62
250
  6
CONTINUOUS
  0
LAYER
  5
7B
100
AcDbSymbolTableRecord
100
AcDbLayerTableRecord
  2
3-e
 70
    0
 62
250
  6
CONTINUOUS
  0
LAYER
  5
7C
100
AcDbSymbolTableRecord
100
AcDbLayerTableRecord
  2
3-f
 70
    0
 62
250
  6
CONTINUOUS
  0
LAYER
  5
7D
100
AcDbSymbolTableRecord
100
AcDbLayerTableRecord
  2
4-0
 70
    0
 62
250
  6
CONTINUOUS
  0
LAYER
  5
7E
100
AcDbSymbolTableRecord
100
AcDbLayerTableRecord
  2
4-1
 70
    0
 62
250
  6
CONTINUOUS
  0
LAYER
  5
7F
100
AcDbSymbolTableRecord
100
AcDbLayerTableRecord
  2
4-2
 70
    0
 62
250
  6
CONTINUOUS
  0
LAYER
  5
80
100
AcDbSymbolTableRecord
100
AcDbLayerTableRecord
  2
4-3
 70
    0
 62
250
  6
CONTINUOUS
  0
LAYER
  5
81
100
AcDbSymbolTableRecord
100
AcDbLayerTableRecord
  2
4-4
 70
    0
 62
250
  6
CONTINUOUS
  0
LAYER
  5
82
100
AcDbSymbolTableRecord
100
AcDbLayerTableRecord
  2
4-5
 70
    0
 62
250
  6
CONTINUOUS
  0
LAYER
  5
83
100
AcDbSymbolTableRecord
100
AcDbLayerTableRecord
  2
4-6
 70
    0
 62
250
  6
CONTINUOUS
  0
LAYER
  5
84
100
AcDbSymbolTableRecord
100
AcDbLayerTableRecord
  2
4-7
 70
    0
 62
250
  6
CONTINUOUS
  0
LAYER
  5
85
100
AcDbSymbolTableRecord
100
AcDbLayerTableRecord
  2
4-8
 70
    0
 62
250
  6
CONTINUOUS
  0
LAYER
  5
86
100
AcDbSymbolTableRecord
100
AcDbLayerTableRecord
  2
4-9
 70
    0
 62
250
  6
CONTINUOUS
  0
LAYER
  5
87
100
AcDbSymbolTableRecord
100
AcDbLayerTableRecord
  2
4-a
 70
    0
 62
250
  6
CONTINUOUS
  0
LAYER
  5
88
100
AcDbSymbolTableRecord
100
AcDbLayerTableRecord
  2
4-b
 70
    0
 62
250
  6
CONTINUOUS
  0
LAYER
  5
89
100
AcDbSymbolTableRecord
100
AcDbLayerTableRecord
  2
4-c
 70
    0
 62
250
  6
CONTINUOUS
  0
LAYER
  5
8A
100
AcDbSymbolTableRecord
100
AcDbLayerTableRecord
  2
4-d
 70
    0
 62
250
  6
CONTINUOUS
  0
LAYER
  5
8B
100
AcDbSymbolTableRecord
100
AcDbLayerTableRecord
  2
4-e
 70
    0
 62
250
  6
CONTINUOUS
  0
LAYER
  5
8C
100
AcDbSymbolTableRecord
100
AcDbLayerTableRecord
  2
4-f
 70
    0
 62
250
  6
CONTINUOUS
  0
LAYER
  5
8D
100
AcDbSymbolTableRecord
100
AcDbLayerTableRecord
  2
5-0
 70
    0
 62
250
  6
CONTINUOUS
  0
LAYER
  5
8E
100
AcDbSymbolTableRecord
100
AcDbLayerTableRecord
  2
5-1
 70
    0
 62
250
  6
CONTINUOUS
  0
LAYER
  5
8F
100
AcDbSymbolTableRecord
100
AcDbLayerTableRecord
  2
5-2
 70
    0
 62
250
  6
CONTINUOUS
  0
LAYER
  5
90
100
AcDbSymbolTableRecord
100
AcDbLayerTableRecord
  2
5-3
 70
    0
 62
250
  6
CONTINUOUS
  0
LAYER
  5
91
100
AcDbSymbolTableRecord
100
AcDbLayerTableRecord
  2
5-4
 70
    0
 62
250
  6
CONTINUOUS
  0
LAYER
  5
92
100
AcDbSymbolTableRecord
100
AcDbLayerTableRecord
  2
5-5
 70
    0
 62
250
  6
CONTINUOUS
  0
LAYER
  5
93
100
AcDbSymbolTableRecord
100
AcDbLayerTableRecord
  2
5-6
 70
    0
 62
250
  6
CONTINUOUS
  0
LAYER
  5
94
100
AcDbSymbolTableRecord
100
AcDbLayerTableRecord
  2
5-7
 70
    0
 62
250
  6
CONTINUOUS
  0
LAYER
  5
95
100
AcDbSymbolTableRecord
100
AcDbLayerTableRecord
  2
5-8
 70
    0
 62
250
  6
CONTINUOUS
  0
LAYER
  5
96
100
AcDbSymbolTableRecord
100
AcDbLayerTableRecord
  2
5-9
 70
    0
 62
250
  6
CONTINUOUS
  0
LAYER
  5
97
100
AcDbSymbolTableRecord
100
AcDbLayerTableRecord
  2
5-a
 70
    0
 62
250
  6
CONTINUOUS
  0
LAYER
  5
98
100
AcDbSymbolTableRecord
100
AcDbLayerTableRecord
  2
5-b
 70
    0
 62
250
  6
CONTINUOUS
  0
LAYER
  5
99
100
AcDbSymbolTableRecord
100
AcDbLayerTableRecord
  2
5-c
 70
    0
 62
250
  6
CONTINUOUS
  0
LAYER
  5
9A
100
AcDbSymbolTableRecord
100
AcDbLayerTableRecord
  2
5-d
 70
    0
 62
250
  6
CONTINUOUS
  0
LAYER
  5
9B
100
AcDbSymbolTableRecord
100
AcDbLayerTableRecord
  2
5-e
 70
    0
 62
250
  6
CONTINUOUS
  0
LAYER
  5
9C
100
AcDbSymbolTableRecord
100
AcDbLayerTableRecord
  2
5-f
 70
    0
 62
250
  6
CONTINUOUS
  0
LAYER
  5
9D
100
AcDbSymbolTableRecord
100
AcDbLayerTableRecord
  2
6-0
 70
    0
 62
250
  6
CONTINUOUS
  0
LAYER
  5
9E
100
AcDbSymbolTableRecord
100
AcDbLayerTableRecord
  2
6-1
 70
    0
 62
250
  6
CONTINUOUS
  0
LAYER
  5
9F
100
AcDbSymbolTableRecord
100
AcDbLayerTableRecord
  2
6-2
 70
    0
 62
250
  6
CONTINUOUS
  0
LAYER
  5
A0
100
AcDbSymbolTableRecord
100
AcDbLayerTableRecord
  2
6-3
 70
    0
 62
250
  6
CONTINUOUS
  0
LAYER
  5
A1
100
AcDbSymbolTableRecord
100
AcDbLayerTableRecord
  2
6-4
 70
    0
 62
250
  6
CONTINUOUS
  0
LAYER
  5
A2
100
AcDbSymbolTableRecord
100
AcDbLayerTableRecord
  2
6-5
 70
    0
 62
250
  6
CONTINUOUS
  0
LAYER
  5
A3
100
AcDbSymbolTableRecord
100
AcDbLayerTableRecord
  2
6-6
 70
    0
 62
250
  6
CONTINUOUS
  0
LAYER
  5
A4
100
AcDbSymbolTableRecord
100
AcDbLayerTableRecord
  2
6-7
 70
    0
 62
250
  6
CONTINUOUS
  0
LAYER
  5
A5
100
AcDbSymbolTableRecord
100
AcDbLayerTableRecord
  2
6-8
 70
    0
 62
250
  6
CONTINUOUS
  0
LAYER
  5
A6
100
AcDbSymbolTableRecord
100
AcDbLayerTableRecord
  2
6-9
 70
    0
 62
250
  6
CONTINUOUS
  0
LAYER
  5
A7
100
AcDbSymbolTableRecord
100
AcDbLayerTableRecord
  2
6-a
 70
    0
 62
250
  6
CONTINUOUS
  0
LAYER
  5
A8
100
AcDbSymbolTableRecord
100
AcDbLayerTableRecord
  2
6-b
 70
    0
 62
250
  6
CONTINUOUS
  0
LAYER
  5
A9
100
AcDbSymbolTableRecord
100
AcDbLayerTableRecord
  2
6-c
 70
    0
 62
250
  6
CONTINUOUS
  0
LAYER
  5
AA
100
AcDbSymbolTableRecord
100
AcDbLayerTableRecord
  2
6-d
 70
    0
 62
250
  6
CONTINUOUS
  0
LAYER
  5
AB
100
AcDbSymbolTableRecord
100
AcDbLayerTableRecord
  2
6-e
 70
    0
 62
250
  6
CONTINUOUS
  0
LAYER
  5
AC
100
AcDbSymbolTableRecord
100
AcDbLayerTableRecord
  2
6-f
 70
    0
 62
250
  6
CONTINUOUS
  0
LAYER
  5
AD
100
AcDbSymbolTableRecord
100
AcDbLayerTableRecord
  2
7-0
 70
    0
 62
250
  6
CONTINUOUS
  0
LAYER
  5
AE
100
AcDbSymbolTableRecord
100
AcDbLayerTableRecord
  2
7-1
 70
    0
 62
250
  6
CONTINUOUS
  0
LAYER
  5
AF
100
AcDbSymbolTableRecord
100
AcDbLayerTableRecord
  2
7-2
 70
    0
 62
250
  6
CONTINUOUS
  0
LAYER
  5
B0
100
AcDbSymbolTableRecord
100
AcDbLayerTableRecord
  2
7-3
 70
    0
 62
250
  6
CONTINUOUS
  0
LAYER
  5
B1
100
AcDbSymbolTableRecord
100
AcDbLayerTableRecord
  2
7-4
 70
    0
 62
250
  6
CONTINUOUS
  0
LAYER
  5
B2
100
AcDbSymbolTableRecord
100
AcDbLayerTableRecord
  2
7-5
 70
    0
 62
250
  6
CONTINUOUS
  0
LAYER
  5
B3
100
AcDbSymbolTableRecord
100
AcDbLayerTableRecord
  2
7-6
 70
    0
 62
250
  6
CONTINUOUS
  0
LAYER
  5
B4
100
AcDbSymbolTableRecord
100
AcDbLayerTableRecord
  2
7-7
 70
    0
 62
250
  6
CONTINUOUS
  0
LAYER
  5
B5
100
AcDbSymbolTableRecord
100
AcDbLayerTableRecord
  2
7-8
 70
    0
 62
250
  6
CONTINUOUS
  0
LAYER
  5
B6
100
AcDbSymbolTableRecord
100
AcDbLayerTableRecord
  2
7-9
 70
    0
 62
250
  6
CONTINUOUS
  0
LAYER
  5
B7
100
AcDbSymbolTableRecord
100
AcDbLayerTableRecord
  2
7-a
 70
    0
 62
250
  6
CONTINUOUS
  0
LAYER
  5
B8
100
AcDbSymbolTableRecord
100
AcDbLayerTableRecord
  2
7-b
 70
    0
 62
250
  6
CONTINUOUS
  0
LAYER
  5
B9
100
AcDbSymbolTableRecord
100
AcDbLayerTableRecord
  2
7-c
 70
    0
 62
250
  6
CONTINUOUS
  0
LAYER
  5
BA
100
AcDbSymbolTableRecord
100
AcDbLayerTableRecord
  2
7-d
 70
    0
 62
250
  6
CONTINUOUS
  0
LAYER
  5
BB
100
AcDbSymbolTableRecord
100
AcDbLayerTableRecord
  2
7-e
 70
    0
 62
250
  6
CONTINUOUS
  0
LAYER
  5
BC
100
AcDbSymbolTableRecord
100
AcDbLayerTableRecord
  2
7-f
 70
    0
 62
250
  6
CONTINUOUS
  0
LAYER
  5
BD
100
AcDbSymbolTableRecord
100
AcDbLayerTableRecord
  2
8-0
 70
    0
 62
250
  6
CONTINUOUS
  0
LAYER
  5
BE
100
AcDbSymbolTableRecord
100
AcDbLayerTableRecord
  2
8-1
 70
    0
 62
250
  6
CONTINUOUS
  0
LAYER
  5
BF
100
AcDbSymbolTableRecord
100
AcDbLayerTableRecord
  2
8-2
 70
    0
 62
250
  6
CONTINUOUS
  0
LAYER
  5
C0
100
AcDbSymbolTableRecord
100
AcDbLayerTableRecord
  2
8-3
 70
    0
 62
250
  6
CONTINUOUS
  0
LAYER
  5
C1
100
AcDbSymbolTableRecord
100
AcDbLayerTableRecord
  2
8-4
 70
    0
 62
250
  6
CONTINUOUS
  0
LAYER
  5
C2
100
AcDbSymbolTableRecord
100
AcDbLayerTableRecord
  2
8-5
 70
    0
 62
250
  6
CONTINUOUS
  0
LAYER
  5
C3
100
AcDbSymbolTableRecord
100
AcDbLayerTableRecord
  2
8-6
 70
    0
 62
250
  6
CONTINUOUS
  0
LAYER
  5
C4
100
AcDbSymbolTableRecord
100
AcDbLayerTableRecord
  2
8-7
 70
    0
 62
250
  6
CONTINUOUS
  0
LAYER
  5
C5
100
AcDbSymbolTableRecord
100
AcDbLayerTableRecord
  2
8-8
 70
    0
 62
250
  6
CONTINUOUS
  0
LAYER
  5
C6
100
AcDbSymbolTableRecord
100
AcDbLayerTableRecord
  2
8-9
 70
    0
 62
250
  6
CONTINUOUS
  0
LAYER
  5
C7
100
AcDbSymbolTableRecord
100
AcDbLayerTableRecord
  2
8-a
 70
    0
 62
250
  6
CONTINUOUS
  0
LAYER
  5
C8
100
AcDbSymbolTableRecord
100
AcDbLayerTableRecord
  2
8-b
 70
    0
 62
250
  6
CONTINUOUS
  0
LAYER
  5
C9
100
AcDbSymbolTableRecord
100
AcDbLayerTableRecord
  2
8-c
 70
    0
 62
250
  6
CONTINUOUS
  0
LAYER
  5
CA
100
AcDbSymbolTableRecord
100
AcDbLayerTableRecord
  2
8-d
 70
    0
 62
250
  6
CONTINUOUS
  0
LAYER
  5
CB
100
AcDbSymbolTableRecord
100
AcDbLayerTableRecord
  2
8-e
 70
    0
 62
250
  6
CONTINUOUS
  0
LAYER
  5
CC
100
AcDbSymbolTableRecord
100
AcDbLayerTableRecord
  2
8-f
 70
    0
 62
250
  6
CONTINUOUS
  0
LAYER
  5
CD
100
AcDbSymbolTableRecord
100
AcDbLayerTableRecord
  2
9-0
 70
    0
 62
250
  6
CONTINUOUS
  0
LAYER
  5
CE
100
AcDbSymbolTableRecord
100
AcDbLayerTableRecord
  2
9-1
 70
    0
 62
250
  6
CONTINUOUS
  0
LAYER
  5
CF
100
AcDbSymbolTableRecord
100
AcDbLayerTableRecord
  2
9-2
 70
    0
 62
250
  6
CONTINUOUS
  0
LAYER
  5
D0
100
AcDbSymbolTableRecord
100
AcDbLayerTableRecord
  2
9-3
 70
    0
 62
250
  6
CONTINUOUS
  0
LAYER
  5
D1
100
AcDbSymbolTableRecord
100
AcDbLayerTableRecord
  2
9-4
 70
    0
 62
250
  6
CONTINUOUS
  0
LAYER
  5
D2
100
AcDbSymbolTableRecord
100
AcDbLayerTableRecord
  2
9-5
 70
    0
 62
250
  6
CONTINUOUS
  0
LAYER
  5
D3
100
AcDbSymbolTableRecord
100
AcDbLayerTableRecord
  2
9-6
 70
    0
 62
250
  6
CONTINUOUS
  0
LAYER
  5
D4
100
AcDbSymbolTableRecord
100
AcDbLayerTableRecord
  2
9-7
 70
    0
 62
250
  6
CONTINUOUS
  0
LAYER
  5
D5
100
AcDbSymbolTableRecord
100
AcDbLayerTableRecord
  2
9-8
 70
    0
 62
250
  6
CONTINUOUS
  0
LAYER
  5
D6
100
AcDbSymbolTableRecord
100
AcDbLayerTableRecord
  2
9-9
 70
    0
 62
250
  6
CONTINUOUS
  0
LAYER
  5
D7
100
AcDbSymbolTableRecord
100
AcDbLayerTableRecord
  2
9-a
 70
    0
 62
250
  6
CONTINUOUS
  0
LAYER
  5
D8
100
AcDbSymbolTableRecord
100
AcDbLayerTableRecord
  2
9-b
 70
    0
 62
250
  6
CONTINUOUS
  0
LAYER
  5
D9
100
AcDbSymbolTableRecord
100
AcDbLayerTableRecord
  2
9-c
 70
    0
 62
250
  6
CONTINUOUS
  0
LAYER
  5
DA
100
AcDbSymbolTableRecord
100
AcDbLayerTableRecord
  2
9-d
 70
    0
 62
250
  6
CONTINUOUS
  0
LAYER
  5
DB
100
AcDbSymbolTableRecord
100
AcDbLayerTableRecord
  2
9-e
 70
    0
 62
250
  6
CONTINUOUS
  0
LAYER
  5
DC
100
AcDbSymbolTableRecord
100
AcDbLayerTableRecord
  2
9-f
 70
    0
 62
250
  6
CONTINUOUS
  0
LAYER
  5
DD
100
AcDbSymbolTableRecord
100
AcDbLayerTableRecord
  2
a-0
 70
    0
 62
250
  6
CONTINUOUS
  0
LAYER
  5
DE
100
AcDbSymbolTableRecord
100
AcDbLayerTableRecord
  2
a-1
 70
    0
 62
250
  6
CONTINUOUS
  0
LAYER
  5
DF
100
AcDbSymbolTableRecord
100
AcDbLayerTableRecord
  2
a-2
 70
    0
 62
250
  6
CONTINUOUS
  0
LAYER
  5
E0
100
AcDbSymbolTableRecord
100
AcDbLayerTableRecord
  2
a-3
 70
    0
 62
250
  6
CONTINUOUS
  0
LAYER
  5
E1
100
AcDbSymbolTableRecord
100
AcDbLayerTableRecord
  2
a-4
 70
    0
 62
250
  6
CONTINUOUS
  0
LAYER
  5
E2
100
AcDbSymbolTableRecord
100
AcDbLayerTableRecord
  2
a-5
 70
    0
 62
250
  6
CONTINUOUS
  0
LAYER
  5
E3
100
AcDbSymbolTableRecord
100
AcDbLayerTableRecord
  2
a-6
 70
    0
 62
250
  6
CONTINUOUS
  0
LAYER
  5
E4
100
AcDbSymbolTableRecord
100
AcDbLayerTableRecord
  2
a-7
 70
    0
 62
250
  6
CONTINUOUS
  0
LAYER
  5
E5
100
AcDbSymbolTableRecord
100
AcDbLayerTableRecord
  2
a-8
 70
    0
 62
250
  6
CONTINUOUS
  0
LAYER
  5
E6
100
AcDbSymbolTableRecord
100
AcDbLayerTableRecord
  2
a-9
 70
    0
 62
250
  6
CONTINUOUS
  0
LAYER
  5
E7
100
AcDbSymbolTableRecord
100
AcDbLayerTableRecord
  2
a-a
 70
    0
 62
250
  6
CONTINUOUS
  0
LAYER
  5
E8
100
AcDbSymbolTableRecord
100
AcDbLayerTableRecord
  2
a-b
 70
    0
 62
250
  6
CONTINUOUS
  0
LAYER
  5
E9
100
AcDbSymbolTableRecord
100
AcDbLayerTableRecord
  2
a-c
 70
    0
 62
250
  6
CONTINUOUS
  0
LAYER
  5
EA
100
AcDbSymbolTableRecord
100
AcDbLayerTableRecord
  2
a-d
 70
    0
 62
250
  6
CONTINUOUS
  0
LAYER
  5
EB
100
AcDbSymbolTableRecord
100
AcDbLayerTableRecord
  2
a-e
 70
    0
 62
250
  6
CONTINUOUS
  0
LAYER
  5
EC
100
AcDbSymbolTableRecord
100
AcDbLayerTableRecord
  2
a-f
 70
    0
 62
250
  6
CONTINUOUS
  0
LAYER
  5
ED
100
AcDbSymbolTableRecord
100
AcDbLayerTableRecord
  2
b-0
 70
    0
 62
250
  6
CONTINUOUS
  0
LAYER
  5
EE
100
AcDbSymbolTableRecord
100
AcDbLayerTableRecord
  2
b-1
 70
    0
 62
250
  6
CONTINUOUS
  0
LAYER
  5
EF
100
AcDbSymbolTableRecord
100
AcDbLayerTableRecord
  2
b-2
 70
    0
 62
250
  6
CONTINUOUS
  0
LAYER
  5
F0
100
AcDbSymbolTableRecord
100
AcDbLayerTableRecord
  2
b-3
 70
    0
 62
250
  6
CONTINUOUS
  0
LAYER
  5
F1
100
AcDbSymbolTableRecord
100
AcDbLayerTableRecord
  2
b-4
 70
    0
 62
250
  6
CONTINUOUS
  0
LAYER
  5
F2
100
AcDbSymbolTableRecord
100
AcDbLayerTableRecord
  2
b-5
 70
    0
 62
250
  6
CONTINUOUS
  0
LAYER
  5
F3
100
AcDbSymbolTableRecord
100
AcDbLayerTableRecord
  2
b-6
 70
    0
 62
250
  6
CONTINUOUS
  0
LAYER
  5
F4
100
AcDbSymbolTableRecord
100
AcDbLayerTableRecord
  2
b-7
 70
    0
 62
250
  6
CONTINUOUS
  0
LAYER
  5
F5
100
AcDbSymbolTableRecord
100
AcDbLayerTableRecord
  2
b-8
 70
    0
 62
250
  6
CONTINUOUS
  0
LAYER
  5
F6
100
AcDbSymbolTableRecord
100
AcDbLayerTableRecord
  2
b-9
 70
    0
 62
250
  6
CONTINUOUS
  0
LAYER
  5
F7
100
AcDbSymbolTableRecord
100
AcDbLayerTableRecord
  2
b-a
 70
    0
 62
250
  6
CONTINUOUS
  0
LAYER
  5
F8
100
AcDbSymbolTableRecord
100
AcDbLayerTableRecord
  2
b-b
 70
    0
 62
250
  6
CONTINUOUS
  0
LAYER
  5
F9
100
AcDbSymbolTableRecord
100
AcDbLayerTableRecord
  2
b-c
 70
    0
 62
250
  6
CONTINUOUS
  0
LAYER
  5
FA
100
AcDbSymbolTableRecord
100
AcDbLayerTableRecord
  2
b-d
 70
    0
 62
250
  6
CONTINUOUS
  0
LAYER
  5
FB
100
AcDbSymbolTableRecord
100
AcDbLayerTableRecord
  2
b-e
 70
    0
 62
250
  6
CONTINUOUS
  0
LAYER
  5
FC
100
AcDbSymbolTableRecord
100
AcDbLayerTableRecord
  2
b-f
 70
    0
 62
250
  6
CONTINUOUS
  0
LAYER
  5
FD
100
AcDbSymbolTableRecord
100
AcDbLayerTableRecord
  2
c-0
 70
    0
 62
250
  6
CONTINUOUS
  0
LAYER
  5
FE
100
AcDbSymbolTableRecord
100
AcDbLayerTableRecord
  2
c-1
 70
    0
 62
250
  6
CONTINUOUS
  0
LAYER
  5
FF
100
AcDbSymbolTableRecord
100
AcDbLayerTableRecord
  2
c-2
 70
    0
 62
250
  6
CONTINUOUS
  0
LAYER
  5
100
100
AcDbSymbolTableRecord
100
AcDbLayerTableRecord
  2
c-3
 70
    0
 62
250
  6
CONTINUOUS
  0
LAYER
  5
101
100
AcDbSymbolTableRecord
100
AcDbLayerTableRecord
  2
c-4
 70
    0
 62
250
  6
CONTINUOUS
  0
LAYER
  5
102
100
AcDbSymbolTableRecord
100
AcDbLayerTableRecord
  2
c-5
 70
    0
 62
250
  6
CONTINUOUS
  0
LAYER
  5
103
100
AcDbSymbolTableRecord
100
AcDbLayerTableRecord
  2
c-6
 70
    0
 62
250
  6
CONTINUOUS
  0
LAYER
  5
104
100
AcDbSymbolTableRecord
100
AcDbLayerTableRecord
  2
c-7
 70
    0
 62
250
  6
CONTINUOUS
  0
LAYER
  5
105
100
AcDbSymbolTableRecord
100
AcDbLayerTableRecord
  2
c-8
 70
    0
 62
250
  6
CONTINUOUS
  0
LAYER
  5
106
100
AcDbSymbolTableRecord
100
AcDbLayerTableRecord
  2
c-9
 70
    0
 62
250
  6
CONTINUOUS
  0
LAYER
  5
107
100
AcDbSymbolTableRecord
100
AcDbLayerTableRecord
  2
c-a
 70
    0
 62
250
  6
CONTINUOUS
  0
LAYER
  5
108
100
AcDbSymbolTableRecord
100
AcDbLayerTableRecord
  2
c-b
 70
    0
 62
250
  6
CONTINUOUS
  0
LAYER
  5
109
100
AcDbSymbolTableRecord
100
AcDbLayerTableRecord
  2
c-c
 70
    0
 62
250
  6
CONTINUOUS
  0
LAYER
  5
10A
100
AcDbSymbolTableRecord
100
AcDbLayerTableRecord
  2
c-d
 70
    0
 62
250
  6
CONTINUOUS
  0
LAYER
  5
10B
100
AcDbSymbolTableRecord
100
AcDbLayerTableRecord
  2
c-e
 70
    0
 62
250
  6
CONTINUOUS
  0
LAYER
  5
10C
100
AcDbSymbolTableRecord
100
AcDbLayerTableRecord
  2
c-f
 70
    0
 62
250
  6
CONTINUOUS
  0
LAYER
  5
10D
100
AcDbSymbolTableRecord
100
AcDbLayerTableRecord
  2
d-0
 70
    0
 62
250
  6
CONTINUOUS
  0
LAYER
  5
10E
100
AcDbSymbolTableRecord
100
AcDbLayerTableRecord
  2
d-1
 70
    0
 62
250
  6
CONTINUOUS
  0
LAYER
  5
10F
100
AcDbSymbolTableRecord
100
AcDbLayerTableRecord
  2
d-2
 70
    0
 62
250
  6
CONTINUOUS
  0
LAYER
  5
110
100
AcDbSymbolTableRecord
100
AcDbLayerTableRecord
  2
d-3
 70
    0
 62
250
  6
CONTINUOUS
  0
LAYER
  5
111
100
AcDbSymbolTableRecord
100
AcDbLayerTableRecord
  2
d-4
 70
    0
 62
250
  6
CONTINUOUS
  0
LAYER
  5
112
100
AcDbSymbolTableRecord
100
AcDbLayerTableRecord
  2
d-5
 70
    0
 62
250
  6
CONTINUOUS
  0
LAYER
  5
113
100
AcDbSymbolTableRecord
100
AcDbLayerTableRecord
  2
d-6
 70
    0
 62
250
  6
CONTINUOUS
  0
LAYER
  5
114
100
AcDbSymbolTableRecord
100
AcDbLayerTableRecord
  2
d-7
 70
    0
 62
250
  6
CONTINUOUS
  0
LAYER
  5
115
100
AcDbSymbolTableRecord
100
AcDbLayerTableRecord
  2
d-8
 70
    0
 62
250
  6
CONTINUOUS
  0
LAYER
  5
116
100
AcDbSymbolTableRecord
100
AcDbLayerTableRecord
  2
d-9
 70
    0
 62
250
  6
CONTINUOUS
  0
LAYER
  5
117
100
AcDbSymbolTableRecord
100
AcDbLayerTableRecord
  2
d-a
 70
    0
 62
250
  6
CONTINUOUS
  0
LAYER
  5
118
100
AcDbSymbolTableRecord
100
AcDbLayerTableRecord
  2
d-b
 70
    0
 62
250
  6
CONTINUOUS
  0
LAYER
  5
119
100
AcDbSymbolTableRecord
100
AcDbLayerTableRecord
  2
d-c
 70
    0
 62
250
  6
CONTINUOUS
  0
LAYER
  5
11A
100
AcDbSymbolTableRecord
100
AcDbLayerTableRecord
  2
d-d
 70
    0
 62
250
  6
CONTINUOUS
  0
LAYER
  5
11B
100
AcDbSymbolTableRecord
100
AcDbLayerTableRecord
  2
d-e
 70
    0
 62
250
  6
CONTINUOUS
  0
LAYER
  5
11C
100
AcDbSymbolTableRecord
100
AcDbLayerTableRecord
  2
d-f
 70
    0
 62
250
  6
CONTINUOUS
  0
LAYER
  5
11D
100
AcDbSymbolTableRecord
100
AcDbLayerTableRecord
  2
e-0
 70
    0
 62
250
  6
CONTINUOUS
  0
LAYER
  5
11E
100
AcDbSymbolTableRecord
100
AcDbLayerTableRecord
  2
e-1
 70
    0
 62
250
  6
CONTINUOUS
  0
LAYER
  5
11F
100
AcDbSymbolTableRecord
100
AcDbLayerTableRecord
  2
e-2
 70
    0
 62
250
  6
CONTINUOUS
  0
LAYER
  5
120
100
AcDbSymbolTableRecord
100
AcDbLayerTableRecord
  2
e-3
 70
    0
 62
250
  6
CONTINUOUS
  0
LAYER
  5
121
100
AcDbSymbolTableRecord
100
AcDbLayerTableRecord
  2
e-4
 70
    0
 62
250
  6
CONTINUOUS
  0
LAYER
  5
122
100
AcDbSymbolTableRecord
100
AcDbLayerTableRecord
  2
e-5
 70
    0
 62
250
  6
CONTINUOUS
  0
LAYER
  5
123
100
AcDbSymbolTableRecord
100
AcDbLayerTableRecord
  2
e-6
 70
    0
 62
250
  6
CONTINUOUS
  0
LAYER
  5
124
100
AcDbSymbolTableRecord
100
AcDbLayerTableRecord
  2
e-7
 70
    0
 62
250
  6
CONTINUOUS
  0
LAYER
  5
125
100
AcDbSymbolTableRecord
100
AcDbLayerTableRecord
  2
e-8
 70
    0
 62
250
  6
CONTINUOUS
  0
LAYER
  5
126
100
AcDbSymbolTableRecord
100
AcDbLayerTableRecord
  2
e-9
 70
    0
 62
250
  6
CONTINUOUS
  0
LAYER
  5
127
100
AcDbSymbolTableRecord
100
AcDbLayerTableRecord
  2
e-a
 70
    0
 62
250
  6
CONTINUOUS
  0
LAYER
  5
128
100
AcDbSymbolTableRecord
100
AcDbLayerTableRecord
  2
e-b
 70
    0
 62
250
  6
CONTINUOUS
  0
LAYER
  5
129
100
AcDbSymbolTableRecord
100
AcDbLayerTableRecord
  2
e-c
 70
    0
 62
250
  6
CONTINUOUS
  0
LAYER
  5
12A
100
AcDbSymbolTableRecord
100
AcDbLayerTableRecord
  2
e-d
 70
    0
 62
250
  6
CONTINUOUS
  0
LAYER
  5
12B
100
AcDbSymbolTableRecord
100
AcDbLayerTableRecord
  2
e-e
 70
    0
 62
250
  6
CONTINUOUS
  0
LAYER
  5
12C
100
AcDbSymbolTableRecord
100
AcDbLayerTableRecord
  2
e-f
 70
    0
 62
250
  6
CONTINUOUS
  0
LAYER
  5
12D
100
AcDbSymbolTableRecord
100
AcDbLayerTableRecord
  2
f-0
 70
    0
 62
250
  6
CONTINUOUS
  0
LAYER
  5
12E
100
AcDbSymbolTableRecord
100
AcDbLayerTableRecord
  2
f-1
 70
    0
 62
250
  6
CONTINUOUS
  0
LAYER
  5
12F
100
AcDbSymbolTableRecord
100
AcDbLayerTableRecord
  2
f-2
 70
    0
 62
250
  6
CONTINUOUS
  0
LAYER
  5
130
100
AcDbSymbolTableRecord
100
AcDbLayerTableRecord
  2
f-3
 70
    0
 62
250
  6
CONTINUOUS
  0
LAYER
  5
131
100
AcDbSymbolTableRecord
100
AcDbLayerTableRecord
  2
f-4
 70
    0
 62
250
  6
CONTINUOUS
  0
LAYER
  5
132
100
AcDbSymbolTableRecord
100
AcDbLayerTableRecord
  2
f-5
 70
    0
 62
250
  6
CONTINUOUS
  0
LAYER
  5
133
100
AcDbSymbolTableRecord
100
AcDbLayerTableRecord
  2
f-6
 70
    0
 62
250
  6
CONTINUOUS
  0
LAYER
  5
134
100
AcDbSymbolTableRecord
100
AcDbLayerTableRecord
  2
f-7
 70
    0
 62
250
  6
CONTINUOUS
  0
LAYER
  5
135
100
AcDbSymbolTableRecord
100
AcDbLayerTableRecord
  2
f-8
 70
    0
 62
250
  6
CONTINUOUS
  0
LAYER
  5
136
100
AcDbSymbolTableRecord
100
AcDbLayerTableRecord
  2
f-9
 70
    0
 62
250
  6
CONTINUOUS
  0
LAYER
  5
137
100
AcDbSymbolTableRecord
100
AcDbLayerTableRecord
  2
f-a
 70
    0
 62
250
  6
CONTINUOUS
  0
LAYER
  5
138
100
AcDbSymbolTableRecord
100
AcDbLayerTableRecord
  2
f-b
 70
    0
 62
250
  6
CONTINUOUS
  0
LAYER
  5
139
100
AcDbSymbolTableRecord
100
AcDbLayerTableRecord
  2
f-c
 70
    0
 62
250
  6
CONTINUOUS
  0
LAYER
  5
13A
100
AcDbSymbolTableRecord
100
AcDbLayerTableRecord
  2
f-d
 70
    0
 62
250
  6
CONTINUOUS
  0
LAYER
  5
13B
100
AcDbSymbolTableRecord
100
AcDbLayerTableRecord
  2
f-e
 70
    0
 62
250
  6
CONTINUOUS
  0
LAYER
  5
13C
100
AcDbSymbolTableRecord
100
AcDbLayerTableRecord
  2
f-f
 70
    0
 62
250
  6
CONTINUOUS
  0
LAYER
  5
13D
100
AcDbSymbolTableRecord
100
AcDbLayerTableRecord
  2
0
 70
   64
 62
    7
  6
CONTINUOUS
  0
ENDTAB
  0
TABLE
  2
STYLE
  5
4
100
AcDbSymbolTable
 70
     1
  0
STYLE
  5
13E
100
AcDbSymbolTableRecord
100
AcDbTextStyleTableRecord
  2
Standard
 70
     0
 40
0.0
 41
1.0
 50
0.0
 71
     0
 42
3.2
  3
TXT
  4
BIGFONT
  0
STYLE
  5
13F
100
AcDbSymbolTableRecord
100
AcDbTextStyleTableRecord
  2
Font_0
 70
     0
 40
0.0
 41
1.0
 50
0.0
 71
     0
 42
3.2
  3
MS Gothic.ttf
  4

1001
ACAD
1000
MS Gothic
1071
  32817
  0
STYLE
  5
140
100
AcDbSymbolTableRecord
100
AcDbTextStyleTableRecord
  2
Font_1
 70
     0
 40
0.0
 41
1.0
 50
0.0
 71
     0
 42
3.2
  3
MS PGothic.ttf
  4

1001
ACAD
1000
MS PGothic
1071
  32818
  0
ENDTAB
  0
TABLE
  2
VIEW
  5
5
100
AcDbSymbolTable
 70
     0
  0
ENDTAB
  0
TABLE
  2
UCS
  5
6
100
AcDbSymbolTable
 70
     0
  0
ENDTAB
  0
TABLE
  2
APPID
  5
7
100
AcDbSymbolTable
 70
     1
  0
APPID
  5
141
100
AcDbSymbolTableRecord
100
AcDbRegAppTableRecord
  2
ACAD
 70
     0
  0
ENDTAB
  0
TABLE
  2
DIMSTYLE
  5
8
100
AcDbSymbolTable
 70
     1
  0
DIMSTYLE
105
2A
100
AcDbSymbolTableRecord
100
AcDbDimStyleTableRecord
  2
STANDARD
 70
     0
  3

  4

  5

  6

  7

 40
1.0
 41
2.5
 42
2.0
 43
7.0
 44
1.25
 45
0.0
 46
0.0
 47
0.0
 48
0.0
 71
     0
 72
     0
 73
     0
 74
     0
 75
     0
 76
     0
 77
     1
 78
     0
140
2.5
141
2.5
142
0.0
143
0.0394
144
1.0
145
0.0
146
1.0
147
1.0
170
     0
171
     2
172
     0
173
     0
174
     1
175
     0
176
     0
177
     0
178
     0
270
     2
271
     2
272
     4
273
     2
274
     2
275
     0
280
     0
281
     0
282
     0
283
     1
284
     0
285
     0
286
     0
287
     3
288
     0
  0
ENDTAB
  0
TABLE
  2
BLOCK_RECORD
  5
9
100
AcDbSymbolTable
 70
     0
  0
BLOCK_RECORD
  5
142
100
AcDbSymbolTableRecord
100
AcDbBlockTableRecord
  2
*MODEL_SPACE
  0
BLOCK_RECORD
  5
143
100
AcDbSymbolTableRecord
100
AcDbBlockTableRecord
  2
*PAPER_SPACE
  0
ENDTAB
  0
ENDSEC
  0
SECTION
  2
BLOCKS
  0
BLOCK
  5
145
100
AcDbEntity
  8
0
100
AcDbBlockBegin
2
*MODEL_SPACE
 70
     0
 10
0.0
 20
0.0
 30
0.0
  3
*MODEL_SPACE
  1

  0
ENDBLK
  5
146
100
AcDbEntity
  8
0-0
100
AcDbBlockEnd
  0
BLOCK
  5
147
100
AcDbEntity
 67
     1
  8
0-0
100
AcDbBlockBegin
  2
*PAPER_SPACE
 70
     0
 10
0.0
 20
0.0
 30
0.0
  3
*PAPER_SPACE
  1

  0
ENDBLK
  5
148
100
AcDbEntity
 67
     1
  8
0-0
100
AcDbBlockEnd
  0
ENDSEC
  0
SECTION
  2
ENTITIES
  0
LINE
  5
149
100
AcDbEntity
  8
0-0
100
AcDbLine
  6
CONTINUOUS
 62
7
370
30
 10
383.794376323343
 20
11.3932556053979
 11
581.991915195618
 21
11.3932556053979
  0
LINE
  5
14A
100
AcDbEntity
  8
0-0
100
AcDbLine
  6
CONTINUOUS
 62
7
370
30
 10
383.794376323343
 20
54.3932756053979
 11
383.794376323343
 21
11.3932556053979
  0
LINE
  5
14B
100
AcDbEntity
  8
0-0
100
AcDbLine
  6
CONTINUOUS
 62
7
370
30
 10
383.794376323343
 20
29.3932556053979
 11
581.991915195618
 21
29.3932556053979
  0
LINE
  5
14C
100
AcDbEntity
  8
0-0
100
AcDbLine
  6
CONTINUOUS
 62
7
370
30
 10
383.794376323343
 20
34.3932556053979
 11
581.991915195618
 21
34.3932556053979
  0
LINE
  5
14D
100
AcDbEntity
  8
0-0
100
AcDbLine
  6
CONTINUOUS
 62
7
370
30
 10
383.794376323343
 20
54.3932756053979
 11
581.991915195618
 21
54.3932756053979
  0
LINE
  5
14E
100
AcDbEntity
  8
0-0
100
AcDbLine
  6
CONTINUOUS
 62
7
370
30
 10
392.794376323343
 20
54.3932756053979
 11
392.794376323343
 21
29.3932556053979
  0
LINE
  5
14F
100
AcDbEntity
  8
0-0
100
AcDbLine
  6
CONTINUOUS
 62
7
370
30
 10
397.794376323343
 20
29.3932556053979
 11
397.794376323343
 21
11.3932556053979
  0
LINE
  5
150
100
AcDbEntity
  8
0-0
100
AcDbLine
  6
CONTINUOUS
 62
7
370
30
 10
411.794376323343
 20
29.3932556053979
 11
411.794376323343
 21
11.3932556053979
  0
LINE
  5
151
100
AcDbEntity
  8
0-0
100
AcDbLine
  6
CONTINUOUS
 62
7
370
30
 10
425.794376323343
 20
29.3932556053979
 11
425.794376323343
 21
11.3932556053979
  0
LINE
  5
152
100
AcDbEntity
  8
0-0
100
AcDbLine
  6
CONTINUOUS
 62
7
370
30
 10
439.794376323343
 20
29.3932556053979
 11
439.794376323343
 21
11.3932556053979
  0
LINE
  5
153
100
AcDbEntity
  8
0-0
100
AcDbLine
  6
CONTINUOUS
 62
7
370
30
 10
453.794376323343
 20
54.3932756053979
 11
453.794376323343
 21
11.3932556053979
  0
LINE
  5
154
100
AcDbEntity
  8
0-0
100
AcDbLine
  6
CONTINUOUS
 62
7
370
30
 10
527.794376323343
 20
29.3932556053979
 11
527.794376323343
 21
11.3932556053979
  0
LINE
  5
155
100
AcDbEntity
  8
0-0
100
AcDbLine
  6
CONTINUOUS
 62
7
370
30
 10
522.529775323343
 20
13.3932556053979
 11
458.633275323343
 21
13.3932556053979
  0
TEXT
  5
156
100
AcDbEntity
  8
0-0
 62
7
100
AcDbText
  6
BYLAYER
 62
7
 10
397.954055975191
 20
29.8932546053979
 40
4
  1
年月日
  7
Font_0
100
AcDbText
  0
TEXT
  5
157
100
AcDbEntity
  8
0-0
 62
7
100
AcDbText
  6
BYLAYER
 62
7
 10
428.718047784725
 20
29.8932546053979
 40
4
  1
記  事
  7
Font_0
100
AcDbText
  0
LINE
  5
158
100
AcDbEntity
  8
0-0
100
AcDbLine
  6
CONTINUOUS
 62
7
370
30
 10
385.984976323343
 20
50.0462756053979
 11
390.603775323343
 21
50.0462756053979
  0
LINE
  5
159
100
AcDbEntity
  8
0-0
100
AcDbLine
  6
CONTINUOUS
 62
7
370
30
 10
388.294376323343
 20
54.0462756053979
 11
390.603776323343
 21
50.0462756053979
  0
LINE
  5
15A
100
AcDbEntity
  8
0-0
100
AcDbLine
  6
CONTINUOUS
 62
7
370
30
 10
388.294376323343
 20
54.0462746053979
 11
385.984976323343
 21
50.0462746053979
  0
LINE
  5
15B
100
AcDbEntity
  8
0-0
100
AcDbLine
  6
CONTINUOUS
 62
7
370
30
 10
388.294376323343
 20
49.0462756053979
 11
385.984976323343
 21
45.0462756053979
  0
LINE
  5
15C
100
AcDbEntity
  8
0-0
100
AcDbLine
  6
CONTINUOUS
 62
7
370
30
 10
385.984976323343
 20
45.0462756053979
 11
390.603775323343
 21
45.0462756053979
  0
LINE
  5
15D
100
AcDbEntity
  8
0-0
100
AcDbLine
  6
CONTINUOUS
 62
7
370
30
 10
388.294376323343
 20
49.0462756053979
 11
390.603776323343
 21
45.0462756053979
  0
LINE
  5
15E
100
AcDbEntity
  8
0-0
100
AcDbLine
  6
CONTINUOUS
 62
7
370
30
 10
388.294375323343
 20
44.0462756053979
 11
385.984975323343
 21
40.0463156053979
  0
LINE
  5
15F
100
AcDbEntity
  8
0-0
100
AcDbLine
  6
CONTINUOUS
 62
7
370
30
 10
385.984976323343
 20
40.0463146053979
 11
390.603775323343
 21
40.0463146053979
  0
LINE
  5
160
100
AcDbEntity
  8
0-0
100
AcDbLine
  6
CONTINUOUS
 62
7
370
30
 10
388.294376323343
 20
44.0462756053979
 11
390.603775323343
 21
40.0463156053979
  0
LINE
  5
161
100
AcDbEntity
  8
0-0
100
AcDbLine
  6
CONTINUOUS
 62
7
370
30
 10
388.294376323343
 20
39.0463156053979
 11
385.984976323343
 21
35.0463156053979
  0
LINE
  5
162
100
AcDbEntity
  8
0-0
100
AcDbLine
  6
CONTINUOUS
 62
7
370
30
 10
385.984976323343
 20
35.0463146053979
 11
390.603775323343
 21
35.0463146053979
  0
LINE
  5
163
100
AcDbEntity
  8
0-0
100
AcDbLine
  6
CONTINUOUS
 62
7
370
30
 10
388.294376323343
 20
39.0463156053979
 11
390.603776323343
 21
35.0463156053979
  0
TEXT
  5
164
100
AcDbEntity
  8
0-0
 62
7
100
AcDbText
  6
BYLAYER
 62
7
 10
385.001272323343
 20
30.3415306053979
 40
3.103449
  1
来歴
  7
Font_0
100
AcDbText
  0
TEXT
  5
165
100
AcDbEntity
  8
0-0
 62
7
100
AcDbText
  6
BYLAYER
 62
7
 10
443.776949978855
 20
25.3932556053979
 40
3
  1
製図
  7
Font_0
100
AcDbText
  0
TEXT
  5
166
100
AcDbEntity
  8
0-0
 62
7
100
AcDbText
  6
BYLAYER
 62
7
 10
415.893325115577
 20
25.3932556053979
 40
3
  1
検図
  7
Font_0
100
AcDbText
  0
TEXT
  5
167
100
AcDbEntity
  8
0-0
 62
7
100
AcDbText
  6
BYLAYER
 62
7
 10
402.036553394801
 20
25.3932556053979
 40
3
  1
承認
  7
Font_0
100
AcDbText
  0
TEXT
  5
168
100
AcDbEntity
  8
0-0
 62
7
100
AcDbText
  6
BYLAYER
 62
7
 10
458.794376323343
 20
24.3932556053979
 40
3
  1
品名
  7
Font_0
100
AcDbText
  0
POINT
  5
169
100
AcDbEntity
  8
0-0
100
AcDbPoint
 62
7
 10
468.794376323343
 20
24.1068156053979
  0
POINT
  5
16A
100
AcDbEntity
  8
0-0
100
AcDbPoint
 62
7
 10
468.794376323343
 20
15.658145605398
  0
TEXT
  5
16B
100
AcDbEntity
  8
0-0
 62
7
100
AcDbText
  6
BYLAYER
 62
7
 10
387.186476323343
 20
25.1610856053979
 40
3
  1
尺度
  7
Font_0
100
AcDbText
  0
LINE
  5
16C
100
AcDbEntity
  8
0-0
100
AcDbLine
  6
CONTINUOUS
 62
7
370
30
 10
387.682280323343
 20
14.1087655323899
 11
394.329875323343
 21
20.7564175323899
  0
POINT
  5
16D
100
AcDbEntity
  8
0-0
100
AcDbPoint
 62
7
 10
404.794376323343
 20
18.3932556053979
  0
POINT
  5
16E
100
AcDbEntity
  8
0-0
100
AcDbPoint
 62
7
 10
432.794376323343
 20
18.3932556053979
  0
POINT
  5
16F
100
AcDbEntity
  8
0-0
100
AcDbPoint
 62
7
 10
446.794376323343
 20
18.3932556053979
  0
LINE
  5
170
100
AcDbEntity
  8
0-0
100
AcDbLine
  6
CONTINUOUS
 62
7
370
30
 10
383.794376323343
 20
39.3932556053979
 11
581.991915195618
 21
39.3932556053979
  0
LINE
  5
171
100
AcDbEntity
  8
0-0
100
AcDbLine
  6
CONTINUOUS
 62
7
370
30
 10
383.794376323343
 20
44.3932556053979
 11
581.991915195618
 21
44.3932556053979
  0
LINE
  5
172
100
AcDbEntity
  8
0-0
100
AcDbLine
  6
CONTINUOUS
 62
7
370
30
 10
383.794376323343
 20
49.3932556053979
 11
581.991915195618
 21
49.3932556053979
  0
POINT
  5
173
100
AcDbEntity
  8
0-0
100
AcDbPoint
 62
7
 10
418.794376323343
 20
18.3932556053979
  0
TEXT
  5
174
100
AcDbEntity
  8
0-0
 62
7
100
AcDbText
  6
BYLAYER
 62
7
 10
455.98244319311
 20
30.3432546053979
 40
3.1
  1
品番
  7
Font_0
 11
455.98244319311
 21
33.4432546053979
100
AcDbText
 73
3
  0
TEXT
  5
175
100
AcDbEntity
  8
0-0
 62
7
100
AcDbText
  6
BYLAYER
 62
7
 10
479.372762887622
 20
30.3432546053979
 40
3.1
  1
部品名
  7
Font_0
 11
479.372762887622
 21
33.4432546053979
100
AcDbText
 73
3
  0
TEXT
  5
176
100
AcDbEntity
  8
0-0
 62
7
100
AcDbText
  6
BYLAYER
 62
7
 10
513.143496079308
 20
30.3432546053979
 40
3.1
  1
材　質
  7
Font_0
 11
513.143496079308
 21
33.4432546053979
100
AcDbText
 73
3
  0
TEXT
  5
177
100
AcDbEntity
  8
0-0
 62
7
100
AcDbText
  6
BYLAYER
 62
7
 10
534.899153007437
 20
30.3432546053979
 40
3.1
  1
数量
  7
Font_0
 11
534.899153007437
 21
33.4432546053979
100
AcDbText
 73
3
  0
TEXT
  5
178
100
AcDbEntity
  8
0-0
 62
7
100
AcDbText
  6
BYLAYER
 62
7
 10
558.121294551269
 20
30.3432546053979
 40
3.1
  1
備　考
  7
Font_0
 11
558.121294551269
 21
33.4432546053979
100
AcDbText
 73
3
  0
TEXT
  5
179
100
AcDbEntity
  8
0-0
 62
7
100
AcDbText
  6
BYLAYER
 62
7
 10
429.727379260752
 20
25.3932556053979
 40
3
  1
検図
  7
Font_0
100
AcDbText
  0
TEXT
  5
17A
100
AcDbEntity
  8
0-0
 62
5
100
AcDbText
  6
CONTINUOUS
 62
5
 10
457.987262828014
 20
34.8932556053979
 40
4
  1
1
  7
Font_0
 11
457.987262828014
 21
38.8932556053979
100
AcDbText
 73
3
  0
TEXT
  5
17B
100
AcDbEntity
  8
0-0
100
AcDbText
  6
CONTINUOUS
 10
385.000112709189
 20
16.0897948719836
 40
5
  1
１
  7
Font_0
 11
385.000112709189
 21
21.0897948719836
100
AcDbText
 73
3
  0
TEXT
  5
17C
100
AcDbEntity
  8
0-0
100
AcDbText
  6
CONTINUOUS
 10
391.652759484563
 20
14.0859856022927
 40
5
  1
１
  7
Font_0
 11
391.652759484563
 21
19.0859856022927
100
AcDbText
 73
3
  0
LINE
  5
17D
100
AcDbEntity
  8
0-0
100
AcDbLine
  6
CONTINUOUS
 62
7
370
30
 10
414.793486728178
 20
54.3932756053979
 11
414.793486728178
 21
29.3932556053979
  0
LINE
  5
17E
100
AcDbEntity
  8
0-0
100
AcDbLine
  6
DOT
 62
7
370
30
 10
383.794376323343
 20
24.3932556053979
 11
453.794376323343
 21
24.393255605398
  0
LINE
  5
17F
100
AcDbEntity
  8
0-0
100
AcDbLine
  6
CONTINUOUS
 62
7
370
30
 10
463.793921986958
 20
54.3932756053979
 11
463.793921986958
 21
29.3932556053979
  0
LINE
  5
180
100
AcDbEntity
  8
0-0
100
AcDbLine
  6
CONTINUOUS
 62
7
370
30
 10
502.797083365651
 20
54.3932756053979
 11
502.797083365651
 21
29.3932556053979
  0
LINE
  5
181
100
AcDbEntity
  8
0-0
100
AcDbLine
  6
CONTINUOUS
 62
7
370
30
 10
532.797715237032
 20
54.3932756053979
 11
532.797715237032
 21
29.3932556053979
  0
LINE
  5
182
100
AcDbEntity
  8
0-0
100
AcDbLine
  6
CONTINUOUS
 62
7
370
30
 10
542.796132445874
 20
54.3932756053979
 11
542.796132445874
 21
29.3932556053979
  0
MTEXT
  5
183
100
AcDbEntity
  8
0-0
100
AcDbMText
 10
259.340928102895
 20
10.2414880325741
 40
6
 41
  0.0
  1
{\fMS Gothic|b1;MinatoConcept,Inc.}
  7
Font_0
  0
LINE
  5
184
100
AcDbEntity
  8
0-0
100
AcDbLine
  6
CONTINUOUS
 62
7
370
30
 10
5.10981359699893
 20
11.391351
 11
581.988024922932
 21
11.391351
  0
LINE
  5
185
100
AcDbEntity
  8
0-0
100
AcDbLine
  6
CONTINUOUS
 62
7
370
30
 10
5.10981359699893
 20
408.805953846495
 11
5.10981359699893
 21
11.391351
  0
LINE
  5
186
100
AcDbEntity
  8
0-0
100
AcDbLine
  6
CONTINUOUS
 62
7
370
30
 10
581.988024922932
 20
408.805953846495
 11
581.988024922932
 21
11.391351
  0
LINE
  5
187
100
AcDbEntity
  8
0-0
100
AcDbLine
  6
CONTINUOUS
 62
7
370
30
 10
5.10981359699893
 20
408.805953846495
 11
581.988024922932
 21
408.805953846495
  0
MTEXT
  5
188
100
AcDbEntity
  8
0-0
100
AcDbMText
 10
310.110051083396
 20
360.773787441588
 40
10
 41
  0.0
  1
\L背　面
  7
Font_0
  0
LINE
  5
189
100
AcDbEntity
  8
2-5
100
AcDbLine
  6
CONTINUOUS
370
13
 10
50.8244953235256
 20
391.770239745221
 11
66.8244953235256
 21
391.770239745221
  0
LINE
  5
18A
100
AcDbEntity
  8
2-5
100
AcDbLine
  6
CONTINUOUS
370
13
 10
50.8244953235256
 20
388.770239745221
 11
50.8244953235256
 21
391.770239745221
  0
LINE
  5
18B
100
AcDbEntity
  8
2-5
100
AcDbLine
  6
CONTINUOUS
370
13
 10
66.8244953235257
 20
391.770239745221
 11
50.8244953235255
 21
391.770239745221
  0
LINE
  5
18C
100
AcDbEntity
  8
2-5
100
AcDbLine
  6
CONTINUOUS
370
13
 10
66.8244953235257
 20
388.770239745221
 11
66.8244953235257
 21
391.770239745221
  0
LINE
  5
18D
100
AcDbEntity
  8
2-5
100
AcDbLine
  6
CONTINUOUS
370
13
 10
50.8244953235256
 20
388.770239745221
 11
50.8244953235255
 21
391.770239745221
  0
LINE
  5
18E
100
AcDbEntity
  8
2-5
100
AcDbLine
  6
CONTINUOUS
370
13
 10
66.2244953235256
 20
388.770239745221
 11
66.2244953235256
 21
391.770239745221
  0
LINE
  5
18F
100
AcDbEntity
  8
2-5
100
AcDbLine
  6
CONTINUOUS
370
13
 10
51.4244953235257
 20
388.770239745221
 11
51.4244953235257
 21
391.770239745221
  0
TEXT
  5
190
100
AcDbEntity
  8
0-0
100
AcDbText
  6
CONTINUOUS
 10
468.234491949199
 20
23.6921869453372
 40
4
  1
ローラーチューブポンプ
  7
Font_0
 11
468.234491949199
 21
27.6921869453372
100
AcDbText
 73
3
  0
TEXT
  5
191
100
AcDbEntity
  8
0-0
100
AcDbText
  6
CONTINUOUS
 10
462.041618350892
 20
13.3625278424517
 40
4.5
  1
型　　式：ＭＣＲＰ２０４Ｌ
  7
Font_0
 11
462.041618350892
 21
17.8625278424517
100
AcDbText
 73
3
  0
ARC
  5
192
100
AcDbEntity
  8
2-e
100
AcDbCircle
  6
CONTINUOUS
370
13
 10
389.264340671151
 20
171.324479027398
 40
1.5
100
AcDbArc
 50
0
 51
180
  0
ARC
  5
193
100
AcDbEntity
  8
2-e
100
AcDbCircle
  6
CONTINUOUS
370
13
 10
389.264340671151
 20
144.324479027398
 40
1.5
100
AcDbArc
 50
180
 51
0
  0
LINE
  5
194
100
AcDbEntity
  8
2-e
100
AcDbLine
  6
CONTINUOUS
370
13
 10
387.764340671151
 20
171.324479027398
 11
387.764340671151
 21
144.324479027398
  0
LINE
  5
195
100
AcDbEntity
  8
2-e
100
AcDbLine
  6
CONTINUOUS
370
13
 10
390.764340671151
 20
171.324479027398
 11
390.764340671151
 21
144.324479027398
  0
ARC
  5
196
100
AcDbEntity
  8
2-e
100
AcDbCircle
  6
CONTINUOUS
370
13
 10
395.264340671151
 20
170.824479027398
 40
1.5
100
AcDbArc
 50
0
 51
180
  0
ARC
  5
197
100
AcDbEntity
  8
2-e
100
AcDbCircle
  6
CONTINUOUS
370
13
 10
395.264340671151
 20
143.824479027398
 40
1.5
100
AcDbArc
 50
180
 51
0
  0
LINE
  5
198
100
AcDbEntity
  8
2-e
100
AcDbLine
  6
CONTINUOUS
370
13
 10
393.764340671151
 20
170.824479027398
 11
393.764340671151
 21
143.824479027398
  0
LINE
  5
199
100
AcDbEntity
  8
2-e
100
AcDbLine
  6
CONTINUOUS
370
13
 10
396.764340671151
 20
170.824479027398
 11
396.764340671151
 21
143.824479027398
  0
ARC
  5
19A
100
AcDbEntity
  8
2-e
100
AcDbCircle
  6
CONTINUOUS
370
13
 10
401.264340671151
 20
170.824479027398
 40
1.5
100
AcDbArc
 50
0
 51
180
  0
ARC
  5
19B
100
AcDbEntity
  8
2-e
100
AcDbCircle
  6
CONTINUOUS
370
13
 10
401.264340671151
 20
143.824479027398
 40
1.5
100
AcDbArc
 50
180
 51
0
  0
LINE
  5
19C
100
AcDbEntity
  8
2-e
100
AcDbLine
  6
CONTINUOUS
370
13
 10
399.764340671151
 20
170.824479027398
 11
399.764340671151
 21
143.824479027398
  0
LINE
  5
19D
100
AcDbEntity
  8
2-e
100
AcDbLine
  6
CONTINUOUS
370
13
 10
402.764340671151
 20
170.824479027398
 11
402.764340671151
 21
143.824479027398
  0
ARC
  5
19E
100
AcDbEntity
  8
2-e
100
AcDbCircle
  6
CONTINUOUS
370
13
 10
407.264340671151
 20
170.824479027398
 40
1.5
100
AcDbArc
 50
0
 51
180
  0
ARC
  5
19F
100
AcDbEntity
  8
2-e
100
AcDbCircle
  6
CONTINUOUS
370
13
 10
407.264340671151
 20
143.824479027398
 40
1.5
100
AcDbArc
 50
180
 51
0
  0
LINE
  5
1A0
100
AcDbEntity
  8
2-e
100
AcDbLine
  6
CONTINUOUS
370
13
 10
405.764340671151
 20
170.824479027398
 11
405.764340671151
 21
143.824479027398
  0
LINE
  5
1A1
100
AcDbEntity
  8
2-e
100
AcDbLine
  6
CONTINUOUS
370
13
 10
408.764340671151
 20
170.824479027398
 11
408.764340671151
 21
143.824479027398
  0
ARC
  5
1A2
100
AcDbEntity
  8
2-e
100
AcDbCircle
  6
CONTINUOUS
370
13
 10
413.264340671151
 20
170.824479027398
 40
1.5
100
AcDbArc
 50
0
 51
180
  0
ARC
  5
1A3
100
AcDbEntity
  8
2-e
100
AcDbCircle
  6
CONTINUOUS
370
13
 10
413.264340671151
 20
143.824479027398
 40
1.5
100
AcDbArc
 50
180
 51
0
  0
LINE
  5
1A4
100
AcDbEntity
  8
2-e
100
AcDbLine
  6
CONTINUOUS
370
13
 10
411.764340671151
 20
170.824479027398
 11
411.764340671151
 21
143.824479027398
  0
LINE
  5
1A5
100
AcDbEntity
  8
2-e
100
AcDbLine
  6
CONTINUOUS
370
13
 10
414.764340671151
 20
170.824479027398
 11
414.764340671151
 21
143.824479027398
  0
ARC
  5
1A6
100
AcDbEntity
  8
2-e
100
AcDbCircle
  6
CONTINUOUS
370
13
 10
419.264340671151
 20
170.824479027398
 40
1.5
100
AcDbArc
 50
0
 51
180
  0
ARC
  5
1A7
100
AcDbEntity
  8
2-e
100
AcDbCircle
  6
CONTINUOUS
370
13
 10
419.264340671151
 20
143.824479027398
 40
1.5
100
AcDbArc
 50
180
 51
0
  0
LINE
  5
1A8
100
AcDbEntity
  8
2-e
100
AcDbLine
  6
CONTINUOUS
370
13
 10
417.764340671151
 20
170.824479027398
 11
417.764340671151
 21
143.824479027398
  0
LINE
  5
1A9
100
AcDbEntity
  8
2-e
100
AcDbLine
  6
CONTINUOUS
370
13
 10
420.764340671151
 20
170.824479027398
 11
420.764340671151
 21
143.824479027398
  0
CIRCLE
  5
1AA
100
AcDbEntity
  8
2-7
100
AcDbCircle
  6
CONTINUOUS
370
13
 10
285.083571968643
 20
259.07004824176
 40
7
  0
CIRCLE
  5
1AB
100
AcDbEntity
  8
2-7
100
AcDbCircle
  6
CONTINUOUS
370
13
 10
285.083571968643
 20
257.07004824176
 40
3.1
  0
CIRCLE
  5
1AC
100
AcDbEntity
  8
2-7
100
AcDbCircle
  6
CONTINUOUS
370
13
 10
285.083571968643
 20
257.07004824176
 40
0.75
  0
MTEXT
  5
1AD
100
AcDbEntity
  8
0-0
100
AcDbMText
 10
314.985866947701
 20
303.36703303044
 40
4.5375
 41
  0.0
  1
{\fMS Gothic|b1;Manufactured by}
  7
Font_0
 11
1
 21
-2.44921270764475E-16
  0
MTEXT
  5
1AE
100
AcDbEntity
  8
0-0
100
AcDbMText
 10
307.081610794068
 20
295.670783617692
 40
5.445
 41
  0.0
  1
{\fMS Gothic|b1;Minato Concept,Inc.}
  7
Font_0
 11
1
 21
-2.44921270764475E-16
  0
MTEXT
  5
1AF
100
AcDbEntity
  8
0-0
100
AcDbMText
 10
319.978028728942
 20
286.310480277863
 40
3.63
 41
  0.0
  1
{\fMS Gothic|b1;Tokyo Japan}
  7
Font_0
 11
1
 21
-2.44921270764475E-16
  0
MTEXT
  5
1B0
100
AcDbEntity
  8
0-0
100
AcDbMText
 10
315.609887170356
 20
280.486291533081
 40
3.63
 41
  0.0
  1
{\fMS Gothic|b1;TEL:03-5637-2882}
  7
Font_0
 11
1
 21
-2.44921270764475E-16
  0
MTEXT
  5
1B1
100
AcDbEntity
  8
0-0
100
AcDbMText
 10
314.12431862136
 20
275.078116270069
 40
3.63
 41
  0.0
  1
{\fMS Gothic|b1;www.minato-c.co.jp}
  7
Font_0
 11
1
 21
-2.44921270764475E-16
  0
LINE
  5
1B2
100
AcDbEntity
  8
0-0
100
AcDbLine
  6
CONTINUOUS
370
13
 10
316.59416361454
 20
261.13254824176
 11
345.820316534843
 21
261.13254824176
  0
LINE
  5
1B3
100
AcDbEntity
  8
0-0
100
AcDbLine
  6
CONTINUOUS
370
13
 10
316.59416361454
 20
257.00754824176
 11
345.820316534843
 21
257.00754824176
  0
LINE
  5
1B4
100
AcDbEntity
  8
0-0
100
AcDbLine
  6
CONTINUOUS
370
13
 10
316.59416361454
 20
261.13254824176
 11
316.59416361454
 21
257.00754824176
  0
LINE
  5
1B5
100
AcDbEntity
  8
0-0
100
AcDbLine
  6
CONTINUOUS
370
13
 10
345.820316534843
 20
261.13254824176
 11
345.820316534843
 21
257.00754824176
  0
LINE
  5
1B6
100
AcDbEntity
  8
0-0
100
AcDbLine
  6
CONTINUOUS
370
13
 10
325.779109419536
 20
261.13254824176
 11
325.779109419536
 21
257.00754824176
  0
MTEXT
  5
1B7
100
AcDbEntity
  8
0-0
100
AcDbMText
 10
317.245752847871
 20
260.004670862833
 40
2.475
 41
  0.0
  1
{\fMS Gothic|b1;SER.NO.}
  7
Font_0
 11
1
 21
-2.44921270764475E-16
  0
TEXT
  5
1B8
100
AcDbEntity
  8
0-0
100
AcDbText
  6
CONTINUOUS
 10
58.0870030959441
 20
97.849111845902
 40
6
  1
MCRP204L
  7
Font_0
 11
58.0870030959441
 21
103.849111845902
100
AcDbText
 73
3
  0
LINE
  5
1B9
100
AcDbEntity
  8
2-d
100
AcDbLine
  6
CONTINUOUS
370
13
 10
169.624495323525
 20
91.2244790273982
 11
38.0244953235253
 21
91.2244790273982
  0
TEXT
  5
1BA
100
AcDbEntity
  8
0-0
100
AcDbText
  6
CONTINUOUS
 10
370.949856253983
 20
269.252660995146
 40
4
  1
R．C
  7
Font_0
 50
360
 11
370.949856253983
 21
273.252660995146
100
AcDbText
 73
3
  0
CIRCLE
  5
1BB
100
AcDbEntity
  8
2-5
100
AcDbCircle
  6
CONTINUOUS
370
13
 10
375.083571968643
 20
259.07004824176
 40
7.6
  0
CIRCLE
  5
1BC
100
AcDbEntity
  8
2-5
100
AcDbCircle
  6
CONTINUOUS
370
13
 10
375.083571968643
 20
259.07004824176
 40
9.5
  0
CIRCLE
  5
1BD
100
AcDbEntity
  8
2-5
100
AcDbCircle
  6
CONTINUOUS
370
13
 10
375.083571968643
 20
259.07004824176
 40
6.55
  0
CIRCLE
  5
1BE
100
AcDbEntity
  8
2-5
100
AcDbCircle
  6
CONTINUOUS
370
13
 10
372.083571968643
 20
262.07004824176
 40
1
  0
CIRCLE
  5
1BF
100
AcDbEntity
  8
2-5
100
AcDbCircle
  6
CONTINUOUS
370
13
 10
372.083571968643
 20
256.07004824176
 40
1
  0
CIRCLE
  5
1C0
100
AcDbEntity
  8
2-5
100
AcDbCircle
  6
CONTINUOUS
370
13
 10
378.083571968643
 20
262.07004824176
 40
1
  0
CIRCLE
  5
1C1
100
AcDbEntity
  8
2-5
100
AcDbCircle
  6
CONTINUOUS
370
13
 10
378.083571968643
 20
256.07004824176
 40
1
  0
LINE
  5
1C2
100
AcDbEntity
  8
0-0
100
AcDbLine
  6
CONTINUOUS
370
13
 10
57.5744953235253
 20
85.7244790273982
 11
57.9244953235253
 21
91.2244790273982
  0
LINE
  5
1C3
100
AcDbEntity
  8
0-0
100
AcDbLine
  6
CONTINUOUS
370
13
 10
57.9244953235253
 20
91.2244790273982
 11
43.7244953235253
 21
91.2244790273982
  0
LINE
  5
1C4
100
AcDbEntity
  8
0-0
100
AcDbLine
  6
CONTINUOUS
370
13
 10
43.7244953235253
 20
91.2244790273982
 11
44.0744953235253
 21
85.7244790273982
  0
LINE
  5
1C5
100
AcDbEntity
  8
0-0
100
AcDbLine
  6
CONTINUOUS
370
13
 10
44.0744953235253
 20
85.7244790273982
 11
57.5744953235253
 21
85.7244790273982
  0
LINE
  5
1C6
100
AcDbEntity
  8
2-3
100
AcDbLine
  6
CONTINUOUS
370
13
 10
125.824495323525
 20
156.224631647708
 11
125.824495323525
 21
140.224326447708
  0
LINE
  5
1C7
100
AcDbEntity
  8
2-2
100
AcDbLine
  6
CONTINUOUS
370
13
 10
155.099495323526
 20
166.195759027398
 11
155.099495323526
 21
167.390912027398
  0
LINE
  5
1C8
100
AcDbEntity
  8
2-2
100
AcDbLine
  6
CONTINUOUS
370
13
 10
152.549495323526
 20
167.379583027398
 11
152.549495323526
 21
166.195759027398
  0
LINE
  5
1C9
100
AcDbEntity
  8
2-2
100
AcDbLine
  6
CONTINUOUS
370
13
 10
153.824495323526
 20
171.843281027398
 11
157.824495323526
 21
169.533880027398
  0
LINE
  5
1CA
100
AcDbEntity
  8
2-2
100
AcDbLine
  6
CONTINUOUS
370
13
 10
157.824495323526
 20
169.533880027398
 11
157.824495323526
 21
167.224479027398
  0
LINE
  5
1CB
100
AcDbEntity
  8
2-2
100
AcDbLine
  6
CONTINUOUS
370
13
 10
157.824495323526
 20
164.915078027398
 11
153.824495323526
 21
162.605676027398
  0
LINE
  5
1CC
100
AcDbEntity
  8
2-2
100
AcDbLine
  6
CONTINUOUS
370
13
 10
157.824495323526
 20
167.224479027398
 11
157.824495323526
 21
164.915078027398
  0
LINE
  5
1CD
100
AcDbEntity
  8
2-2
100
AcDbLine
  6
CONTINUOUS
370
13
 10
149.824495323526
 20
169.533880027398
 11
153.824495323526
 21
171.843281027398
  0
LINE
  5
1CE
100
AcDbEntity
  8
2-2
100
AcDbLine
  6
CONTINUOUS
370
13
 10
149.824495323526
 20
167.224479027398
 11
149.824495323526
 21
169.533880027398
  0
LINE
  5
1CF
100
AcDbEntity
  8
2-2
100
AcDbLine
  6
CONTINUOUS
370
13
 10
153.824495323526
 20
162.605676027398
 11
149.824495323526
 21
164.915078027398
  0
LINE
  5
1D0
100
AcDbEntity
  8
2-2
100
AcDbLine
  6
CONTINUOUS
370
13
 10
149.824495323526
 20
164.915078027398
 11
149.824495323526
 21
167.224479027398
  0
LINE
  5
1D1
100
AcDbEntity
  8
2-2
100
AcDbLine
  6
CONTINUOUS
370
13
 10
154.224495323526
 20
164.251265027398
 11
154.224495323526
 21
164.724479027398
  0
LINE
  5
1D2
100
AcDbEntity
  8
2-2
100
AcDbLine
  6
CONTINUOUS
370
13
 10
153.424495323526
 20
164.724479027398
 11
153.424495323526
 21
164.251265027398
  0
LINE
  5
1D3
100
AcDbEntity
  8
2-2
100
AcDbLine
  6
CONTINUOUS
370
13
 10
153.424495323526
 20
164.724479027398
 11
154.224495323526
 21
164.724479027398
  0
LINE
  5
1D4
100
AcDbEntity
  8
2-2
100
AcDbLine
  6
CONTINUOUS
370
13
 10
152.115490323526
 20
170.757002027398
 11
155.533499323526
 21
170.757002027398
  0
LINE
  5
1D5
100
AcDbEntity
  8
2-2
100
AcDbLine
  6
CONTINUOUS
370
13
 10
152.115490323526
 20
168.316262027398
 11
155.533499323526
 21
168.316262027398
  0
LINE
  5
1D6
100
AcDbEntity
  8
2-2
100
AcDbLine
  6
CONTINUOUS
370
13
 10
154.859240323526
 20
167.125844027398
 11
154.802199323526
 21
167.125844027398
  0
LINE
  5
1D7
100
AcDbEntity
  8
2-2
100
AcDbLine
  6
CONTINUOUS
370
13
 10
152.846790323526
 20
167.125844027398
 11
154.802199323526
 21
167.125844027398
  0
LINE
  5
1D8
100
AcDbEntity
  8
2-2
100
AcDbLine
  6
CONTINUOUS
370
13
 10
154.859240323526
 20
167.125844027398
 11
155.533499323526
 21
168.316262027398
  0
LINE
  5
1D9
100
AcDbEntity
  8
2-2
100
AcDbLine
  6
CONTINUOUS
370
13
 10
152.115490323526
 20
168.316262027398
 11
152.789750323526
 21
167.125844027398
  0
LINE
  5
1DA
100
AcDbEntity
  8
2-2
100
AcDbLine
  6
CONTINUOUS
370
13
 10
155.730275323526
 20
168.654589027398
 11
155.448287323526
 21
168.045313027398
  0
LINE
  5
1DB
100
AcDbEntity
  8
2-2
100
AcDbLine
  6
CONTINUOUS
370
13
 10
151.918714323526
 20
168.654589027398
 11
152.200729323526
 21
168.045255027398
  0
LINE
  5
1DC
100
AcDbEntity
  8
2-2
100
AcDbLine
  6
CONTINUOUS
370
13
 10
152.846790323526
 20
167.125844027398
 11
152.789750323526
 21
167.125844027398
  0
LINE
  5
1DD
100
AcDbEntity
  8
2-2
100
AcDbLine
  6
CONTINUOUS
370
13
 10
154.802199323526
 20
167.125844027398
 11
152.846790323526
 21
167.125844027398
  0
LINE
  5
1DE
100
AcDbEntity
  8
2-2
100
AcDbLine
  6
CONTINUOUS
370
13
 10
155.368444323526
 20
167.872800027398
 11
155.276518323526
 21
167.674181027398
  0
LINE
  5
1DF
100
AcDbEntity
  8
2-2
100
AcDbLine
  6
CONTINUOUS
370
13
 10
152.280545323526
 20
167.872800027398
 11
152.372471323526
 21
167.674181027398
  0
LINE
  5
1E0
100
AcDbEntity
  8
2-2
100
AcDbLine
  6
CONTINUOUS
370
13
 10
155.448287323526
 20
168.045313027398
 11
155.368444323526
 21
167.872800027398
  0
LINE
  5
1E1
100
AcDbEntity
  8
2-2
100
AcDbLine
  6
CONTINUOUS
370
13
 10
152.200729323526
 20
168.045255027398
 11
152.280545323526
 21
167.872800027398
  0
ARC
  5
1E2
100
AcDbEntity
  8
2-2
100
AcDbCircle
  6
CONTINUOUS
370
13
 10
153.824495323526
 20
167.850552027398
 40
1.217008
100
AcDbArc
 50
216.54711
 51
323.45289
  0
ARC
  5
1E3
100
AcDbEntity
  8
2-2
100
AcDbCircle
  6
CONTINUOUS
370
13
 10
153.818283323526
 20
167.841569027398
 40
1.354468
100
AcDbArc
 50
207.139839
 51
270.261547
  0
ARC
  5
1E4
100
AcDbEntity
  8
2-2
100
AcDbCircle
  6
CONTINUOUS
370
13
 10
153.824495323526
 20
167.637233027398
 40
1.561817
100
AcDbArc
 50
215.278233
 51
320.204702
  0
ARC
  5
1E5
100
AcDbEntity
  8
2-2
100
AcDbCircle
  6
CONTINUOUS
370
13
 10
153.818283323526
 20
167.841569027398
 40
1.354468
100
AcDbArc
 50
207.139839
 51
270.261547
  0
ARC
  5
1E6
100
AcDbEntity
  8
2-2
100
AcDbCircle
  6
CONTINUOUS
370
13
 10
153.830706323526
 20
167.841569027398
 40
1.354468
100
AcDbArc
 50
269.738453
 51
332.860161
  0
ARC
  5
1E7
100
AcDbEntity
  8
2-2
100
AcDbCircle
  6
CONTINUOUS
370
13
 10
153.824495323526
 20
167.637233027398
 40
1.561817
100
AcDbArc
 50
320.204702
 51
324.721767
  0
ARC
  5
1E8
100
AcDbEntity
  8
2-2
100
AcDbCircle
  6
CONTINUOUS
370
13
 10
153.817049323526
 20
167.256808027398
 40
1.661673
100
AcDbArc
 50
220.286752
 51
270.256744
  0
ARC
  5
1E9
100
AcDbEntity
  8
2-2
100
AcDbCircle
  6
CONTINUOUS
370
13
 10
153.821163323526
 20
167.255844027398
 40
1.660696
100
AcDbArc
 50
270.114951
 51
320.332034
  0
ARC
  5
1EA
100
AcDbEntity
  8
2-2
100
AcDbCircle
  6
CONTINUOUS
370
13
 10
154.505594323526
 20
167.520657027398
 40
0.607908
100
AcDbArc
 50
330.759671
 51
347.676573
  0
ARC
  5
1EB
100
AcDbEntity
  8
2-2
100
AcDbCircle
  6
CONTINUOUS
370
13
 10
153.033909323526
 20
167.485928027398
 40
0.49595
100
AcDbArc
 50
192.381847
 51
211.91893
  0
ARC
  5
1EC
100
AcDbEntity
  8
2-2
100
AcDbCircle
  6
CONTINUOUS
370
13
 10
153.824495323526
 20
169.536632027398
 40
2.1
100
AcDbArc
 50
144.47004
 51
180
  0
ARC
  5
1ED
100
AcDbEntity
  8
2-2
100
AcDbCircle
  6
CONTINUOUS
370
13
 10
153.824495323526
 20
167.224479027398
 40
2.1
100
AcDbArc
 50
147.35267
 51
33.402196
  0
ARC
  5
1EE
100
AcDbEntity
  8
2-2
100
AcDbCircle
  6
CONTINUOUS
370
13
 10
153.824495323526
 20
167.224479027398
 40
2.6
100
AcDbArc
 50
278.849883
 51
39.799305
  0
ARC
  5
1EF
100
AcDbEntity
  8
2-2
100
AcDbCircle
  6
CONTINUOUS
370
13
 10
153.824495323526
 20
167.224479027398
 40
3
100
AcDbArc
 50
0
 51
45.743215
  0
ARC
  5
1F0
100
AcDbEntity
  8
2-2
100
AcDbCircle
  6
CONTINUOUS
370
13
 10
153.824495323526
 20
167.224479027398
 40
3
100
AcDbArc
 50
277.662256
 51
0
  0
ARC
  5
1F1
100
AcDbEntity
  8
2-2
100
AcDbCircle
  6
CONTINUOUS
370
13
 10
153.824495323526
 20
167.224479027398
 40
3
100
AcDbArc
 50
134.256785
 51
180
  0
ARC
  5
1F2
100
AcDbEntity
  8
2-2
100
AcDbCircle
  6
CONTINUOUS
370
13
 10
153.824495323526
 20
167.224479027398
 40
3
100
AcDbArc
 50
262.337744
 51
277.662256
  0
ARC
  5
1F3
100
AcDbEntity
  8
2-2
100
AcDbCircle
  6
CONTINUOUS
370
13
 10
153.824495323526
 20
167.224479027398
 40
2.6
100
AcDbArc
 50
140.200695
 51
261.150117
  0
ARC
  5
1F4
100
AcDbEntity
  8
2-2
100
AcDbCircle
  6
CONTINUOUS
370
13
 10
153.824495323526
 20
169.536632027398
 40
2.1
100
AcDbArc
 50
0
 51
35.52996
  0
ARC
  5
1F5
100
AcDbEntity
  8
2-2
100
AcDbCircle
  6
CONTINUOUS
370
13
 10
153.824495323526
 20
169.536632027398
 40
2.1
100
AcDbArc
 50
324.47004
 51
0
  0
ARC
  5
1F6
100
AcDbEntity
  8
2-2
100
AcDbCircle
  6
CONTINUOUS
370
13
 10
153.824495323526
 20
169.536632027398
 40
2.1
100
AcDbArc
 50
180
 51
215.52996
  0
ARC
  5
1F7
100
AcDbEntity
  8
2-2
100
AcDbCircle
  6
CONTINUOUS
370
13
 10
153.824495323526
 20
168.346214027398
 40
1.6
100
AcDbArc
 50
310.294425
 51
337.283471
  0
ARC
  5
1F8
100
AcDbEntity
  8
2-2
100
AcDbCircle
  6
CONTINUOUS
370
13
 10
153.824495323526
 20
168.346214027398
 40
1.6
100
AcDbArc
 50
204.835886
 51
229.705575
  0
ARC
  5
1F9
100
AcDbEntity
  8
2-2
100
AcDbCircle
  6
CONTINUOUS
370
13
 10
153.824495323526
 20
167.224479027398
 40
2.7
100
AcDbArc
 50
261.480376
 51
278.519624
  0
ARC
  5
1FA
100
AcDbEntity
  8
2-2
100
AcDbCircle
  6
CONTINUOUS
370
13
 10
153.824495323526
 20
167.224479027398
 40
3
100
AcDbArc
 50
180
 51
262.337744
  0
CIRCLE
  5
1FB
100
AcDbEntity
  8
2-2
100
AcDbCircle
  6
CONTINUOUS
370
13
 10
153.824495323526
 20
167.224479027398
 40
4
  0
LINE
  5
1FC
100
AcDbEntity
  8
2-2
100
AcDbLine
  6
CONTINUOUS
370
13
 10
155.099495323525
 20
147.195759027398
 11
155.099495323525
 21
148.390912027398
  0
LINE
  5
1FD
100
AcDbEntity
  8
2-2
100
AcDbLine
  6
CONTINUOUS
370
13
 10
152.549495323525
 20
148.379583027398
 11
152.549495323525
 21
147.195759027398
  0
LINE
  5
1FE
100
AcDbEntity
  8
2-2
100
AcDbLine
  6
CONTINUOUS
370
13
 10
153.824495323525
 20
152.843281027398
 11
157.824495323525
 21
150.533880027398
  0
LINE
  5
1FF
100
AcDbEntity
  8
2-2
100
AcDbLine
  6
CONTINUOUS
370
13
 10
157.824495323525
 20
150.533880027398
 11
157.824495323525
 21
148.224479027398
  0
LINE
  5
200
100
AcDbEntity
  8
2-2
100
AcDbLine
  6
CONTINUOUS
370
13
 10
157.824495323525
 20
145.915078027398
 11
153.824495323525
 21
143.605676027398
  0
LINE
  5
201
100
AcDbEntity
  8
2-2
100
AcDbLine
  6
CONTINUOUS
370
13
 10
157.824495323525
 20
148.224479027398
 11
157.824495323525
 21
145.915078027398
  0
LINE
  5
202
100
AcDbEntity
  8
2-2
100
AcDbLine
  6
CONTINUOUS
370
13
 10
149.824495323525
 20
150.533880027398
 11
153.824495323525
 21
152.843281027398
  0
LINE
  5
203
100
AcDbEntity
  8
2-2
100
AcDbLine
  6
CONTINUOUS
370
13
 10
149.824495323525
 20
148.224479027398
 11
149.824495323525
 21
150.533880027398
  0
LINE
  5
204
100
AcDbEntity
  8
2-2
100
AcDbLine
  6
CONTINUOUS
370
13
 10
153.824495323525
 20
143.605676027398
 11
149.824495323525
 21
145.915078027398
  0
LINE
  5
205
100
AcDbEntity
  8
2-2
100
AcDbLine
  6
CONTINUOUS
370
13
 10
149.824495323525
 20
145.915078027398
 11
149.824495323525
 21
148.224479027398
  0
LINE
  5
206
100
AcDbEntity
  8
2-2
100
AcDbLine
  6
CONTINUOUS
370
13
 10
154.224495323525
 20
145.251265027398
 11
154.224495323525
 21
145.724479027398
  0
LINE
  5
207
100
AcDbEntity
  8
2-2
100
AcDbLine
  6
CONTINUOUS
370
13
 10
153.424495323525
 20
145.724479027398
 11
153.424495323525
 21
145.251265027398
  0
LINE
  5
208
100
AcDbEntity
  8
2-2
100
AcDbLine
  6
CONTINUOUS
370
13
 10
153.424495323525
 20
145.724479027398
 11
154.224495323525
 21
145.724479027398
  0
LINE
  5
209
100
AcDbEntity
  8
2-2
100
AcDbLine
  6
CONTINUOUS
370
13
 10
152.115490323525
 20
151.757002027398
 11
155.533499323525
 21
151.757002027398
  0
LINE
  5
20A
100
AcDbEntity
  8
2-2
100
AcDbLine
  6
CONTINUOUS
370
13
 10
152.115490323525
 20
149.316262027398
 11
155.533499323525
 21
149.316262027398
  0
LINE
  5
20B
100
AcDbEntity
  8
2-2
100
AcDbLine
  6
CONTINUOUS
370
13
 10
154.859240323525
 20
148.125844027398
 11
154.802199323525
 21
148.125844027398
  0
LINE
  5
20C
100
AcDbEntity
  8
2-2
100
AcDbLine
  6
CONTINUOUS
370
13
 10
152.846790323525
 20
148.125844027398
 11
154.802199323525
 21
148.125844027398
  0
LINE
  5
20D
100
AcDbEntity
  8
2-2
100
AcDbLine
  6
CONTINUOUS
370
13
 10
154.859240323525
 20
148.125844027398
 11
155.533499323525
 21
149.316262027398
  0
LINE
  5
20E
100
AcDbEntity
  8
2-2
100
AcDbLine
  6
CONTINUOUS
370
13
 10
152.115490323525
 20
149.316262027398
 11
152.789750323525
 21
148.125844027398
  0
LINE
  5
20F
100
AcDbEntity
  8
2-2
100
AcDbLine
  6
CONTINUOUS
370
13
 10
155.730275323525
 20
149.654589027398
 11
155.448287323525
 21
149.045313027398
  0
LINE
  5
210
100
AcDbEntity
  8
2-2
100
AcDbLine
  6
CONTINUOUS
370
13
 10
151.918714323525
 20
149.654589027398
 11
152.200729323525
 21
149.045255027398
  0
LINE
  5
211
100
AcDbEntity
  8
2-2
100
AcDbLine
  6
CONTINUOUS
370
13
 10
152.846790323525
 20
148.125844027398
 11
152.789750323525
 21
148.125844027398
  0
LINE
  5
212
100
AcDbEntity
  8
2-2
100
AcDbLine
  6
CONTINUOUS
370
13
 10
154.802199323525
 20
148.125844027398
 11
152.846790323525
 21
148.125844027398
  0
LINE
  5
213
100
AcDbEntity
  8
2-2
100
AcDbLine
  6
CONTINUOUS
370
13
 10
155.368444323525
 20
148.872800027398
 11
155.276518323525
 21
148.674181027398
  0
LINE
  5
214
100
AcDbEntity
  8
2-2
100
AcDbLine
  6
CONTINUOUS
370
13
 10
152.280545323525
 20
148.872800027398
 11
152.372471323525
 21
148.674181027398
  0
LINE
  5
215
100
AcDbEntity
  8
2-2
100
AcDbLine
  6
CONTINUOUS
370
13
 10
155.448287323525
 20
149.045313027398
 11
155.368444323525
 21
148.872800027398
  0
LINE
  5
216
100
AcDbEntity
  8
2-2
100
AcDbLine
  6
CONTINUOUS
370
13
 10
152.200729323525
 20
149.045255027398
 11
152.280545323525
 21
148.872800027398
  0
ARC
  5
217
100
AcDbEntity
  8
2-2
100
AcDbCircle
  6
CONTINUOUS
370
13
 10
153.824495323525
 20
148.850552027398
 40
1.217008
100
AcDbArc
 50
216.54711
 51
323.45289
  0
ARC
  5
218
100
AcDbEntity
  8
2-2
100
AcDbCircle
  6
CONTINUOUS
370
13
 10
153.818283323525
 20
148.841569027398
 40
1.354468
100
AcDbArc
 50
207.139839
 51
270.261547
  0
ARC
  5
219
100
AcDbEntity
  8
2-2
100
AcDbCircle
  6
CONTINUOUS
370
13
 10
153.824495323525
 20
148.637233027398
 40
1.561817
100
AcDbArc
 50
215.278233
 51
320.204702
  0
ARC
  5
21A
100
AcDbEntity
  8
2-2
100
AcDbCircle
  6
CONTINUOUS
370
13
 10
153.818283323525
 20
148.841569027398
 40
1.354468
100
AcDbArc
 50
207.139839
 51
270.261547
  0
ARC
  5
21B
100
AcDbEntity
  8
2-2
100
AcDbCircle
  6
CONTINUOUS
370
13
 10
153.830706323525
 20
148.841569027398
 40
1.354468
100
AcDbArc
 50
269.738453
 51
332.860161
  0
ARC
  5
21C
100
AcDbEntity
  8
2-2
100
AcDbCircle
  6
CONTINUOUS
370
13
 10
153.824495323525
 20
148.637233027398
 40
1.561817
100
AcDbArc
 50
320.204702
 51
324.721767
  0
ARC
  5
21D
100
AcDbEntity
  8
2-2
100
AcDbCircle
  6
CONTINUOUS
370
13
 10
153.817049323525
 20
148.256808027398
 40
1.661673
100
AcDbArc
 50
220.286752
 51
270.256744
  0
ARC
  5
21E
100
AcDbEntity
  8
2-2
100
AcDbCircle
  6
CONTINUOUS
370
13
 10
153.821163323525
 20
148.255844027398
 40
1.660696
100
AcDbArc
 50
270.114951
 51
320.332034
  0
ARC
  5
21F
100
AcDbEntity
  8
2-2
100
AcDbCircle
  6
CONTINUOUS
370
13
 10
154.505594323525
 20
148.520657027398
 40
0.607908
100
AcDbArc
 50
330.759671
 51
347.676573
  0
ARC
  5
220
100
AcDbEntity
  8
2-2
100
AcDbCircle
  6
CONTINUOUS
370
13
 10
153.033909323525
 20
148.485928027398
 40
0.49595
100
AcDbArc
 50
192.381847
 51
211.91893
  0
ARC
  5
221
100
AcDbEntity
  8
2-2
100
AcDbCircle
  6
CONTINUOUS
370
13
 10
153.824495323525
 20
150.536632027398
 40
2.1
100
AcDbArc
 50
144.47004
 51
180
  0
ARC
  5
222
100
AcDbEntity
  8
2-2
100
AcDbCircle
  6
CONTINUOUS
370
13
 10
153.824495323525
 20
148.224479027398
 40
2.1
100
AcDbArc
 50
147.35267
 51
33.402196
  0
ARC
  5
223
100
AcDbEntity
  8
2-2
100
AcDbCircle
  6
CONTINUOUS
370
13
 10
153.824495323525
 20
148.224479027398
 40
2.6
100
AcDbArc
 50
278.849883
 51
39.799305
  0
ARC
  5
224
100
AcDbEntity
  8
2-2
100
AcDbCircle
  6
CONTINUOUS
370
13
 10
153.824495323525
 20
148.224479027398
 40
3
100
AcDbArc
 50
0
 51
45.743215
  0
ARC
  5
225
100
AcDbEntity
  8
2-2
100
AcDbCircle
  6
CONTINUOUS
370
13
 10
153.824495323525
 20
148.224479027398
 40
3
100
AcDbArc
 50
277.662256
 51
0
  0
ARC
  5
226
100
AcDbEntity
  8
2-2
100
AcDbCircle
  6
CONTINUOUS
370
13
 10
153.824495323525
 20
148.224479027398
 40
3
100
AcDbArc
 50
134.256785
 51
180
  0
ARC
  5
227
100
AcDbEntity
  8
2-2
100
AcDbCircle
  6
CONTINUOUS
370
13
 10
153.824495323525
 20
148.224479027398
 40
3
100
AcDbArc
 50
262.337744
 51
277.662256
  0
ARC
  5
228
100
AcDbEntity
  8
2-2
100
AcDbCircle
  6
CONTINUOUS
370
13
 10
153.824495323525
 20
148.224479027398
 40
2.6
100
AcDbArc
 50
140.200695
 51
261.150117
  0
ARC
  5
229
100
AcDbEntity
  8
2-2
100
AcDbCircle
  6
CONTINUOUS
370
13
 10
153.824495323525
 20
150.536632027398
 40
2.1
100
AcDbArc
 50
0
 51
35.52996
  0
ARC
  5
22A
100
AcDbEntity
  8
2-2
100
AcDbCircle
  6
CONTINUOUS
370
13
 10
153.824495323525
 20
150.536632027398
 40
2.1
100
AcDbArc
 50
324.47004
 51
0
  0
ARC
  5
22B
100
AcDbEntity
  8
2-2
100
AcDbCircle
  6
CONTINUOUS
370
13
 10
153.824495323525
 20
150.536632027398
 40
2.1
100
AcDbArc
 50
180
 51
215.52996
  0
ARC
  5
22C
100
AcDbEntity
  8
2-2
100
AcDbCircle
  6
CONTINUOUS
370
13
 10
153.824495323525
 20
149.346214027398
 40
1.6
100
AcDbArc
 50
310.294425
 51
337.283471
  0
ARC
  5
22D
100
AcDbEntity
  8
2-2
100
AcDbCircle
  6
CONTINUOUS
370
13
 10
153.824495323525
 20
149.346214027398
 40
1.6
100
AcDbArc
 50
204.835886
 51
229.705575
  0
ARC
  5
22E
100
AcDbEntity
  8
2-2
100
AcDbCircle
  6
CONTINUOUS
370
13
 10
153.824495323525
 20
148.224479027398
 40
2.7
100
AcDbArc
 50
261.480376
 51
278.519624
  0
ARC
  5
22F
100
AcDbEntity
  8
2-2
100
AcDbCircle
  6
CONTINUOUS
370
13
 10
153.824495323525
 20
148.224479027398
 40
3
100
AcDbArc
 50
180
 51
262.337744
  0
CIRCLE
  5
230
100
AcDbEntity
  8
2-2
100
AcDbCircle
  6
CONTINUOUS
370
13
 10
153.824495323525
 20
148.224479027398
 40
4
  0
LINE
  5
231
100
AcDbEntity
  8
0-0
100
AcDbLine
  6
CONTINUOUS
370
13
 10
163.574495323525
 20
85.7244790273982
 11
163.924495323525
 21
91.2244790273982
  0
LINE
  5
232
100
AcDbEntity
  8
0-0
100
AcDbLine
  6
CONTINUOUS
370
13
 10
163.924495323525
 20
91.2244790273982
 11
149.724495323525
 21
91.2244790273982
  0
LINE
  5
233
100
AcDbEntity
  8
0-0
100
AcDbLine
  6
CONTINUOUS
370
13
 10
149.724495323525
 20
91.2244790273982
 11
150.074495323525
 21
85.7244790273982
  0
LINE
  5
234
100
AcDbEntity
  8
0-0
100
AcDbLine
  6
CONTINUOUS
370
13
 10
150.074495323525
 20
85.7244790273982
 11
163.574495323525
 21
85.7244790273982
  0
LINE
  5
235
100
AcDbEntity
  8
0-0
100
AcDbLine
  6
CONTINUOUS
370
13
 10
330.014340671151
 20
85.7244790273981
 11
330.338886125697
 21
90.8244790273981
  0
LINE
  5
236
100
AcDbEntity
  8
0-0
100
AcDbLine
  6
CONTINUOUS
370
13
 10
316.189795216606
 20
90.8244790273981
 11
316.514340671151
 21
85.7244790273981
  0
LINE
  5
237
100
AcDbEntity
  8
0-0
100
AcDbLine
  6
CONTINUOUS
370
13
 10
316.514340671151
 20
85.7244790273981
 11
330.014340671151
 21
85.7244790273981
  0
LINE
  5
238
100
AcDbEntity
  8
0-0
100
AcDbLine
  6
CONTINUOUS
370
13
 10
438.014340671151
 20
85.724479027398
 11
438.338886125697
 21
90.8244790273981
  0
LINE
  5
239
100
AcDbEntity
  8
0-0
100
AcDbLine
  6
CONTINUOUS
370
13
 10
424.189795216606
 20
90.8244790273981
 11
424.514340671151
 21
85.724479027398
  0
LINE
  5
23A
100
AcDbEntity
  8
0-0
100
AcDbLine
  6
CONTINUOUS
370
13
 10
424.514340671151
 20
85.724479027398
 11
438.014340671151
 21
85.724479027398
  0
LINE
  5
23B
100
AcDbEntity
  8
2-e
100
AcDbLine
  6
CONTINUOUS
370
13
 10
36.8244953235253
 20
254.769164410532
 11
170.824495323525
 21
254.769164410532
  0
LINE
  5
23C
100
AcDbEntity
  8
2-e
100
AcDbLine
  6
CONTINUOUS
370
13
 10
310.264340671151
 20
91.3244790273981
 11
310.264340671151
 21
185.824479027398
  0
LINE
  5
23D
100
AcDbEntity
  8
2-d
100
AcDbLine
  6
CONTINUOUS
370
13
 10
395.883571968642
 20
243.07004824176
 11
264.283571968642
 21
243.07004824176
  0
LINE
  5
23E
100
AcDbEntity
  8
0-0
100
AcDbLine
  6
HIDDEN
370
13
 10
273.983571968643
 20
238.57004824176
 11
274.542588968643
 21
238.57004824176
  0
LINE
  5
23F
100
AcDbEntity
  8
0-0
100
AcDbLine
  6
HIDDEN
370
13
 10
274.542588968643
 20
238.57004824176
 11
274.892588968643
 21
237.87004824176
  0
LINE
  5
240
100
AcDbEntity
  8
0-0
100
AcDbLine
  6
HIDDEN
370
13
 10
274.892588968643
 20
237.87004824176
 11
276.083571968643
 21
237.87004824176
  0
LINE
  5
241
100
AcDbEntity
  8
0-0
100
AcDbLine
  6
HIDDEN
370
13
 10
274.833571968643
 20
241.07004824176
 11
275.083571968643
 21
240.27004824176
  0
LINE
  5
242
100
AcDbEntity
  8
0-0
100
AcDbLine
  6
HIDDEN
370
13
 10
275.083571968643
 20
240.27004824176
 11
276.083571968643
 21
240.27004824176
  0
LINE
  5
243
100
AcDbEntity
  8
0-0
100
AcDbLine
  6
HIDDEN
370
13
 10
279.333571968643
 20
241.07004824176
 11
278.083571968643
 21
241.07004824176
  0
LINE
  5
244
100
AcDbEntity
  8
0-0
100
AcDbLine
  6
CONTINUOUS
370
13
 10
274.583571968643
 20
237.37004824176
 11
279.583571968643
 21
237.37004824176
  0
LINE
  5
245
100
AcDbEntity
  8
0-0
100
AcDbLine
  6
CONTINUOUS
370
13
 10
283.833571968643
 20
237.57004824176
 11
284.183571968643
 21
243.07004824176
  0
LINE
  5
246
100
AcDbEntity
  8
0-0
100
AcDbLine
  6
CONTINUOUS
370
13
 10
284.183571968643
 20
243.07004824176
 11
269.983571968643
 21
243.07004824176
  0
LINE
  5
247
100
AcDbEntity
  8
0-0
100
AcDbLine
  6
HIDDEN
370
13
 10
275.583571968643
 20
241.07004824176
 11
275.583571968643
 21
243.07004824176
  0
LINE
  5
248
100
AcDbEntity
  8
0-0
100
AcDbLine
  6
CONTINUOUS
370
13
 10
279.583571968643
 20
237.37004824176
 11
279.683571968643
 21
237.57004824176
  0
LINE
  5
249
100
AcDbEntity
  8
0-0
100
AcDbLine
  6
HIDDEN
370
13
 10
273.983571968643
 20
238.57004824176
 11
274.483571968643
 21
237.57004824176
  0
LINE
  5
24A
100
AcDbEntity
  8
0-0
100
AcDbLine
  6
HIDDEN
370
13
 10
275.533571968642
 20
241.17004824176
 11
273.683571968643
 21
241.17004824176
  0
LINE
  5
24B
100
AcDbEntity
  8
0-0
100
AcDbLine
  6
HIDDEN
370
13
 10
279.083571968643
 20
240.27004824176
 11
279.333571968643
 21
241.07004824176
  0
LINE
  5
24C
100
AcDbEntity
  8
0-0
100
AcDbLine
  6
HIDDEN
370
13
 10
275.533571968642
 20
243.07004824176
 11
275.533571968642
 21
241.17004824176
  0
LINE
  5
24D
100
AcDbEntity
  8
0-0
100
AcDbLine
  6
HIDDEN
370
13
 10
278.633571968642
 20
243.07004824176
 11
278.633571968642
 21
241.17004824176
  0
LINE
  5
24E
100
AcDbEntity
  8
0-0
100
AcDbLine
  6
HIDDEN
370
13
 10
280.483571968643
 20
237.57004824176
 11
280.483571968643
 21
241.17004824176
  0
LINE
  5
24F
100
AcDbEntity
  8
0-0
100
AcDbLine
  6
HIDDEN
370
13
 10
280.483571968643
 20
241.17004824176
 11
278.633571968642
 21
241.17004824176
  0
LINE
  5
250
100
AcDbEntity
  8
0-0
100
AcDbLine
  6
HIDDEN
370
13
 10
273.683571968643
 20
241.17004824176
 11
273.683571968643
 21
237.57004824176
  0
LINE
  5
251
100
AcDbEntity
  8
0-0
100
AcDbLine
  6
CONTINUOUS
370
13
 10
275.683571968643
 20
246.57004824176
 11
276.833571968643
 21
246.57004824176
  0
LINE
  5
252
100
AcDbEntity
  8
0-0
100
AcDbLine
  6
CONTINUOUS
370
13
 10
269.983571968643
 20
243.07004824176
 11
270.333571968643
 21
237.57004824176
  0
LINE
  5
253
100
AcDbEntity
  8
0-0
100
AcDbLine
  6
HIDDEN
370
13
 10
279.683571968643
 20
237.57004824176
 11
280.183571968643
 21
238.57004824176
  0
LINE
  5
254
100
AcDbEntity
  8
0-0
100
AcDbLine
  6
HIDDEN
370
13
 10
278.083571968643
 20
240.27004824176
 11
279.083571968643
 21
240.27004824176
  0
LINE
  5
255
100
AcDbEntity
  8
0-0
100
AcDbLine
  6
HIDDEN
370
13
 10
276.083571968643
 20
241.07004824176
 11
274.833571968643
 21
241.07004824176
  0
LINE
  5
256
100
AcDbEntity
  8
0-0
100
AcDbLine
  6
HIDDEN
370
13
 10
278.083571968643
 20
237.87004824176
 11
279.274554968643
 21
237.87004824176
  0
LINE
  5
257
100
AcDbEntity
  8
0-0
100
AcDbLine
  6
CONTINUOUS
370
13
 10
270.333571968643
 20
237.57004824176
 11
283.833571968643
 21
237.57004824176
  0
ARC
  5
258
100
AcDbEntity
  8
0-0
100
AcDbCircle
  6
CONTINUOUS
370
13
 10
276.183571968643
 20
244.47004824176
 40
0.1
100
AcDbArc
 50
90
 51
180
  0
ARC
  5
259
100
AcDbEntity
  8
0-0
100
AcDbCircle
  6
CONTINUOUS
370
13
 10
277.983571968643
 20
244.47004824176
 40
0.1
100
AcDbArc
 50
0
 51
90
  0
LINE
  5
25A
100
AcDbEntity
  8
0-0
100
AcDbLine
  6
CONTINUOUS
370
13
 10
277.333571968643
 20
246.57004824176
 11
277.333571968643
 21
245.17004824176
  0
LINE
  5
25B
100
AcDbEntity
  8
0-0
100
AcDbLine
  6
CONTINUOUS
370
13
 10
277.333571968643
 20
246.57004824176
 11
278.483571968643
 21
246.57004824176
  0
LINE
  5
25C
100
AcDbEntity
  8
0-0
100
AcDbLine
  6
CONTINUOUS
370
13
 10
275.583571968643
 20
243.07004824176
 11
275.583571968643
 21
246.47004824176
  0
LINE
  5
25D
100
AcDbEntity
  8
0-0
100
AcDbLine
  6
CONTINUOUS
370
13
 10
276.833571968643
 20
245.17004824176
 11
276.083571968643
 21
245.17004824176
  0
LINE
  5
25E
100
AcDbEntity
  8
0-0
100
AcDbLine
  6
HIDDEN
370
13
 10
278.083571968643
 20
243.07004824176
 11
278.083571968643
 21
237.87004824176
  0
LINE
  5
25F
100
AcDbEntity
  8
0-0
100
AcDbLine
  6
CONTINUOUS
370
13
 10
276.183571968643
 20
244.57004824176
 11
277.983571968643
 21
244.57004824176
  0
LINE
  5
260
100
AcDbEntity
  8
0-0
100
AcDbLine
  6
CONTINUOUS
370
13
 10
276.833571968643
 20
246.57004824176
 11
276.833571968643
 21
245.17004824176
  0
LINE
  5
261
100
AcDbEntity
  8
0-0
100
AcDbLine
  6
CONTINUOUS
370
13
 10
276.083571968643
 20
243.07004824176
 11
276.083571968643
 21
245.17004824176
  0
LINE
  5
262
100
AcDbEntity
  8
0-0
100
AcDbLine
  6
HIDDEN
370
13
 10
278.583571968643
 20
243.07004824176
 11
278.583571968643
 21
241.07004824176
  0
LINE
  5
263
100
AcDbEntity
  8
0-0
100
AcDbLine
  6
CONTINUOUS
370
13
 10
277.333571968643
 20
245.17004824176
 11
278.083571968643
 21
245.17004824176
  0
LINE
  5
264
100
AcDbEntity
  8
0-0
100
AcDbLine
  6
CONTINUOUS
370
13
 10
274.483571968643
 20
237.57004824176
 11
274.583571968643
 21
237.37004824176
  0
LINE
  5
265
100
AcDbEntity
  8
0-0
100
AcDbLine
  6
HIDDEN
370
13
 10
279.624554968643
 20
238.57004824176
 11
280.183571968643
 21
238.57004824176
  0
LINE
  5
266
100
AcDbEntity
  8
0-0
100
AcDbLine
  6
HIDDEN
370
13
 10
279.274554968643
 20
237.87004824176
 11
279.624554968643
 21
238.57004824176
  0
LINE
  5
267
100
AcDbEntity
  8
0-0
100
AcDbLine
  6
HIDDEN
370
13
 10
279.272111968643
 20
237.87004824176
 11
279.274554968643
 21
237.87004824176
  0
LINE
  5
268
100
AcDbEntity
  8
0-0
100
AcDbLine
  6
CONTINUOUS
370
13
 10
278.083571968643
 20
245.17004824176
 11
278.083571968643
 21
243.07004824176
  0
LINE
  5
269
100
AcDbEntity
  8
0-0
100
AcDbLine
  6
HIDDEN
370
13
 10
276.083571968643
 20
237.87004824176
 11
276.083571968643
 21
243.07004824176
  0
ARC
  5
26A
100
AcDbEntity
  8
0-0
100
AcDbCircle
  6
CONTINUOUS
370
13
 10
278.483571968643
 20
246.47004824176
 40
0.1
100
AcDbArc
 50
0
 51
90
  0
ARC
  5
26B
100
AcDbEntity
  8
0-0
100
AcDbCircle
  6
CONTINUOUS
370
13
 10
275.683571968643
 20
246.47004824176
 40
0.1
100
AcDbArc
 50
90
 51
180
  0
LINE
  5
26C
100
AcDbEntity
  8
0-0
100
AcDbLine
  6
CONTINUOUS
370
13
 10
278.583571968643
 20
246.47004824176
 11
278.583571968643
 21
243.07004824176
  0
LINE
  5
26D
100
AcDbEntity
  8
0-0
100
AcDbLine
  6
HIDDEN
370
13
 10
379.983571968643
 20
238.57004824176
 11
380.542588968643
 21
238.57004824176
  0
LINE
  5
26E
100
AcDbEntity
  8
0-0
100
AcDbLine
  6
HIDDEN
370
13
 10
380.542588968643
 20
238.57004824176
 11
380.892588968643
 21
237.87004824176
  0
LINE
  5
26F
100
AcDbEntity
  8
0-0
100
AcDbLine
  6
HIDDEN
370
13
 10
380.892588968643
 20
237.87004824176
 11
382.083571968643
 21
237.87004824176
  0
LINE
  5
270
100
AcDbEntity
  8
0-0
100
AcDbLine
  6
HIDDEN
370
13
 10
380.833571968643
 20
241.07004824176
 11
381.083571968643
 21
240.27004824176
  0
LINE
  5
271
100
AcDbEntity
  8
0-0
100
AcDbLine
  6
HIDDEN
370
13
 10
381.083571968643
 20
240.27004824176
 11
382.083571968643
 21
240.27004824176
  0
LINE
  5
272
100
AcDbEntity
  8
0-0
100
AcDbLine
  6
HIDDEN
370
13
 10
385.333571968643
 20
241.07004824176
 11
384.083571968643
 21
241.07004824176
  0
LINE
  5
273
100
AcDbEntity
  8
0-0
100
AcDbLine
  6
CONTINUOUS
370
13
 10
380.583571968643
 20
237.37004824176
 11
385.583571968643
 21
237.37004824176
  0
LINE
  5
274
100
AcDbEntity
  8
0-0
100
AcDbLine
  6
CONTINUOUS
370
13
 10
389.833571968643
 20
237.57004824176
 11
390.183571968643
 21
243.07004824176
  0
LINE
  5
275
100
AcDbEntity
  8
0-0
100
AcDbLine
  6
CONTINUOUS
370
13
 10
390.183571968643
 20
243.07004824176
 11
375.983571968643
 21
243.07004824176
  0
LINE
  5
276
100
AcDbEntity
  8
0-0
100
AcDbLine
  6
HIDDEN
370
13
 10
381.583571968643
 20
241.07004824176
 11
381.583571968643
 21
243.07004824176
  0
LINE
  5
277
100
AcDbEntity
  8
0-0
100
AcDbLine
  6
CONTINUOUS
370
13
 10
385.583571968643
 20
237.37004824176
 11
385.683571968643
 21
237.57004824176
  0
LINE
  5
278
100
AcDbEntity
  8
0-0
100
AcDbLine
  6
HIDDEN
370
13
 10
379.983571968643
 20
238.57004824176
 11
380.483571968643
 21
237.57004824176
  0
LINE
  5
279
100
AcDbEntity
  8
0-0
100
AcDbLine
  6
HIDDEN
370
13
 10
381.533571968642
 20
241.17004824176
 11
379.683571968643
 21
241.17004824176
  0
LINE
  5
27A
100
AcDbEntity
  8
0-0
100
AcDbLine
  6
HIDDEN
370
13
 10
385.083571968643
 20
240.27004824176
 11
385.333571968643
 21
241.07004824176
  0
LINE
  5
27B
100
AcDbEntity
  8
0-0
100
AcDbLine
  6
HIDDEN
370
13
 10
381.533571968642
 20
243.07004824176
 11
381.533571968642
 21
241.17004824176
  0
LINE
  5
27C
100
AcDbEntity
  8
0-0
100
AcDbLine
  6
HIDDEN
370
13
 10
384.633571968642
 20
243.07004824176
 11
384.633571968642
 21
241.17004824176
  0
LINE
  5
27D
100
AcDbEntity
  8
0-0
100
AcDbLine
  6
HIDDEN
370
13
 10
386.483571968643
 20
237.57004824176
 11
386.483571968643
 21
241.17004824176
  0
LINE
  5
27E
100
AcDbEntity
  8
0-0
100
AcDbLine
  6
HIDDEN
370
13
 10
386.483571968643
 20
241.17004824176
 11
384.633571968642
 21
241.17004824176
  0
LINE
  5
27F
100
AcDbEntity
  8
0-0
100
AcDbLine
  6
HIDDEN
370
13
 10
379.683571968643
 20
241.17004824176
 11
379.683571968643
 21
237.57004824176
  0
LINE
  5
280
100
AcDbEntity
  8
0-0
100
AcDbLine
  6
CONTINUOUS
370
13
 10
381.683571968643
 20
246.57004824176
 11
382.833571968643
 21
246.57004824176
  0
LINE
  5
281
100
AcDbEntity
  8
0-0
100
AcDbLine
  6
CONTINUOUS
370
13
 10
375.983571968643
 20
243.07004824176
 11
376.333571968643
 21
237.57004824176
  0
LINE
  5
282
100
AcDbEntity
  8
0-0
100
AcDbLine
  6
HIDDEN
370
13
 10
385.683571968643
 20
237.57004824176
 11
386.183571968643
 21
238.57004824176
  0
LINE
  5
283
100
AcDbEntity
  8
0-0
100
AcDbLine
  6
HIDDEN
370
13
 10
384.083571968643
 20
240.27004824176
 11
385.083571968643
 21
240.27004824176
  0
LINE
  5
284
100
AcDbEntity
  8
0-0
100
AcDbLine
  6
HIDDEN
370
13
 10
382.083571968643
 20
241.07004824176
 11
380.833571968643
 21
241.07004824176
  0
LINE
  5
285
100
AcDbEntity
  8
0-0
100
AcDbLine
  6
HIDDEN
370
13
 10
384.083571968643
 20
237.87004824176
 11
385.274554968643
 21
237.87004824176
  0
LINE
  5
286
100
AcDbEntity
  8
0-0
100
AcDbLine
  6
CONTINUOUS
370
13
 10
376.333571968643
 20
237.57004824176
 11
389.833571968643
 21
237.57004824176
  0
ARC
  5
287
100
AcDbEntity
  8
0-0
100
AcDbCircle
  6
CONTINUOUS
370
13
 10
382.183571968643
 20
244.47004824176
 40
0.1
100
AcDbArc
 50
90
 51
180
  0
ARC
  5
288
100
AcDbEntity
  8
0-0
100
AcDbCircle
  6
CONTINUOUS
370
13
 10
383.983571968643
 20
244.47004824176
 40
0.1
100
AcDbArc
 50
0
 51
90
  0
LINE
  5
289
100
AcDbEntity
  8
0-0
100
AcDbLine
  6
CONTINUOUS
370
13
 10
383.333571968643
 20
246.57004824176
 11
383.333571968643
 21
245.17004824176
  0
LINE
  5
28A
100
AcDbEntity
  8
0-0
100
AcDbLine
  6
CONTINUOUS
370
13
 10
383.333571968643
 20
246.57004824176
 11
384.483571968643
 21
246.57004824176
  0
LINE
  5
28B
100
AcDbEntity
  8
0-0
100
AcDbLine
  6
CONTINUOUS
370
13
 10
381.583571968643
 20
243.07004824176
 11
381.583571968643
 21
246.47004824176
  0
LINE
  5
28C
100
AcDbEntity
  8
0-0
100
AcDbLine
  6
CONTINUOUS
370
13
 10
382.833571968643
 20
245.17004824176
 11
382.083571968643
 21
245.17004824176
  0
LINE
  5
28D
100
AcDbEntity
  8
0-0
100
AcDbLine
  6
HIDDEN
370
13
 10
384.083571968643
 20
243.07004824176
 11
384.083571968643
 21
237.87004824176
  0
LINE
  5
28E
100
AcDbEntity
  8
0-0
100
AcDbLine
  6
CONTINUOUS
370
13
 10
382.183571968643
 20
244.57004824176
 11
383.983571968643
 21
244.57004824176
  0
LINE
  5
28F
100
AcDbEntity
  8
0-0
100
AcDbLine
  6
CONTINUOUS
370
13
 10
382.833571968643
 20
246.57004824176
 11
382.833571968643
 21
245.17004824176
  0
LINE
  5
290
100
AcDbEntity
  8
0-0
100
AcDbLine
  6
CONTINUOUS
370
13
 10
382.083571968643
 20
243.07004824176
 11
382.083571968643
 21
245.17004824176
  0
LINE
  5
291
100
AcDbEntity
  8
0-0
100
AcDbLine
  6
HIDDEN
370
13
 10
384.583571968643
 20
243.07004824176
 11
384.583571968643
 21
241.07004824176
  0
LINE
  5
292
100
AcDbEntity
  8
0-0
100
AcDbLine
  6
CONTINUOUS
370
13
 10
383.333571968643
 20
245.17004824176
 11
384.083571968643
 21
245.17004824176
  0
LINE
  5
293
100
AcDbEntity
  8
0-0
100
AcDbLine
  6
CONTINUOUS
370
13
 10
380.483571968643
 20
237.57004824176
 11
380.583571968643
 21
237.37004824176
  0
LINE
  5
294
100
AcDbEntity
  8
0-0
100
AcDbLine
  6
HIDDEN
370
13
 10
385.624554968643
 20
238.57004824176
 11
386.183571968643
 21
238.57004824176
  0
LINE
  5
295
100
AcDbEntity
  8
0-0
100
AcDbLine
  6
HIDDEN
370
13
 10
385.274554968643
 20
237.87004824176
 11
385.624554968643
 21
238.57004824176
  0
LINE
  5
296
100
AcDbEntity
  8
0-0
100
AcDbLine
  6
HIDDEN
370
13
 10
385.272111968643
 20
237.87004824176
 11
385.274554968643
 21
237.87004824176
  0
LINE
  5
297
100
AcDbEntity
  8
0-0
100
AcDbLine
  6
CONTINUOUS
370
13
 10
384.083571968643
 20
245.17004824176
 11
384.083571968643
 21
243.07004824176
  0
LINE
  5
298
100
AcDbEntity
  8
0-0
100
AcDbLine
  6
HIDDEN
370
13
 10
382.083571968643
 20
237.87004824176
 11
382.083571968643
 21
243.07004824176
  0
ARC
  5
299
100
AcDbEntity
  8
0-0
100
AcDbCircle
  6
CONTINUOUS
370
13
 10
384.483571968643
 20
246.47004824176
 40
0.1
100
AcDbArc
 50
0
 51
90
  0
ARC
  5
29A
100
AcDbEntity
  8
0-0
100
AcDbCircle
  6
CONTINUOUS
370
13
 10
381.683571968643
 20
246.47004824176
 40
0.1
100
AcDbArc
 50
90
 51
180
  0
LINE
  5
29B
100
AcDbEntity
  8
0-0
100
AcDbLine
  6
CONTINUOUS
370
13
 10
384.583571968643
 20
246.47004824176
 11
384.583571968643
 21
243.07004824176
  0
CIRCLE
  5
29C
100
AcDbEntity
  8
2-d
100
AcDbCircle
  6
CONTINUOUS
370
13
 10
153.824495323525
 20
148.224479027398
 40
3.25
  0
CIRCLE
  5
29D
100
AcDbEntity
  8
2-d
100
AcDbCircle
  6
CONTINUOUS
370
13
 10
153.824495323525
 20
167.224479027398
 40
3.25
  0
LINE
  5
29E
100
AcDbEntity
  8
2-3
100
AcDbLine
  6
CONTINUOUS
 62
7
370
30
 10
118.224641823525
 20
140.224204397708
 11
133.424104723525
 21
140.224204397708
  0
LINE
  5
29F
100
AcDbEntity
  8
2-3
100
AcDbLine
  6
CONTINUOUS
 62
7
370
30
 10
133.424348823525
 20
140.224448497708
 11
133.424348823525
 21
156.224753697708
  0
LINE
  5
2A0
100
AcDbEntity
  8
2-3
100
AcDbLine
  6
CONTINUOUS
 62
7
370
30
 10
133.424104723525
 20
156.224753697708
 11
118.224641823525
 21
156.224753697708
  0
LINE
  5
2A1
100
AcDbEntity
  8
2-3
100
AcDbLine
  6
CONTINUOUS
 62
7
370
30
 10
118.224641823525
 20
156.224753697708
 11
118.224641823525
 21
140.224448497708
  0
LINE
  5
2A2
100
AcDbEntity
  8
2-3
100
AcDbLine
  6
CONTINUOUS
 62
7
370
30
 10
120.744173023525
 20
156.224753697708
 11
120.744173023525
 21
140.224448497708
  0
LINE
  5
2A3
100
AcDbEntity
  8
2-3
100
AcDbLine
  6
CONTINUOUS
 62
7
370
30
 10
124.774446523525
 20
150.724326397708
 11
124.774446523525
 21
145.724326397708
  0
LINE
  5
2A4
100
AcDbEntity
  8
2-3
100
AcDbLine
  6
CONTINUOUS
 62
7
370
30
 10
121.784212123525
 20
150.724326397708
 11
121.784212123525
 21
145.724326397708
  0
LINE
  5
2A5
100
AcDbEntity
  8
2-3
100
AcDbLine
  6
CONTINUOUS
 62
7
370
30
 10
121.784212123525
 20
145.724326397708
 11
124.774202323525
 21
145.724326397708
  0
LINE
  5
2A6
100
AcDbEntity
  8
2-3
100
AcDbLine
  6
CONTINUOUS
 62
7
370
30
 10
121.784212123525
 20
150.724326397708
 11
124.774202323525
 21
150.724326397708
  0
LINE
  5
2A7
100
AcDbEntity
  8
2-3
100
AcDbLine
  6
CONTINUOUS
 62
7
370
30
 10
130.904085123525
 20
156.224753697708
 11
130.904085123525
 21
140.224448497708
  0
LINE
  5
2A8
100
AcDbEntity
  8
2-3
100
AcDbLine
  6
CONTINUOUS
 62
7
370
30
 10
126.874055823525
 20
150.724326397708
 11
126.874055823525
 21
145.724326397708
  0
LINE
  5
2A9
100
AcDbEntity
  8
2-3
100
AcDbLine
  6
CONTINUOUS
 62
7
370
30
 10
129.864046123525
 20
150.724326397708
 11
129.864046123525
 21
145.724326397708
  0
LINE
  5
2AA
100
AcDbEntity
  8
2-3
100
AcDbLine
  6
CONTINUOUS
 62
7
370
30
 10
129.864046123525
 20
145.724326397708
 11
126.873811723525
 21
145.724326397708
  0
LINE
  5
2AB
100
AcDbEntity
  8
2-3
100
AcDbLine
  6
CONTINUOUS
 62
7
370
30
 10
129.864046123525
 20
150.724326397708
 11
126.873811723525
 21
150.724326397708
  0
CIRCLE
  5
2AC
100
AcDbEntity
  8
2-3
100
AcDbCircle
  6
CONTINUOUS
 62
7
370
30
 10
125.824495323525
 20
148.224479027398
 40
0.5
  0
LINE
  5
2AD
100
AcDbEntity
  8
2-d
100
AcDbLine
  6
CONTINUOUS
370
13
 10
169.624495323525
 20
91.2244790273982
 11
169.624495323525
 21
184.724479027398
  0
LINE
  5
2AE
100
AcDbEntity
  8
2-d
100
AcDbLine
  6
CONTINUOUS
370
13
 10
264.283571968642
 20
243.07004824176
 11
264.283571968642
 21
336.57004824176
  0
LINE
  5
2AF
100
AcDbEntity
  8
2-e
100
AcDbLine
  6
CONTINUOUS
370
13
 10
36.8244953235253
 20
388.769164410532
 11
170.824495323525
 21
388.769164410532
  0
LINE
  5
2B0
100
AcDbEntity
  8
2-e
100
AcDbLine
  6
CONTINUOUS
370
13
 10
444.264340671151
 20
91.3244790273981
 11
444.264340671151
 21
185.824479027398
  0
LINE
  5
2B1
100
AcDbEntity
  8
2-3
100
AcDbLine
  6
CONTINUOUS
370
13
 10
125.824251182895
 20
156.224753718018
 11
125.824251182895
 21
140.224448518018
  0
LINE
  5
2B2
100
AcDbEntity
  8
2-3
100
AcDbLine
  6
CONTINUOUS
 62
7
370
30
 10
118.224397682895
 20
140.224326468018
 11
133.423860582895
 21
140.224326468018
  0
LINE
  5
2B3
100
AcDbEntity
  8
2-3
100
AcDbLine
  6
CONTINUOUS
 62
7
370
30
 10
133.424104682895
 20
140.224570568018
 11
133.424104682895
 21
156.224875768018
  0
LINE
  5
2B4
100
AcDbEntity
  8
2-3
100
AcDbLine
  6
CONTINUOUS
 62
7
370
30
 10
133.423860582895
 20
156.224875768018
 11
118.224397682895
 21
156.224875768018
  0
LINE
  5
2B5
100
AcDbEntity
  8
2-3
100
AcDbLine
  6
CONTINUOUS
 62
7
370
30
 10
118.224397682895
 20
156.224875768018
 11
118.224397682895
 21
140.224570568018
  0
LINE
  5
2B6
100
AcDbEntity
  8
2-3
100
AcDbLine
  6
CONTINUOUS
 62
7
370
30
 10
120.743928882895
 20
156.224875768018
 11
120.743928882895
 21
140.224570568018
  0
LINE
  5
2B7
100
AcDbEntity
  8
2-3
100
AcDbLine
  6
CONTINUOUS
 62
7
370
30
 10
124.774202382895
 20
150.724448468018
 11
124.774202382895
 21
145.724448468018
  0
LINE
  5
2B8
100
AcDbEntity
  8
2-3
100
AcDbLine
  6
CONTINUOUS
 62
7
370
30
 10
121.783967982895
 20
150.724448468018
 11
121.783967982895
 21
145.724448468018
  0
LINE
  5
2B9
100
AcDbEntity
  8
2-3
100
AcDbLine
  6
CONTINUOUS
 62
7
370
30
 10
121.783967982895
 20
145.724448468018
 11
124.773958182895
 21
145.724448468018
  0
LINE
  5
2BA
100
AcDbEntity
  8
2-3
100
AcDbLine
  6
CONTINUOUS
 62
7
370
30
 10
121.783967982895
 20
150.724448468018
 11
124.773958182895
 21
150.724448468018
  0
LINE
  5
2BB
100
AcDbEntity
  8
2-3
100
AcDbLine
  6
CONTINUOUS
 62
7
370
30
 10
130.903840982895
 20
156.224875768018
 11
130.903840982895
 21
140.224570568018
  0
LINE
  5
2BC
100
AcDbEntity
  8
2-3
100
AcDbLine
  6
CONTINUOUS
 62
7
370
30
 10
126.873811682895
 20
150.724448468018
 11
126.873811682895
 21
145.724448468018
  0
LINE
  5
2BD
100
AcDbEntity
  8
2-3
100
AcDbLine
  6
CONTINUOUS
 62
7
370
30
 10
129.863801982895
 20
150.724448468018
 11
129.863801982895
 21
145.724448468018
  0
LINE
  5
2BE
100
AcDbEntity
  8
2-3
100
AcDbLine
  6
CONTINUOUS
 62
7
370
30
 10
129.863801982895
 20
145.724448468018
 11
126.873567582895
 21
145.724448468018
  0
LINE
  5
2BF
100
AcDbEntity
  8
2-3
100
AcDbLine
  6
CONTINUOUS
 62
7
370
30
 10
129.863801982895
 20
150.724448468018
 11
126.873567582895
 21
150.724448468018
  0
CIRCLE
  5
2C0
100
AcDbEntity
  8
2-3
100
AcDbCircle
  6
CONTINUOUS
 62
7
370
30
 10
125.824251182895
 20
148.224601097708
 40
0.5
  0
CIRCLE
  5
2C1
100
AcDbEntity
  8
2-4
100
AcDbCircle
  6
BYLAYER
370
13
 10
49.8244953235253
 20
101.224479027398
 40
3.1
  0
CIRCLE
  5
2C2
100
AcDbEntity
  8
2-4
100
AcDbCircle
  6
BYLAYER
370
13
 10
49.8244953235253
 20
101.224479027398
 40
4
  0
CIRCLE
  5
2C3
100
AcDbEntity
  8
2-4
100
AcDbCircle
  6
BYLAYER
370
13
 10
49.8244953235253
 20
101.224479027398
 40
3
  0
CIRCLE
  5
2C4
100
AcDbEntity
  8
2-4
100
AcDbCircle
  6
BYLAYER
370
13
 10
49.8244953235253
 20
101.224479027398
 40
2.80000000000001
  0
CIRCLE
  5
2C5
100
AcDbEntity
  8
2-4
100
AcDbCircle
  6
BYLAYER
370
13
 10
49.8244953235253
 20
101.224479027398
 40
1.75
  0
CIRCLE
  5
2C6
100
AcDbEntity
  8
2-d
100
AcDbCircle
  6
CONTINUOUS
370
13
 10
153.824495323525
 20
129.224479027398
 40
3.25
  0
LINE
  5
2C7
100
AcDbEntity
  8
2-2
100
AcDbLine
  6
CONTINUOUS
370
13
 10
155.102827323525
 20
128.164394027398
 11
155.102827323525
 21
129.359547027398
  0
LINE
  5
2C8
100
AcDbEntity
  8
2-2
100
AcDbLine
  6
CONTINUOUS
370
13
 10
152.552827323525
 20
129.348218027398
 11
152.552827323525
 21
128.164394027398
  0
LINE
  5
2C9
100
AcDbEntity
  8
2-2
100
AcDbLine
  6
CONTINUOUS
370
13
 10
153.827827323525
 20
133.811916027398
 11
157.827827323525
 21
131.502515027398
  0
LINE
  5
2CA
100
AcDbEntity
  8
2-2
100
AcDbLine
  6
CONTINUOUS
370
13
 10
157.827827323525
 20
131.502515027398
 11
157.827827323525
 21
129.193114027398
  0
LINE
  5
2CB
100
AcDbEntity
  8
2-2
100
AcDbLine
  6
CONTINUOUS
370
13
 10
157.827827323525
 20
126.883713027398
 11
153.827827323525
 21
124.574311027398
  0
LINE
  5
2CC
100
AcDbEntity
  8
2-2
100
AcDbLine
  6
CONTINUOUS
370
13
 10
157.827827323525
 20
129.193114027398
 11
157.827827323525
 21
126.883713027398
  0
LINE
  5
2CD
100
AcDbEntity
  8
2-2
100
AcDbLine
  6
CONTINUOUS
370
13
 10
149.827827323525
 20
131.502515027398
 11
153.827827323525
 21
133.811916027398
  0
LINE
  5
2CE
100
AcDbEntity
  8
2-2
100
AcDbLine
  6
CONTINUOUS
370
13
 10
149.827827323525
 20
129.193114027398
 11
149.827827323525
 21
131.502515027398
  0
LINE
  5
2CF
100
AcDbEntity
  8
2-2
100
AcDbLine
  6
CONTINUOUS
370
13
 10
153.827827323525
 20
124.574311027398
 11
149.827827323525
 21
126.883713027398
  0
LINE
  5
2D0
100
AcDbEntity
  8
2-2
100
AcDbLine
  6
CONTINUOUS
370
13
 10
149.827827323525
 20
126.883713027398
 11
149.827827323525
 21
129.193114027398
  0
LINE
  5
2D1
100
AcDbEntity
  8
2-2
100
AcDbLine
  6
CONTINUOUS
370
13
 10
154.227827323525
 20
126.219900027398
 11
154.227827323525
 21
126.693114027398
  0
LINE
  5
2D2
100
AcDbEntity
  8
2-2
100
AcDbLine
  6
CONTINUOUS
370
13
 10
153.427827323525
 20
126.693114027398
 11
153.427827323525
 21
126.219900027398
  0
LINE
  5
2D3
100
AcDbEntity
  8
2-2
100
AcDbLine
  6
CONTINUOUS
370
13
 10
153.427827323525
 20
126.693114027398
 11
154.227827323525
 21
126.693114027398
  0
LINE
  5
2D4
100
AcDbEntity
  8
2-2
100
AcDbLine
  6
CONTINUOUS
370
13
 10
152.118822323525
 20
132.725637027398
 11
155.536831323525
 21
132.725637027398
  0
LINE
  5
2D5
100
AcDbEntity
  8
2-2
100
AcDbLine
  6
CONTINUOUS
370
13
 10
152.118822323525
 20
130.284897027398
 11
155.536831323525
 21
130.284897027398
  0
LINE
  5
2D6
100
AcDbEntity
  8
2-2
100
AcDbLine
  6
CONTINUOUS
370
13
 10
154.862572323525
 20
129.094479027398
 11
154.805531323525
 21
129.094479027398
  0
LINE
  5
2D7
100
AcDbEntity
  8
2-2
100
AcDbLine
  6
CONTINUOUS
370
13
 10
152.850122323525
 20
129.094479027398
 11
154.805531323525
 21
129.094479027398
  0
LINE
  5
2D8
100
AcDbEntity
  8
2-2
100
AcDbLine
  6
CONTINUOUS
370
13
 10
154.862572323525
 20
129.094479027398
 11
155.536831323525
 21
130.284897027398
  0
LINE
  5
2D9
100
AcDbEntity
  8
2-2
100
AcDbLine
  6
CONTINUOUS
370
13
 10
152.118822323525
 20
130.284897027398
 11
152.793082323525
 21
129.094479027398
  0
LINE
  5
2DA
100
AcDbEntity
  8
2-2
100
AcDbLine
  6
CONTINUOUS
370
13
 10
155.733607323525
 20
130.623224027398
 11
155.451619323525
 21
130.013948027398
  0
LINE
  5
2DB
100
AcDbEntity
  8
2-2
100
AcDbLine
  6
CONTINUOUS
370
13
 10
151.922046323525
 20
130.623224027398
 11
152.204061323525
 21
130.013890027398
  0
LINE
  5
2DC
100
AcDbEntity
  8
2-2
100
AcDbLine
  6
CONTINUOUS
370
13
 10
152.850122323525
 20
129.094479027398
 11
152.793082323525
 21
129.094479027398
  0
LINE
  5
2DD
100
AcDbEntity
  8
2-2
100
AcDbLine
  6
CONTINUOUS
370
13
 10
154.805531323525
 20
129.094479027398
 11
152.850122323525
 21
129.094479027398
  0
LINE
  5
2DE
100
AcDbEntity
  8
2-2
100
AcDbLine
  6
CONTINUOUS
370
13
 10
155.371776323525
 20
129.841435027398
 11
155.279850323525
 21
129.642816027398
  0
LINE
  5
2DF
100
AcDbEntity
  8
2-2
100
AcDbLine
  6
CONTINUOUS
370
13
 10
152.283877323525
 20
129.841435027398
 11
152.375803323525
 21
129.642816027398
  0
LINE
  5
2E0
100
AcDbEntity
  8
2-2
100
AcDbLine
  6
CONTINUOUS
370
13
 10
155.451619323525
 20
130.013948027398
 11
155.371776323525
 21
129.841435027398
  0
LINE
  5
2E1
100
AcDbEntity
  8
2-2
100
AcDbLine
  6
CONTINUOUS
370
13
 10
152.204061323525
 20
130.013890027398
 11
152.283877323525
 21
129.841435027398
  0
ARC
  5
2E2
100
AcDbEntity
  8
2-2
100
AcDbCircle
  6
CONTINUOUS
370
13
 10
153.827827323525
 20
129.819187027398
 40
1.217008
100
AcDbArc
 50
216.54711
 51
323.45289
  0
ARC
  5
2E3
100
AcDbEntity
  8
2-2
100
AcDbCircle
  6
CONTINUOUS
370
13
 10
153.821615323525
 20
129.810204027398
 40
1.354468
100
AcDbArc
 50
207.139839
 51
270.261547
  0
ARC
  5
2E4
100
AcDbEntity
  8
2-2
100
AcDbCircle
  6
CONTINUOUS
370
13
 10
153.827827323525
 20
129.605868027398
 40
1.561817
100
AcDbArc
 50
215.278233
 51
320.204702
  0
ARC
  5
2E5
100
AcDbEntity
  8
2-2
100
AcDbCircle
  6
CONTINUOUS
370
13
 10
153.821615323525
 20
129.810204027398
 40
1.354468
100
AcDbArc
 50
207.139839
 51
270.261547
  0
ARC
  5
2E6
100
AcDbEntity
  8
2-2
100
AcDbCircle
  6
CONTINUOUS
370
13
 10
153.834038323525
 20
129.810204027398
 40
1.354468
100
AcDbArc
 50
269.738453
 51
332.860161
  0
ARC
  5
2E7
100
AcDbEntity
  8
2-2
100
AcDbCircle
  6
CONTINUOUS
370
13
 10
153.827827323525
 20
129.605868027398
 40
1.561817
100
AcDbArc
 50
320.204702
 51
324.721767
  0
ARC
  5
2E8
100
AcDbEntity
  8
2-2
100
AcDbCircle
  6
CONTINUOUS
370
13
 10
153.820381323525
 20
129.225443027398
 40
1.661673
100
AcDbArc
 50
220.286752
 51
270.256744
  0
ARC
  5
2E9
100
AcDbEntity
  8
2-2
100
AcDbCircle
  6
CONTINUOUS
370
13
 10
153.824495323525
 20
129.224479027398
 40
1.660696
100
AcDbArc
 50
270.114951
 51
320.332034
  0
ARC
  5
2EA
100
AcDbEntity
  8
2-2
100
AcDbCircle
  6
CONTINUOUS
370
13
 10
154.508926323525
 20
129.489292027398
 40
0.607908
100
AcDbArc
 50
330.759671
 51
347.676573
  0
ARC
  5
2EB
100
AcDbEntity
  8
2-2
100
AcDbCircle
  6
CONTINUOUS
370
13
 10
153.037241323525
 20
129.454563027398
 40
0.49595
100
AcDbArc
 50
192.381847
 51
211.91893
  0
ARC
  5
2EC
100
AcDbEntity
  8
2-2
100
AcDbCircle
  6
CONTINUOUS
370
13
 10
153.827827323525
 20
131.505267027398
 40
2.1
100
AcDbArc
 50
144.47004
 51
180
  0
ARC
  5
2ED
100
AcDbEntity
  8
2-2
100
AcDbCircle
  6
CONTINUOUS
370
13
 10
153.827827323525
 20
129.193114027398
 40
2.1
100
AcDbArc
 50
147.35267
 51
33.402196
  0
ARC
  5
2EE
100
AcDbEntity
  8
2-2
100
AcDbCircle
  6
CONTINUOUS
370
13
 10
153.827827323525
 20
129.193114027398
 40
2.6
100
AcDbArc
 50
278.849883
 51
39.799305
  0
ARC
  5
2EF
100
AcDbEntity
  8
2-2
100
AcDbCircle
  6
CONTINUOUS
370
13
 10
153.827827323525
 20
129.193114027398
 40
3
100
AcDbArc
 50
0
 51
45.743215
  0
ARC
  5
2F0
100
AcDbEntity
  8
2-2
100
AcDbCircle
  6
CONTINUOUS
370
13
 10
153.827827323525
 20
129.193114027398
 40
3
100
AcDbArc
 50
277.662256
 51
0
  0
ARC
  5
2F1
100
AcDbEntity
  8
2-2
100
AcDbCircle
  6
CONTINUOUS
370
13
 10
153.827827323525
 20
129.193114027398
 40
3
100
AcDbArc
 50
134.256785
 51
180
  0
ARC
  5
2F2
100
AcDbEntity
  8
2-2
100
AcDbCircle
  6
CONTINUOUS
370
13
 10
153.827827323525
 20
129.193114027398
 40
3
100
AcDbArc
 50
262.337744
 51
277.662256
  0
ARC
  5
2F3
100
AcDbEntity
  8
2-2
100
AcDbCircle
  6
CONTINUOUS
370
13
 10
153.827827323525
 20
129.193114027398
 40
2.6
100
AcDbArc
 50
140.200695
 51
261.150117
  0
ARC
  5
2F4
100
AcDbEntity
  8
2-2
100
AcDbCircle
  6
CONTINUOUS
370
13
 10
153.827827323525
 20
131.505267027398
 40
2.1
100
AcDbArc
 50
0
 51
35.52996
  0
ARC
  5
2F5
100
AcDbEntity
  8
2-2
100
AcDbCircle
  6
CONTINUOUS
370
13
 10
153.827827323525
 20
131.505267027398
 40
2.1
100
AcDbArc
 50
324.47004
 51
0
  0
ARC
  5
2F6
100
AcDbEntity
  8
2-2
100
AcDbCircle
  6
CONTINUOUS
370
13
 10
153.827827323525
 20
131.505267027398
 40
2.1
100
AcDbArc
 50
180
 51
215.52996
  0
ARC
  5
2F7
100
AcDbEntity
  8
2-2
100
AcDbCircle
  6
CONTINUOUS
370
13
 10
153.827827323525
 20
130.314849027398
 40
1.6
100
AcDbArc
 50
310.294425
 51
337.283471
  0
ARC
  5
2F8
100
AcDbEntity
  8
2-2
100
AcDbCircle
  6
CONTINUOUS
370
13
 10
153.827827323525
 20
130.314849027398
 40
1.6
100
AcDbArc
 50
204.835886
 51
229.705575
  0
ARC
  5
2F9
100
AcDbEntity
  8
2-2
100
AcDbCircle
  6
CONTINUOUS
370
13
 10
153.827827323525
 20
129.193114027398
 40
2.7
100
AcDbArc
 50
261.480376
 51
278.519624
  0
ARC
  5
2FA
100
AcDbEntity
  8
2-2
100
AcDbCircle
  6
CONTINUOUS
370
13
 10
153.827827323525
 20
129.193114027398
 40
3
100
AcDbArc
 50
180
 51
262.337744
  0
CIRCLE
  5
2FB
100
AcDbEntity
  8
2-2
100
AcDbCircle
  6
CONTINUOUS
370
13
 10
153.827827323525
 20
129.193114027398
 40
4
  0
LINE
  5
2FC
100
AcDbEntity
  8
2-e
100
AcDbLine
  6
CONTINUOUS
370
13
 10
169.824495323525
 20
90.8244790273982
 11
169.824495323525
 21
184.824479027398
  0
LINE
  5
2FD
100
AcDbEntity
  8
2-e
100
AcDbLine
  6
CONTINUOUS
370
13
 10
170.824495323525
 20
90.8244790273982
 11
170.824495323525
 21
185.824479027398
  0
LINE
  5
2FE
100
AcDbEntity
  8
2-e
100
AcDbLine
  6
CONTINUOUS
370
13
 10
264.083571968642
 20
242.67004824176
 11
264.083571968642
 21
336.67004824176
  0
LINE
  5
2FF
100
AcDbEntity
  8
2-e
100
AcDbLine
  6
CONTINUOUS
370
13
 10
263.083571968642
 20
242.67004824176
 11
263.083571968642
 21
337.67004824176
  0
LINE
  5
300
100
AcDbEntity
  8
2-e
100
AcDbLine
  6
CONTINUOUS
370
13
 10
170.824495323525
 20
254.769164410532
 11
170.824495323525
 21
388.769164410532
  0
LINE
  5
301
100
AcDbEntity
  8
2-d
100
AcDbLine
  6
CONTINUOUS
370
13
 10
169.624495323525
 20
184.724479027398
 11
38.0244953235253
 21
184.724479027398
  0
LINE
  5
302
100
AcDbEntity
  8
2-d
100
AcDbLine
  6
CONTINUOUS
370
13
 10
395.883571968642
 20
336.57004824176
 11
264.283571968642
 21
336.57004824176
  0
LINE
  5
303
100
AcDbEntity
  8
2-e
100
AcDbLine
  6
CONTINUOUS
370
13
 10
444.264340671151
 20
185.824479027398
 11
310.264340671151
 21
185.824479027398
  0
LINE
  5
304
100
AcDbEntity
  8
2-e
100
AcDbLine
  6
CONTINUOUS
370
13
 10
170.824495323525
 20
185.824479027398
 11
36.8244953235253
 21
185.824479027398
  0
LINE
  5
305
100
AcDbEntity
  8
2-e
100
AcDbLine
  6
CONTINUOUS
370
13
 10
169.824495323525
 20
184.824479027398
 11
37.8244953235253
 21
184.824479027398
  0
LINE
  5
306
100
AcDbEntity
  8
2-e
100
AcDbLine
  6
CONTINUOUS
370
13
 10
397.083571968642
 20
337.67004824176
 11
263.083571968642
 21
337.67004824176
  0
LINE
  5
307
100
AcDbEntity
  8
2-e
100
AcDbLine
  6
CONTINUOUS
370
13
 10
396.083571968642
 20
336.67004824176
 11
264.083571968642
 21
336.67004824176
  0
LINE
  5
308
100
AcDbEntity
  8
2-e
100
AcDbLine
  6
CONTINUOUS
370
13
 10
37.8244953235253
 20
90.8244790273982
 11
36.8244953235253
 21
90.8244790273982
  0
LINE
  5
309
100
AcDbEntity
  8
2-e
100
AcDbLine
  6
CONTINUOUS
370
13
 10
170.824495323525
 20
90.8244790273982
 11
169.824495323525
 21
90.8244790273982
  0
LINE
  5
30A
100
AcDbEntity
  8
2-e
100
AcDbLine
  6
CONTINUOUS
370
13
 10
310.764340671151
 20
90.8244790273981
 11
443.764340671151
 21
90.8244790273981
  0
LINE
  5
30B
100
AcDbEntity
  8
2-e
100
AcDbLine
  6
CONTINUOUS
370
13
 10
397.083571968642
 20
242.67004824176
 11
396.083571968642
 21
242.67004824176
  0
LINE
  5
30C
100
AcDbEntity
  8
2-e
100
AcDbLine
  6
CONTINUOUS
370
13
 10
264.083571968642
 20
242.67004824176
 11
263.083571968642
 21
242.67004824176
  0
LINE
  5
30D
100
AcDbEntity
  8
2-e
100
AcDbLine
  6
CONTINUOUS
370
13
 10
443.764340671151
 20
90.8244790273981
 11
444.264340671151
 21
91.3244790273981
  0
LINE
  5
30E
100
AcDbEntity
  8
2-e
100
AcDbLine
  6
CONTINUOUS
370
13
 10
310.764340671151
 20
90.8244790273981
 11
310.264340671151
 21
91.3244790273981
  0
LINE
  5
30F
100
AcDbEntity
  8
2-e
100
AcDbLine
  6
CONTINUOUS
370
13
 10
36.8244953235253
 20
90.8244790273982
 11
36.8244953235253
 21
185.824479027398
  0
LINE
  5
310
100
AcDbEntity
  8
2-e
100
AcDbLine
  6
CONTINUOUS
370
13
 10
37.8244953235253
 20
90.8244790273982
 11
37.8244953235253
 21
184.824479027398
  0
LINE
  5
311
100
AcDbEntity
  8
2-e
100
AcDbLine
  6
CONTINUOUS
370
13
 10
36.8244953235253
 20
254.769164410532
 11
36.8244953235253
 21
388.769164410532
  0
LINE
  5
312
100
AcDbEntity
  8
2-e
100
AcDbLine
  6
CONTINUOUS
370
13
 10
397.083571968642
 20
242.67004824176
 11
397.083571968642
 21
337.67004824176
  0
LINE
  5
313
100
AcDbEntity
  8
2-e
100
AcDbLine
  6
CONTINUOUS
370
13
 10
396.083571968642
 20
242.67004824176
 11
396.083571968642
 21
336.67004824176
  0
LINE
  5
314
100
AcDbEntity
  8
2-d
100
AcDbLine
  6
CONTINUOUS
370
13
 10
38.0244953235253
 20
91.2244790273982
 11
38.0244953235253
 21
184.724479027398
  0
LINE
  5
315
100
AcDbEntity
  8
2-d
100
AcDbLine
  6
CONTINUOUS
370
13
 10
395.883571968642
 20
243.07004824176
 11
395.883571968642
 21
336.57004824176
  0
CIRCLE
  5
316
100
AcDbEntity
  8
2-d
100
AcDbCircle
  6
CONTINUOUS
370
13
 10
49.8244953235253
 20
101.224479027398
 40
3.25
  0
MTEXT
  5
317
100
AcDbEntity
  8
0-0
100
AcDbMText
 10
158.36991432196
 20
122.919056617831
 40
3
 41
  0.0
  1
{\fMS PGothic|b1;SPEED}
 71
3
  7
Font_1
 11
1
 21
-3.15744147424364E-15
  0
CIRCLE
  5
318
100
AcDbEntity
  8
0-0
100
AcDbCircle
  6
CONTINUOUS
370
13
 10
153.824495323525
 20
105.224479027398
 40
4.6
  0
ARC
  5
319
100
AcDbEntity
  8
0-0
100
AcDbCircle
  6
BYLAYER
370
13
 10
153.824495323525
 20
105.224479027398
 40
9
100
AcDbArc
 50
301.591754176586
 51
328.408245823414
  0
ARC
  5
31A
100
AcDbEntity
  8
0-0
100
AcDbCircle
  6
BYLAYER
370
13
 10
153.824495323525
 20
105.224479027398
 40
10
100
AcDbArc
 50
208.567456262433
 51
211.432543737566
  0
ARC
  5
31B
100
AcDbEntity
  8
0-0
100
AcDbCircle
  6
BYLAYER
370
13
 10
153.824495323525
 20
105.224479027398
 40
8.5
100
AcDbArc
 50
298.314586959778
 51
241.685413040223
  0
LINE
  5
31C
100
AcDbEntity
  8
0-0
100
AcDbLine
  6
BYLAYER
370
13
 10
145.041948038064
 20
100.442548122561
 11
145.908274302401
 21
100.942721824483
  0
LINE
  5
31D
100
AcDbEntity
  8
0-0
100
AcDbLine
  6
BYLAYER
370
13
 10
145.291948038064
 20
100.009535420669
 11
146.158274302401
 21
100.509709122591
  0
LINE
  5
31E
100
AcDbEntity
  8
0-0
100
AcDbLine
  6
BYLAYER
370
13
 10
143.827620811959
 20
105.474479027398
 11
144.827968215802
 21
105.474479027398
  0
LINE
  5
31F
100
AcDbEntity
  8
0-0
100
AcDbLine
  6
BYLAYER
370
13
 10
143.827620811959
 20
104.974479027398
 11
144.827968215802
 21
104.974479027398
  0
LINE
  5
320
100
AcDbEntity
  8
0-0
100
AcDbLine
  6
BYLAYER
370
13
 10
145.291948038064
 20
110.439422634127
 11
146.158274302401
 21
109.939248932206
  0
LINE
  5
321
100
AcDbEntity
  8
0-0
100
AcDbLine
  6
BYLAYER
370
13
 10
145.041948038064
 20
110.006409932235
 11
145.908274302401
 21
109.506236230314
  0
LINE
  5
322
100
AcDbEntity
  8
0-0
100
AcDbLine
  6
BYLAYER
370
13
 10
149.042564418688
 20
114.00702631286
 11
149.54273812061
 21
113.140700048522
  0
LINE
  5
323
100
AcDbEntity
  8
0-0
100
AcDbLine
  6
BYLAYER
370
13
 10
148.609551716796
 20
113.75702631286
 11
149.109725418718
 21
112.890700048522
  0
LINE
  5
324
100
AcDbEntity
  8
0-0
100
AcDbLine
  6
BYLAYER
370
13
 10
149.042564418688
 20
96.4419317419369
 11
149.79284030748
 21
97.7414477010178
  0
LINE
  5
325
100
AcDbEntity
  8
0-0
100
AcDbLine
  6
BYLAYER
370
13
 10
148.609551716796
 20
96.6919317419369
 11
149.109725418718
 21
97.5582580062745
  0
LINE
  5
326
100
AcDbEntity
  8
0-0
100
AcDbLine
  6
BYLAYER
370
13
 10
161.740716344649
 20
109.506236230314
 11
162.607042608987
 21
110.006409932235
  0
LINE
  5
327
100
AcDbEntity
  8
0-0
100
AcDbLine
  6
BYLAYER
370
13
 10
161.490716344649
 20
109.939248932206
 11
162.357042608987
 21
110.439422634127
  0
LINE
  5
328
100
AcDbEntity
  8
0-0
100
AcDbLine
  6
BYLAYER
370
13
 10
158.539265228333
 20
112.890700048522
 11
159.039438930255
 21
113.75702631286
  0
LINE
  5
329
100
AcDbEntity
  8
0-0
100
AcDbLine
  6
BYLAYER
370
13
 10
158.106252526441
 20
113.140700048522
 11
158.606426228362
 21
114.00702631286
  0
LINE
  5
32A
100
AcDbEntity
  8
0-0
100
AcDbLine
  6
BYLAYER
370
13
 10
158.539265228333
 20
97.5582580062745
 11
159.039438930255
 21
96.6919317419369
  0
LINE
  5
32B
100
AcDbEntity
  8
0-0
100
AcDbLine
  6
BYLAYER
370
13
 10
157.856150339571
 20
97.7414477010178
 11
158.606426228362
 21
96.4419317419369
  0
LINE
  5
32C
100
AcDbEntity
  8
0-0
100
AcDbLine
  6
BYLAYER
370
13
 10
161.740716344649
 20
100.942721824483
 11
162.607042608987
 21
100.442548122561
  0
LINE
  5
32D
100
AcDbEntity
  8
0-0
100
AcDbLine
  6
BYLAYER
370
13
 10
161.490716344649
 20
100.509709122591
 11
162.357042608987
 21
100.009535420669
  0
LINE
  5
32E
100
AcDbEntity
  8
0-0
100
AcDbLine
  6
BYLAYER
370
13
 10
162.821022431248
 20
105.474479027398
 11
163.821369835091
 21
105.474479027398
  0
LINE
  5
32F
100
AcDbEntity
  8
0-0
100
AcDbLine
  6
BYLAYER
370
13
 10
162.821022431248
 20
104.974479027398
 11
163.821369835091
 21
104.974479027398
  0
LINE
  5
330
100
AcDbEntity
  8
0-0
100
AcDbLine
  6
BYLAYER
370
13
 10
153.574495323525
 20
115.221353538964
 11
153.574495323525
 21
114.221006135121
  0
LINE
  5
331
100
AcDbEntity
  8
0-0
100
AcDbLine
  6
BYLAYER
370
13
 10
154.074495323525
 20
115.221353538964
 11
154.074495323525
 21
114.221006135121
  0
ARC
  5
332
100
AcDbEntity
  8
0-0
100
AcDbCircle
  6
BYLAYER
370
13
 10
153.824495323525
 20
105.224479027398
 40
10
100
AcDbArc
 50
178.567456262433
 51
181.432543737566
  0
ARC
  5
333
100
AcDbEntity
  8
0-0
100
AcDbCircle
  6
BYLAYER
370
13
 10
153.824495323525
 20
105.224479027398
 40
10
100
AcDbArc
 50
148.567456262434
 51
151.432543737566
  0
ARC
  5
334
100
AcDbEntity
  8
0-0
100
AcDbCircle
  6
BYLAYER
370
13
 10
153.824495323525
 20
105.224479027398
 40
10
100
AcDbArc
 50
118.567456262433
 51
121.432543737566
  0
ARC
  5
335
100
AcDbEntity
  8
0-0
100
AcDbCircle
  6
BYLAYER
370
13
 10
153.824495323525
 20
105.224479027398
 40
10
100
AcDbArc
 50
88.5674562624335
 51
91.4325437375665
  0
ARC
  5
336
100
AcDbEntity
  8
0-0
100
AcDbCircle
  6
BYLAYER
370
13
 10
153.824495323525
 20
105.224479027398
 40
10
100
AcDbArc
 50
58.5674562624332
 51
61.4325437375665
  0
ARC
  5
337
100
AcDbEntity
  8
0-0
100
AcDbCircle
  6
BYLAYER
370
13
 10
153.824495323525
 20
105.224479027398
 40
10
100
AcDbArc
 50
28.5674562624334
 51
31.4325437375664
  0
ARC
  5
338
100
AcDbEntity
  8
0-0
100
AcDbCircle
  6
BYLAYER
370
13
 10
153.824495323525
 20
105.224479027398
 40
10
100
AcDbArc
 50
358.567456262433
 51
1.43254373756651
  0
ARC
  5
339
100
AcDbEntity
  8
0-0
100
AcDbCircle
  6
BYLAYER
370
13
 10
153.824495323525
 20
105.224479027398
 40
10
100
AcDbArc
 50
328.567456262434
 51
331.432543737567
  0
ARC
  5
33A
100
AcDbEntity
  8
0-0
100
AcDbCircle
  6
BYLAYER
370
13
 10
153.824495323525
 20
105.224479027398
 40
10
100
AcDbArc
 50
298.567456262433
 51
301.432543737567
  0
ARC
  5
33B
100
AcDbEntity
  8
0-0
100
AcDbCircle
  6
BYLAYER
370
13
 10
153.824495323525
 20
105.224479027398
 40
10
100
AcDbArc
 50
238.567456262433
 51
241.432543737566
  0
TEXT
  5
33C
100
AcDbEntity
  8
0-0
100
AcDbText
  6
BYLAYER
 10
143.666255890965
 20
97.6642341979208
 40
2.5
 41
0.9
  1
1
  7
Font_0
100
AcDbText
  0
TEXT
  5
33D
100
AcDbEntity
  8
0-0
100
AcDbText
  6
BYLAYER
 10
141.798767209758
 20
104.012961750326
 40
2.5
 41
0.9
  1
2
  7
Font_0
100
AcDbText
  0
TEXT
  5
33E
100
AcDbEntity
  8
0-0
100
AcDbText
  6
BYLAYER
 10
142.946756964227
 20
110.361687272396
 40
2.5
 41
0.9
  1
3
  7
Font_0
100
AcDbText
  0
TEXT
  5
33F
100
AcDbEntity
  8
0-0
100
AcDbText
  6
BYLAYER
 10
147.469328462937
 20
114.55301709594
 40
2.5
 41
0.9
  1
4
  7
Font_0
100
AcDbText
  0
TEXT
  5
340
100
AcDbEntity
  8
0-0
100
AcDbText
  6
BYLAYER
 10
153.12253687201
 20
116.278746324543
 40
2.5
 41
0.9
  1
5
  7
Font_0
100
AcDbText
  0
TEXT
  5
341
100
AcDbEntity
  8
0-0
100
AcDbText
  6
BYLAYER
 10
158.981323219367
 20
114.408814702045
 40
2.5
 41
0.9
  1
6
  7
Font_0
100
AcDbText
  0
TEXT
  5
342
100
AcDbEntity
  8
0-0
100
AcDbText
  6
BYLAYER
 10
163.09274778798
 20
109.97054954947
 40
2.5
 41
0.9
  1
7
  7
Font_0
100
AcDbText
  0
TEXT
  5
343
100
AcDbEntity
  8
0-0
100
AcDbText
  6
BYLAYER
 10
165.148461563365
 20
104.196750149122
 40
2.5
 41
0.9
  1
8
  7
Font_0
100
AcDbText
  0
TEXT
  5
344
100
AcDbEntity
  8
0-0
100
AcDbText
  6
BYLAYER
 10
163.709463709889
 20
98.4229507487735
 40
2.5
 41
0.9
  1
9
  7
Font_0
100
AcDbText
  0
TEXT
  5
345
100
AcDbEntity
  8
0-0
100
AcDbText
  6
BYLAYER
 10
159.084109206352
 20
93.5737538556547
 40
2.5
 41
0.9
  1
10
  7
Font_0
100
AcDbText
  0
TEXT
  5
346
100
AcDbEntity
  8
0-0
100
AcDbText
  6
BYLAYER
 10
147.731978911705
 20
93.7075249139172
 40
2.5
 41
0.9
  1
0
  7
Font_0
100
AcDbText
  0
ARC
  5
347
100
AcDbEntity
  8
0-0
100
AcDbCircle
  6
BYLAYER
370
13
 10
153.824495323525
 20
105.224479027398
 40
7.5
100
AcDbArc
 50
266.077066929199
 51
213.9229330708
  0
CIRCLE
  5
348
100
AcDbEntity
  8
0-0
100
AcDbCircle
  6
BYLAYER
370
13
 10
153.824495323525
 20
105.224479027398
 40
7
  0
CIRCLE
  5
349
100
AcDbEntity
  8
0-0
100
AcDbCircle
  6
CONTINUOUS
370
13
 10
153.824495323525
 20
105.224479027398
 40
6
  0
LINE
  5
34A
100
AcDbEntity
  8
0-0
100
AcDbLine
  6
BYLAYER
370
13
 10
149.649495323526
 20
97.9931669057982
 11
153.311385704167
 21
97.7420517127815
  0
LINE
  5
34B
100
AcDbEntity
  8
0-0
100
AcDbLine
  6
BYLAYER
370
13
 10
149.649495323526
 20
97.9931669057982
 11
147.601077996776
 21
101.0388994048
  0
ARC
  5
34C
100
AcDbEntity
  8
0-0
100
AcDbCircle
  6
BYLAYER
370
13
 10
153.824495323525
 20
105.224479027398
 40
9
100
AcDbArc
 50
211.591754176586
 51
238.408245823414
  0
ARC
  5
34D
100
AcDbEntity
  8
0-0
100
AcDbCircle
  6
BYLAYER
370
13
 10
153.824495323525
 20
105.224479027398
 40
9
100
AcDbArc
 50
181.591754176586
 51
208.408245823414
  0
ARC
  5
34E
100
AcDbEntity
  8
0-0
100
AcDbCircle
  6
BYLAYER
370
13
 10
153.824495323525
 20
105.224479027398
 40
9
100
AcDbArc
 50
151.591754176586
 51
178.408245823414
  0
ARC
  5
34F
100
AcDbEntity
  8
0-0
100
AcDbCircle
  6
BYLAYER
370
13
 10
153.824495323525
 20
105.224479027398
 40
9
100
AcDbArc
 50
121.591754176586
 51
148.408245823414
  0
ARC
  5
350
100
AcDbEntity
  8
0-0
100
AcDbCircle
  6
BYLAYER
370
13
 10
153.824495323525
 20
105.224479027398
 40
9
100
AcDbArc
 50
91.5917541765859
 51
118.408245823414
  0
ARC
  5
351
100
AcDbEntity
  8
0-0
100
AcDbCircle
  6
BYLAYER
370
13
 10
153.824495323525
 20
105.224479027398
 40
9
100
AcDbArc
 50
331.591754176586
 51
358.408245823414
  0
ARC
  5
352
100
AcDbEntity
  8
0-0
100
AcDbCircle
  6
BYLAYER
370
13
 10
153.824495323525
 20
105.224479027398
 40
9
100
AcDbArc
 50
1.5917541765859
 51
28.4082458234141
  0
ARC
  5
353
100
AcDbEntity
  8
0-0
100
AcDbCircle
  6
BYLAYER
370
13
 10
153.824495323525
 20
105.224479027398
 40
9
100
AcDbArc
 50
61.5917541765861
 51
88.4082458234141
  0
ARC
  5
354
100
AcDbEntity
  8
0-0
100
AcDbCircle
  6
BYLAYER
370
13
 10
153.824495323525
 20
105.224479027398
 40
9
100
AcDbArc
 50
31.5917541765859
 51
58.4082458234139
  0
ARC
  5
355
100
AcDbEntity
  8
0-0
100
AcDbCircle
  6
CONTINUOUS
370
13
 10
125.824495323525
 20
105.224479027398
 40
8
100
AcDbArc
 50
88.2092153406719
 51
91.7907846593298
  0
LINE
  5
356
100
AcDbEntity
  8
0-0
100
AcDbLine
  6
CONTINUOUS
370
13
 10
119.990864378736
 20
99.7444014732026
 11
120.701128893876
 21
100.454665988342
  0
LINE
  5
357
100
AcDbEntity
  8
0-0
100
AcDbLine
  6
CONTINUOUS
370
13
 10
120.344417769329
 20
99.3908480826093
 11
121.408478751103
 21
100.454909064383
  0
LINE
  5
358
100
AcDbEntity
  8
0-0
100
AcDbLine
  6
CONTINUOUS
370
13
 10
131.658126268314
 20
99.7444014732026
 11
130.947861753174
 21
100.454665988342
  0
LINE
  5
359
100
AcDbEntity
  8
0-0
100
AcDbLine
  6
CONTINUOUS
370
13
 10
131.304572877721
 20
99.3908480826093
 11
130.240511895947
 21
100.454909064383
  0
LINE
  5
35A
100
AcDbEntity
  8
0-0
100
AcDbLine
  6
CONTINUOUS
370
13
 10
126.074495323525
 20
113.220571823258
 11
126.074495323525
 21
112.220013317215
  0
LINE
  5
35B
100
AcDbEntity
  8
0-0
100
AcDbLine
  6
CONTINUOUS
370
13
 10
125.574495323525
 20
113.220571823258
 11
125.574495323525
 21
112.220013317215
  0
ARC
  5
35C
100
AcDbEntity
  8
0-0
100
AcDbCircle
  6
CONTINUOUS
370
13
 10
125.827258134068
 20
105.221716216855
 40
8
100
AcDbArc
 50
-46.7907846593273
 51
-43.2092153406697
  0
ARC
  5
35D
100
AcDbEntity
  8
0-0
100
AcDbCircle
  6
CONTINUOUS
370
13
 10
125.821732512982
 20
105.221716216855
 40
8
100
AcDbArc
 50
-136.790784659329
 51
-133.209215340671
  0
CIRCLE
  5
35E
100
AcDbEntity
  8
0-0
100
AcDbCircle
  6
CONTINUOUS
370
13
 10
125.824495323525
 20
105.224479027398
 40
5.55
  0
CIRCLE
  5
35F
100
AcDbEntity
  8
0-0
100
AcDbCircle
  6
CONTINUOUS
370
13
 10
125.824495323525
 20
105.224479027398
 40
3.85
  0
ARC
  5
360
100
AcDbEntity
  8
0-0
100
AcDbCircle
  6
CONTINUOUS
370
13
 10
125.824495323525
 20
105.224479027398
 40
6.5
100
AcDbArc
 50
-47.204227503971
 51
-132.795772496029
  0
ARC
  5
361
100
AcDbEntity
  8
0-0
100
AcDbCircle
  6
CONTINUOUS
370
13
 10
125.824495323525
 20
105.224479027398
 40
7
100
AcDbArc
 50
-42.9532869023267
 51
87.9532869023283
  0
ARC
  5
362
100
AcDbEntity
  8
0-0
100
AcDbCircle
  6
CONTINUOUS
370
13
 10
125.824495323525
 20
105.224479027398
 40
7
100
AcDbArc
 50
92.0467130976726
 51
-137.046713097672
  0
MTEXT
  5
363
100
AcDbEntity
  8
0-0
100
AcDbMText
 10
128.719495323525
 20
116.21543275475
 40
3
 41
  0.0
  1
{\fMS PGothic|b1;VAC}
 71
3
  7
Font_1
 11
1
 21
-4.90875810542387E-15
  0
LINE
  5
364
100
AcDbEntity
  8
0-0
100
AcDbLine
  6
CONTINUOUS
370
13
 10
119.767430286296
 20
107.733397513989
 11
118.28503530056
 21
108.347425621875
  0
LINE
  5
365
100
AcDbEntity
  8
0-0
100
AcDbLine
  6
CONTINUOUS
370
13
 10
131.829712284848
 20
107.711921337772
 11
133.483522118884
 21
108.396951800616
  0
LINE
  5
366
100
AcDbEntity
  8
0-0
100
AcDbLine
  6
CONTINUOUS
370
13
 10
129.435701838152
 20
110.629031507365
 11
130.41330147927
 21
112.092112763841
  0
LINE
  5
367
100
AcDbEntity
  8
0-0
100
AcDbLine
  6
CONTINUOUS
370
13
 10
132.199599646146
 20
103.956391934294
 11
134.483302580875
 21
103.502135177155
  0
LINE
  5
368
100
AcDbEntity
  8
0-0
100
AcDbLine
  6
CONTINUOUS
370
13
 10
122.143310845209
 20
110.733760931076
 11
120.762205898097
 21
112.80073055377
  0
LINE
  5
369
100
AcDbEntity
  8
0-0
100
AcDbLine
  6
CONTINUOUS
370
13
 10
119.449391000905
 20
103.956391934289
 11
117.89303958419
 21
103.646814389516
  0
ARC
  5
36A
100
AcDbEntity
  8
0-0
100
AcDbCircle
  6
CONTINUOUS
370
13
 10
125.802536920364
 20
105.191615954688
 40
8
100
AcDbArc
 50
54.4592153406719
 51
58.0407846593298
  0
LINE
  5
36B
100
AcDbEntity
  8
0-0
100
AcDbLine
  6
CONTINUOUS
370
13
 10
130.452795461281
 20
111.701231573342
 11
129.896914938929
 21
110.869297580237
  0
LINE
  5
36C
100
AcDbEntity
  8
0-0
100
AcDbLine
  6
CONTINUOUS
370
13
 10
130.03706065513
 20
111.979016689852
 11
129.481180132778
 21
111.147082696746
  0
ARC
  5
36D
100
AcDbEntity
  8
0-0
100
AcDbCircle
  6
CONTINUOUS
370
13
 10
105.824495323525
 20
105.218953406312
 40
8
100
AcDbArc
 50
-46.7907846593285
 51
-43.2092153406721
  0
LINE
  5
36E
100
AcDbEntity
  8
0-0
100
AcDbLine
  6
CONTINUOUS
370
13
 10
111.655363457771
 20
99.7416386626595
 11
110.945098942631
 21
100.451903177799
  0
LINE
  5
36F
100
AcDbEntity
  8
0-0
100
AcDbLine
  6
CONTINUOUS
370
13
 10
111.301810067178
 20
99.3880852720664
 11
110.237749085404
 21
100.45214625384
  0
ARC
  5
370
100
AcDbEntity
  8
0-0
100
AcDbCircle
  6
CONTINUOUS
370
13
 10
105.818969702439
 20
105.218953406312
 40
8
100
AcDbArc
 50
-136.790784659329
 51
-133.209215340671
  0
LINE
  5
371
100
AcDbEntity
  8
0-0
100
AcDbLine
  6
CONTINUOUS
370
13
 10
99.9881015681934
 20
99.7416386626595
 11
100.698366083333
 21
100.451903177799
  0
LINE
  5
372
100
AcDbEntity
  8
0-0
100
AcDbLine
  6
CONTINUOUS
370
13
 10
100.341654958786
 20
99.3880852720663
 11
101.405262227687
 21
100.451692540966
  0
ARC
  5
373
100
AcDbEntity
  8
0-0
100
AcDbCircle
  6
CONTINUOUS
370
13
 10
105.821732512982
 20
105.221716216855
 40
8
100
AcDbArc
 50
88.2092153406718
 51
91.7907846593285
  0
LINE
  5
374
100
AcDbEntity
  8
0-0
100
AcDbLine
  6
CONTINUOUS
370
13
 10
106.071732512982
 20
113.217809012715
 11
106.071732512982
 21
112.217250506672
  0
LINE
  5
375
100
AcDbEntity
  8
0-0
100
AcDbLine
  6
CONTINUOUS
370
13
 10
105.571732512982
 20
113.217809012715
 11
105.571732512982
 21
112.217250506672
  0
CIRCLE
  5
376
100
AcDbEntity
  8
0-0
100
AcDbCircle
  6
CONTINUOUS
370
13
 10
105.821732512982
 20
105.221716216855
 40
3.85
  0
CIRCLE
  5
377
100
AcDbEntity
  8
0-0
100
AcDbCircle
  6
CONTINUOUS
370
13
 10
105.821732512982
 20
105.221716216855
 40
5.55
  0
ARC
  5
378
100
AcDbEntity
  8
0-0
100
AcDbCircle
  6
CONTINUOUS
370
13
 10
105.821732512982
 20
105.221716216855
 40
6.5
100
AcDbArc
 50
-47.2042275039705
 51
-132.795990011018
  0
ARC
  5
379
100
AcDbEntity
  8
0-0
100
AcDbCircle
  6
CONTINUOUS
370
13
 10
105.821732512982
 20
105.221716216855
 40
7
100
AcDbArc
 50
-42.9532869023275
 51
87.9532869023274
  0
ARC
  5
37A
100
AcDbEntity
  8
0-0
100
AcDbCircle
  6
CONTINUOUS
370
13
 10
105.821732512982
 20
105.221716216855
 40
7
100
AcDbArc
 50
92.0467130976721
 51
-137.046713097672
  0
MTEXT
  5
37B
100
AcDbEntity
  8
0-0
100
AcDbMText
 10
109.141859269325
 20
116.212669944207
 40
3
 41
  0.0
  1
{\fMS PGothic|b1;V.INT}
 71
3
  7
Font_1
 11
1
 21
1.22883433915879E-14
  0
LINE
  5
37C
100
AcDbEntity
  8
0-0
100
AcDbLine
  6
CONTINUOUS
370
13
 10
99.8165155516588
 20
107.709158527228
 11
98.3688614309614
 21
108.308796497646
  0
LINE
  5
37D
100
AcDbEntity
  8
0-0
100
AcDbLine
  6
CONTINUOUS
370
13
 10
111.826949474305
 20
107.709158527229
 11
113.612496361987
 21
108.44875626436
  0
LINE
  5
37E
100
AcDbEntity
  8
0-0
100
AcDbLine
  6
CONTINUOUS
370
13
 10
112.143486657798
 20
103.964241133919
 11
114.017645026952
 21
103.591447855866
  0
LINE
  5
37F
100
AcDbEntity
  8
0-0
100
AcDbLine
  6
CONTINUOUS
370
13
 10
99.4466281903613
 20
103.95362912375
 11
98.2356538205199
 21
103.712751345009
  0
LINE
  5
380
100
AcDbEntity
  8
0-0
100
AcDbLine
  6
CONTINUOUS
370
13
 10
102.210525998355
 20
110.626268696822
 11
101.051080079386
 21
112.36150214065
  0
LINE
  5
381
100
AcDbEntity
  8
0-0
100
AcDbLine
  6
CONTINUOUS
370
13
 10
109.432939027609
 20
110.626268696822
 11
110.387190932135
 21
112.05440759617
  0
TEXT
  5
382
100
AcDbEntity
  8
0-0
100
AcDbText
  6
CONTINUOUS
 10
127.154664225578
 20
145.510377075921
 40
5
  1
9
  7
Font_0
 11
127.154664225578
 21
150.510377075921
100
AcDbText
 73
3
  0
TEXT
  5
383
100
AcDbEntity
  8
0-0
100
AcDbText
  6
CONTINUOUS
 10
122.001432369161
 20
145.510377075921
 40
5
  1
9
  7
Font_0
 11
122.001432369161
 21
150.510377075921
100
AcDbText
 73
3
  0
TEXT
  5
384
100
AcDbEntity
  8
0-0
100
AcDbText
  6
CONTINUOUS
 10
160.576046533176
 20
170.843147049277
 40
2
  1
R.C
  7
Font_1
 72
2
 11
163.560446533176
 21
172.843147049277
100
AcDbText
 73
3
  0
TEXT
  5
385
100
AcDbEntity
  8
0-0
100
AcDbText
  6
CONTINUOUS
 10
159.76684206536
 20
161.609905241241
 40
2
  1
TIME
  7
Font_1
 72
2
 11
164.05564206536
 21
163.609905241241
100
AcDbText
 73
3
  0
TEXT
  5
386
100
AcDbEntity
  8
0-0
100
AcDbText
  6
CONTINUOUS
 10
160.2500153501
 20
166.224479027398
 40
2
  1
OFF
  7
Font_1
 72
2
 11
163.8672153501
 21
168.224479027398
100
AcDbText
 73
3
  0
TEXT
  5
387
100
AcDbEntity
  8
0-0
100
AcDbText
  6
CONTINUOUS
 10
160.336948499195
 20
151.191668528447
 40
2
  1
CW
  7
Font_1
 72
2
 11
163.149348499195
 21
153.191668528447
100
AcDbText
 73
3
  0
TEXT
  5
388
100
AcDbEntity
  8
0-0
100
AcDbText
  6
CONTINUOUS
 10
159.843338908628
 20
143.320900746644
 40
2
  1
CCW
  7
Font_1
 72
2
 11
163.983738908628
 21
145.320900746644
100
AcDbText
 73
3
  0
TEXT
  5
389
100
AcDbEntity
  8
0-0
100
AcDbText
  6
CONTINUOUS
 10
159.827905550287
 20
132.116518868997
 40
2
  1
CONT
  7
Font_1
 72
2
 11
165.030705550287
 21
134.116518868997
100
AcDbText
 73
3
  0
TEXT
  5
38A
100
AcDbEntity
  8
0-0
100
AcDbText
  6
CONTINUOUS
 10
159.816454498855
 20
124.241015090291
 40
2
  1
TEST
  7
Font_1
 72
2
 11
164.511654498855
 21
126.241015090291
100
AcDbText
 73
3
  0
MTEXT
  5
38B
100
AcDbEntity
  8
0-0
100
AcDbMText
 10
158.477958988898
 20
175.328762004994
 40
3
 41
  0.0
  1
{\fMS PGothic|b1;POWER}
 71
3
  7
Font_1
 11
1
 21
1.16304860122984E-14
  0
MTEXT
  5
38C
100
AcDbEntity
  8
0-0
100
AcDbMText
 10
157.903295323525
 20
137.268064809683
 40
3
 41
  0.0
  1
{\fMS PGothic|b1;DRIVE}
 71
3
  7
Font_1
  0
MTEXT
  5
38D
100
AcDbEntity
  8
0-0
100
AcDbMText
 10
52.6179116129508
 20
110.185629526072
 40
2
 41
  0.0
  1
{\fMS PGothic|b1;R.C. J}
 71
3
  7
Font_1
 11
1
 21
-2.793453120617E-14
  0
TEXT
  5
38E
100
AcDbEntity
  8
0-0
100
AcDbText
  6
BYLAYER
 10
148.943795323525
 20
153.297959015357
 40
3
  1
ROTOR
  7
Font_1
100
AcDbText
  0
TEXT
  5
38F
100
AcDbEntity
  8
2-5
100
AcDbText
  6
CONTINUOUS
 10
277.199945735301
 20
269.01018052823
 40
4
  1
DC12V IN
  7
Font_0
 11
277.199945735301
 21
273.01018052823
100
AcDbText
 73
3
  0
LINE
  5
390
100
AcDbEntity
  8
0-0
100
AcDbLine
  6
CONTINUOUS
370
13
 10
435.410291049379
 20
169.974479027398
 11
436.514340671152
 21
169.974479027398
  0
LINE
  5
391
100
AcDbEntity
  8
0-0
100
AcDbLine
  6
CONTINUOUS
370
13
 10
435.410291049379
 20
168.474479027398
 11
436.514340671152
 21
168.474479027398
  0
LINE
  5
392
100
AcDbEntity
  8
0-0
100
AcDbLine
  6
CONTINUOUS
370
13
 10
436.514340671152
 20
167.370429405626
 11
436.514340671152
 21
168.474479027398
  0
LINE
  5
393
100
AcDbEntity
  8
0-0
100
AcDbLine
  6
CONTINUOUS
370
13
 10
438.014340671152
 20
167.370429405626
 11
438.014340671152
 21
168.474479027398
  0
LINE
  5
394
100
AcDbEntity
  8
0-0
100
AcDbLine
  6
CONTINUOUS
370
13
 10
439.118390292925
 20
169.974479027398
 11
439.118390292925
 21
168.474479027398
  0
LINE
  5
395
100
AcDbEntity
  8
0-0
100
AcDbLine
  6
CONTINUOUS
370
13
 10
435.410291049378
 20
169.974479027398
 11
435.410291049377
 21
168.474479027398
  0
LINE
  5
396
100
AcDbEntity
  8
0-0
100
AcDbLine
  6
CONTINUOUS
370
13
 10
436.514340671152
 20
167.370429405624
 11
438.014340671152
 21
167.370429405624
  0
LINE
  5
397
100
AcDbEntity
  8
0-0
100
AcDbLine
  6
CONTINUOUS
370
13
 10
436.514340671152
 20
171.078528649172
 11
438.014340671152
 21
171.078528649172
  0
LINE
  5
398
100
AcDbEntity
  8
0-0
100
AcDbLine
  6
CONTINUOUS
370
13
 10
438.014340671152
 20
168.474479027398
 11
439.118390292925
 21
168.474479027398
  0
LINE
  5
399
100
AcDbEntity
  8
0-0
100
AcDbLine
  6
CONTINUOUS
370
13
 10
436.514340671152
 20
169.974479027398
 11
436.514340671152
 21
171.078528649172
  0
LINE
  5
39A
100
AcDbEntity
  8
0-0
100
AcDbLine
  6
CONTINUOUS
370
13
 10
438.014340671152
 20
169.974479027398
 11
439.118390292925
 21
169.974479027398
  0
LINE
  5
39B
100
AcDbEntity
  8
0-0
100
AcDbLine
  6
CONTINUOUS
370
13
 10
438.014340671152
 20
169.974479027398
 11
438.014340671152
 21
171.078528649172
  0
LINE
  5
39C
100
AcDbEntity
  8
0-0
100
AcDbLine
  6
CONTINUOUS
370
13
 10
420.410291049379
 20
97.974479027398
 11
421.514340671152
 21
97.974479027398
  0
LINE
  5
39D
100
AcDbEntity
  8
0-0
100
AcDbLine
  6
CONTINUOUS
370
13
 10
420.410291049379
 20
96.4744790273979
 11
421.514340671152
 21
96.4744790273979
  0
LINE
  5
39E
100
AcDbEntity
  8
0-0
100
AcDbLine
  6
CONTINUOUS
370
13
 10
421.514340671152
 20
95.3704294056257
 11
421.514340671152
 21
96.4744790273979
  0
LINE
  5
39F
100
AcDbEntity
  8
0-0
100
AcDbLine
  6
CONTINUOUS
370
13
 10
423.014340671152
 20
95.3704294056257
 11
423.014340671152
 21
96.4744790273979
  0
LINE
  5
3A0
100
AcDbEntity
  8
0-0
100
AcDbLine
  6
CONTINUOUS
370
13
 10
424.118390292925
 20
97.974479027398
 11
424.118390292925
 21
96.4744790273979
  0
LINE
  5
3A1
100
AcDbEntity
  8
0-0
100
AcDbLine
  6
CONTINUOUS
370
13
 10
420.410291049378
 20
97.974479027398
 11
420.410291049377
 21
96.4744790273978
  0
LINE
  5
3A2
100
AcDbEntity
  8
0-0
100
AcDbLine
  6
CONTINUOUS
370
13
 10
421.514340671152
 20
95.3704294056241
 11
423.014340671152
 21
95.3704294056241
  0
LINE
  5
3A3
100
AcDbEntity
  8
0-0
100
AcDbLine
  6
CONTINUOUS
370
13
 10
421.514340671152
 20
99.078528649172
 11
423.014340671152
 21
99.078528649172
  0
LINE
  5
3A4
100
AcDbEntity
  8
0-0
100
AcDbLine
  6
CONTINUOUS
370
13
 10
423.014340671152
 20
96.4744790273979
 11
424.118390292925
 21
96.4744790273979
  0
LINE
  5
3A5
100
AcDbEntity
  8
0-0
100
AcDbLine
  6
CONTINUOUS
370
13
 10
421.514340671152
 20
97.974479027398
 11
421.514340671152
 21
99.078528649172
  0
LINE
  5
3A6
100
AcDbEntity
  8
0-0
100
AcDbLine
  6
CONTINUOUS
370
13
 10
423.014340671152
 20
97.974479027398
 11
424.118390292925
 21
97.974479027398
  0
LINE
  5
3A7
100
AcDbEntity
  8
0-0
100
AcDbLine
  6
CONTINUOUS
370
13
 10
423.014340671152
 20
97.974479027398
 11
423.014340671152
 21
99.078528649172
  0
LINE
  5
3A8
100
AcDbEntity
  8
0-0
100
AcDbLine
  6
CONTINUOUS
370
13
 10
330.410291049379
 20
97.974479027398
 11
331.514340671152
 21
97.974479027398
  0
LINE
  5
3A9
100
AcDbEntity
  8
0-0
100
AcDbLine
  6
CONTINUOUS
370
13
 10
330.410291049379
 20
96.4744790273979
 11
331.514340671151
 21
96.4744790273979
  0
LINE
  5
3AA
100
AcDbEntity
  8
0-0
100
AcDbLine
  6
CONTINUOUS
370
13
 10
331.514340671151
 20
95.3704294056257
 11
331.514340671151
 21
96.4744790273979
  0
LINE
  5
3AB
100
AcDbEntity
  8
0-0
100
AcDbLine
  6
CONTINUOUS
370
13
 10
333.014340671151
 20
95.3704294056257
 11
333.014340671151
 21
96.4744790273979
  0
LINE
  5
3AC
100
AcDbEntity
  8
0-0
100
AcDbLine
  6
CONTINUOUS
370
13
 10
334.118390292925
 20
97.974479027398
 11
334.118390292925
 21
96.4744790273979
  0
LINE
  5
3AD
100
AcDbEntity
  8
0-0
100
AcDbLine
  6
CONTINUOUS
370
13
 10
330.410291049377
 20
97.974479027398
 11
330.410291049377
 21
96.4744790273979
  0
LINE
  5
3AE
100
AcDbEntity
  8
0-0
100
AcDbLine
  6
CONTINUOUS
370
13
 10
331.514340671151
 20
95.3704294056242
 11
333.014340671151
 21
95.3704294056242
  0
LINE
  5
3AF
100
AcDbEntity
  8
0-0
100
AcDbLine
  6
CONTINUOUS
370
13
 10
331.514340671151
 20
99.078528649172
 11
333.014340671151
 21
99.078528649172
  0
LINE
  5
3B0
100
AcDbEntity
  8
0-0
100
AcDbLine
  6
CONTINUOUS
370
13
 10
333.014340671151
 20
96.4744790273979
 11
334.118390292925
 21
96.4744790273979
  0
LINE
  5
3B1
100
AcDbEntity
  8
0-0
100
AcDbLine
  6
CONTINUOUS
370
13
 10
331.514340671152
 20
97.974479027398
 11
331.514340671151
 21
99.078528649172
  0
LINE
  5
3B2
100
AcDbEntity
  8
0-0
100
AcDbLine
  6
CONTINUOUS
370
13
 10
333.014340671151
 20
97.974479027398
 11
334.118390292925
 21
97.974479027398
  0
LINE
  5
3B3
100
AcDbEntity
  8
0-0
100
AcDbLine
  6
CONTINUOUS
370
13
 10
333.014340671151
 20
97.974479027398
 11
333.014340671151
 21
99.078528649172
  0
LINE
  5
3B4
100
AcDbEntity
  8
0-0
100
AcDbLine
  6
CONTINUOUS
370
13
 10
315.410291049379
 20
169.974479027398
 11
316.514340671152
 21
169.974479027398
  0
LINE
  5
3B5
100
AcDbEntity
  8
0-0
100
AcDbLine
  6
CONTINUOUS
370
13
 10
315.410291049379
 20
168.474479027398
 11
316.514340671152
 21
168.474479027398
  0
LINE
  5
3B6
100
AcDbEntity
  8
0-0
100
AcDbLine
  6
CONTINUOUS
370
13
 10
316.514340671152
 20
167.370429405626
 11
316.514340671152
 21
168.474479027398
  0
LINE
  5
3B7
100
AcDbEntity
  8
0-0
100
AcDbLine
  6
CONTINUOUS
370
13
 10
318.014340671152
 20
167.370429405626
 11
318.014340671152
 21
168.474479027398
  0
LINE
  5
3B8
100
AcDbEntity
  8
0-0
100
AcDbLine
  6
CONTINUOUS
370
13
 10
319.118390292925
 20
169.974479027398
 11
319.118390292925
 21
168.474479027398
  0
LINE
  5
3B9
100
AcDbEntity
  8
0-0
100
AcDbLine
  6
CONTINUOUS
370
13
 10
315.410291049378
 20
169.974479027398
 11
315.410291049377
 21
168.474479027398
  0
LINE
  5
3BA
100
AcDbEntity
  8
0-0
100
AcDbLine
  6
CONTINUOUS
370
13
 10
316.514340671152
 20
167.370429405624
 11
318.014340671152
 21
167.370429405624
  0
LINE
  5
3BB
100
AcDbEntity
  8
0-0
100
AcDbLine
  6
CONTINUOUS
370
13
 10
316.514340671152
 20
171.078528649172
 11
318.014340671152
 21
171.078528649172
  0
LINE
  5
3BC
100
AcDbEntity
  8
0-0
100
AcDbLine
  6
CONTINUOUS
370
13
 10
318.014340671152
 20
168.474479027398
 11
319.118390292925
 21
168.474479027398
  0
LINE
  5
3BD
100
AcDbEntity
  8
0-0
100
AcDbLine
  6
CONTINUOUS
370
13
 10
316.514340671152
 20
169.974479027398
 11
316.514340671152
 21
171.078528649172
  0
LINE
  5
3BE
100
AcDbEntity
  8
0-0
100
AcDbLine
  6
CONTINUOUS
370
13
 10
318.014340671152
 20
169.974479027398
 11
319.118390292925
 21
169.974479027398
  0
LINE
  5
3BF
100
AcDbEntity
  8
0-0
100
AcDbLine
  6
CONTINUOUS
370
13
 10
318.014340671152
 20
169.974479027398
 11
318.014340671152
 21
171.078528649172
  0
CIRCLE
  5
3C0
100
AcDbEntity
  8
0-0
100
AcDbCircle
  6
CONTINUOUS
370
13
 10
332.264340671151
 20
97.2244790273981
 40
3
  0
CIRCLE
  5
3C1
100
AcDbEntity
  8
0-0
100
AcDbCircle
  6
CONTINUOUS
370
13
 10
317.264340671151
 20
169.224479027398
 40
3
  0
CIRCLE
  5
3C2
100
AcDbEntity
  8
0-0
100
AcDbCircle
  6
CONTINUOUS
370
13
 10
437.264340671151
 20
169.224479027398
 40
3
  0
CIRCLE
  5
3C3
100
AcDbEntity
  8
0-0
100
AcDbCircle
  6
CONTINUOUS
370
13
 10
422.264340671151
 20
97.2244790273981
 40
3
  0
LINE
  5
3C4
100
AcDbEntity
  8
2-5
100
AcDbLine
  6
CONTINUOUS
370
13
 10
447.264340671151
 20
115.224479027398
 11
447.264340671151
 21
99.224479027398
  0
LINE
  5
3C5
100
AcDbEntity
  8
2-5
100
AcDbLine
  6
CONTINUOUS
370
13
 10
444.264340671151
 20
115.224479027398
 11
447.264340671151
 21
115.224479027398
  0
LINE
  5
3C6
100
AcDbEntity
  8
2-5
100
AcDbLine
  6
CONTINUOUS
370
13
 10
447.264340671151
 20
99.224479027398
 11
447.264340671151
 21
115.224479027398
  0
LINE
  5
3C7
100
AcDbEntity
  8
2-5
100
AcDbLine
  6
CONTINUOUS
370
13
 10
444.264340671151
 20
99.224479027398
 11
447.264340671151
 21
99.224479027398
  0
LINE
  5
3C8
100
AcDbEntity
  8
2-5
100
AcDbLine
  6
CONTINUOUS
370
13
 10
444.264340671151
 20
115.224479027398
 11
447.264340671151
 21
115.224479027398
  0
LINE
  5
3C9
100
AcDbEntity
  8
2-5
100
AcDbLine
  6
CONTINUOUS
370
13
 10
444.264340671151
 20
99.824479027398
 11
447.264340671151
 21
99.824479027398
  0
LINE
  5
3CA
100
AcDbEntity
  8
2-5
100
AcDbLine
  6
CONTINUOUS
370
13
 10
444.264340671151
 20
114.624479027398
 11
447.264340671151
 21
114.624479027398
  0
LINE
  5
3CB
100
AcDbEntity
  8
2-3
100
AcDbLine
  6
CONTINUOUS
370
13
 10
309.764096671151
 20
159.256179268014
 11
309.764096671151
 21
175.255996068014
  0
LINE
  5
3CC
100
AcDbEntity
  8
2-3
100
AcDbLine
  6
CONTINUOUS
370
13
 10
309.763852671151
 20
175.255996068014
 11
310.264340671151
 21
175.255996068014
  0
LINE
  5
3CD
100
AcDbEntity
  8
2-3
100
AcDbLine
  6
CONTINUOUS
370
13
 10
310.264340671151
 20
159.256179268014
 11
309.763852671151
 21
159.256179268014
  0
LINE
  5
3CE
100
AcDbEntity
  8
2-3
100
AcDbLine
  6
CONTINUOUS
370
13
 10
309.763852671151
 20
163.355910668014
 11
307.564145671151
 21
163.355910668014
  0
LINE
  5
3CF
100
AcDbEntity
  8
2-3
100
AcDbLine
  6
CONTINUOUS
370
13
 10
307.564389671151
 20
163.356032768014
 11
307.564389671151
 21
161.156325668014
  0
LINE
  5
3D0
100
AcDbEntity
  8
2-3
100
AcDbLine
  6
CONTINUOUS
370
13
 10
307.564145671151
 20
161.155837468014
 11
309.763852671151
 21
161.155837468014
  0
LINE
  5
3D1
100
AcDbEntity
  8
2-3
100
AcDbLine
  6
CONTINUOUS
370
13
 10
309.763852671151
 20
171.155837468014
 11
307.564145671151
 21
171.155837468014
  0
LINE
  5
3D2
100
AcDbEntity
  8
2-3
100
AcDbLine
  6
CONTINUOUS
370
13
 10
307.564389671151
 20
171.155959468014
 11
307.564389671151
 21
173.355971668014
  0
LINE
  5
3D3
100
AcDbEntity
  8
2-3
100
AcDbLine
  6
CONTINUOUS
370
13
 10
307.564145671151
 20
173.355971668014
 11
309.763852671151
 21
173.355971668014
  0
SOLID
  5
3D4
100
AcDbEntity
  8
2-2
 62
250
100
AcDbTrace
 10
309.223707671151
 20
151.224479527398
 30
0.0
 11
308.730898671151
 21
152.104519527398
 31
0.0
 12
308.519918671151
 22
151.946984527398
 32
0.0
 13
308.519918671151
 23
151.946984527398
 33
0.0
  0
SOLID
  5
3D5
100
AcDbEntity
  8
2-2
 62
250
100
AcDbTrace
 10
309.223707671151
 20
145.224479527398
 30
0.0
 11
308.609692671151
 21
144.424279527398
 31
0.0
 12
308.837721671151
 22
144.292627527398
 32
0.0
 13
308.837721671151
 23
144.292627527398
 33
0.0
  0
LINE
  5
3D6
100
AcDbEntity
  8
2-2
100
AcDbLine
  6
CONTINUOUS
370
13
 10
308.083073671151
 20
150.384732527398
 11
307.537589671151
 21
150.505662527398
  0
LINE
  5
3D7
100
AcDbEntity
  8
2-2
100
AcDbLine
  6
CONTINUOUS
370
13
 10
308.083073671151
 20
147.926461527398
 11
307.018134671151
 21
148.162552527398
  0
LINE
  5
3D8
100
AcDbEntity
  8
2-2
100
AcDbLine
  6
CONTINUOUS
370
13
 10
310.117667671151
 20
143.605676527398
 11
310.264340671151
 21
143.605676527398
  0
LINE
  5
3D9
100
AcDbEntity
  8
2-2
100
AcDbLine
  6
CONTINUOUS
370
13
 10
309.764340671151
 20
151.630294527398
 11
309.764340671151
 21
148.224479527398
  0
LINE
  5
3DA
100
AcDbEntity
  8
2-2
100
AcDbLine
  6
CONTINUOUS
370
13
 10
309.764340671151
 20
151.746867527398
 11
309.764340671151
 21
151.630294527398
  0
LINE
  5
3DB
100
AcDbEntity
  8
2-2
100
AcDbLine
  6
CONTINUOUS
370
13
 10
309.764340671151
 20
148.224479527398
 11
309.764340671151
 21
144.760377527398
  0
LINE
  5
3DC
100
AcDbEntity
  8
2-2
100
AcDbLine
  6
CONTINUOUS
370
13
 10
310.117667671151
 20
145.915078527398
 11
310.264340671151
 21
145.915078527398
  0
LINE
  5
3DD
100
AcDbEntity
  8
2-2
100
AcDbLine
  6
CONTINUOUS
370
13
 10
310.117667671151
 20
150.533880527398
 11
310.264340671151
 21
150.533880527398
  0
LINE
  5
3DE
100
AcDbEntity
  8
2-2
100
AcDbLine
  6
CONTINUOUS
370
13
 10
310.264340671151
 20
152.843281527398
 11
310.117667671151
 21
152.843281527398
  0
LINE
  5
3DF
100
AcDbEntity
  8
2-2
100
AcDbLine
  6
CONTINUOUS
370
13
 10
309.764340671151
 20
150.824479527398
 11
308.083073671151
 21
150.824479527398
  0
LINE
  5
3E0
100
AcDbEntity
  8
2-2
100
AcDbLine
  6
CONTINUOUS
370
13
 10
309.764340671151
 20
151.224479527398
 11
308.483073671151
 21
151.224479527398
  0
LINE
  5
3E1
100
AcDbEntity
  8
2-2
100
AcDbLine
  6
CONTINUOUS
370
13
 10
308.083073671151
 20
145.624479527398
 11
309.764340671151
 21
145.624479527398
  0
LINE
  5
3E2
100
AcDbEntity
  8
2-2
100
AcDbLine
  6
CONTINUOUS
370
13
 10
308.483073671151
 20
148.224479527398
 11
308.483073671151
 21
145.224479527398
  0
LINE
  5
3E3
100
AcDbEntity
  8
2-2
100
AcDbLine
  6
CONTINUOUS
370
13
 10
308.483073671151
 20
145.224479527398
 11
308.083073671151
 21
145.624479527398
  0
LINE
  5
3E4
100
AcDbEntity
  8
2-2
100
AcDbLine
  6
CONTINUOUS
370
13
 10
308.483073671151
 20
145.224479527398
 11
309.764340671151
 21
145.224479527398
  0
LINE
  5
3E5
100
AcDbEntity
  8
2-2
100
AcDbLine
  6
CONTINUOUS
370
13
 10
308.083073671151
 20
148.224479527398
 11
308.083073671151
 21
145.624479527398
  0
LINE
  5
3E6
100
AcDbEntity
  8
2-2
100
AcDbLine
  6
CONTINUOUS
370
13
 10
308.483073671151
 20
151.224479527398
 11
308.483073671151
 21
148.224479527398
  0
LINE
  5
3E7
100
AcDbEntity
  8
2-2
100
AcDbLine
  6
CONTINUOUS
370
13
 10
308.083073671151
 20
150.824479527398
 11
308.483073671151
 21
151.224479527398
  0
LINE
  5
3E8
100
AcDbEntity
  8
2-2
100
AcDbLine
  6
CONTINUOUS
370
13
 10
308.083073671151
 20
150.824479527398
 11
308.083073671151
 21
148.224479527398
  0
LINE
  5
3E9
100
AcDbEntity
  8
2-2
100
AcDbLine
  6
CONTINUOUS
370
13
 10
302.178783671151
 20
151.744895527398
 11
301.637684671151
 21
149.304155527398
  0
LINE
  5
3EA
100
AcDbEntity
  8
2-2
100
AcDbLine
  6
CONTINUOUS
370
13
 10
307.548411671151
 20
150.554477527398
 11
307.007312671151
 21
148.113737527398
  0
LINE
  5
3EB
100
AcDbEntity
  8
2-2
100
AcDbLine
  6
CONTINUOUS
370
13
 10
302.178783671151
 20
151.744895527398
 11
307.548411671151
 21
150.554477527398
  0
LINE
  5
3EC
100
AcDbEntity
  8
2-2
100
AcDbLine
  6
CONTINUOUS
370
13
 10
301.637684671151
 20
149.304155527398
 11
307.007312671151
 21
148.113737527398
  0
ARC
  5
3ED
100
AcDbEntity
  8
2-2
100
AcDbCircle
  6
CONTINUOUS
370
13
 10
311.827831671151
 20
144.760377527398
 40
2.063491
100
AcDbArc
 50
180
 51
214.027169
  0
ARC
  5
3EE
100
AcDbEntity
  8
2-2
100
AcDbCircle
  6
CONTINUOUS
370
13
 10
311.827831671151
 20
144.760377527398
 40
2.063491
100
AcDbArc
 50
145.972831
 51
180
  0
ARC
  5
3EF
100
AcDbEntity
  8
2-2
100
AcDbCircle
  6
CONTINUOUS
370
13
 10
311.823023671151
 20
151.688580527398
 40
2.059508
100
AcDbArc
 50
178.378247
 51
181.621753
  0
ARC
  5
3F0
100
AcDbEntity
  8
2-2
100
AcDbCircle
  6
CONTINUOUS
370
13
 10
311.823023671151
 20
151.688580527398
 40
2.059508
100
AcDbArc
 50
145.897987
 51
178.378247
  0
ARC
  5
3F1
100
AcDbEntity
  8
2-2
100
AcDbCircle
  6
CONTINUOUS
370
13
 10
317.488314671151
 20
148.224479527398
 40
7.723973
100
AcDbArc
 50
162.60297
 51
180
  0
ARC
  5
3F2
100
AcDbEntity
  8
2-2
100
AcDbCircle
  6
CONTINUOUS
370
13
 10
317.488314671151
 20
148.224479527398
 40
7.723973
100
AcDbArc
 50
180
 51
197.39703
  0
ARC
  5
3F3
100
AcDbEntity
  8
2-2
100
AcDbCircle
  6
CONTINUOUS
370
13
 10
311.823023671151
 20
151.688580527398
 40
2.059508
100
AcDbArc
 50
181.621753
 51
214.102013
  0
LINE
  5
3F4
100
AcDbEntity
  8
0-0
100
AcDbLine
  6
CONTINUOUS
370
13
 10
293.859130087631
 20
112.544277610674
 11
310.264340671151
 21
112.544277610674
  0
LINE
  5
3F5
100
AcDbEntity
  8
0-0
100
AcDbLine
  6
CONTINUOUS
370
13
 10
293.859130087631
 20
97.5449278740176
 11
310.264189005062
 21
97.5449278740176
  0
LINE
  5
3F6
100
AcDbEntity
  8
0-0
100
AcDbLine
  6
CONTINUOUS
370
13
 10
293.859130087631
 20
112.544277610674
 11
293.859130087631
 21
97.5449278740176
  0
LINE
  5
3F7
100
AcDbEntity
  8
0-0
100
AcDbLine
  6
CONTINUOUS
370
13
 10
293.859130087631
 20
100.858716117809
 11
310.264189005062
 21
100.858716117809
  0
SOLID
  5
3F8
100
AcDbEntity
  8
2-2
 62
250
100
AcDbTrace
 10
309.223707671151
 20
170.224479027394
 30
0.0
 11
308.730898671151
 21
171.104519027394
 31
0.0
 12
308.519918671151
 22
170.946984027394
 32
0.0
 13
308.519918671151
 23
170.946984027394
 33
0.0
  0
SOLID
  5
3F9
100
AcDbEntity
  8
2-2
 62
250
100
AcDbTrace
 10
309.223707671151
 20
164.224479027394
 30
0.0
 11
308.609692671151
 21
163.424279027394
 31
0.0
 12
308.837721671151
 22
163.292627027394
 32
0.0
 13
308.837721671151
 23
163.292627027394
 33
0.0
  0
LINE
  5
3FA
100
AcDbEntity
  8
2-2
100
AcDbLine
  6
CONTINUOUS
370
13
 10
308.083073671151
 20
169.384732027394
 11
307.537589671151
 21
169.505662027394
  0
LINE
  5
3FB
100
AcDbEntity
  8
2-2
100
AcDbLine
  6
CONTINUOUS
370
13
 10
308.083073671151
 20
166.926461027394
 11
307.018134671151
 21
167.162552027394
  0
LINE
  5
3FC
100
AcDbEntity
  8
2-2
100
AcDbLine
  6
CONTINUOUS
370
13
 10
310.117667671151
 20
162.605676027394
 11
310.264340671151
 21
162.605676027394
  0
LINE
  5
3FD
100
AcDbEntity
  8
2-2
100
AcDbLine
  6
CONTINUOUS
370
13
 10
309.764340671151
 20
170.630294027394
 11
309.764340671151
 21
167.224479027394
  0
LINE
  5
3FE
100
AcDbEntity
  8
2-2
100
AcDbLine
  6
CONTINUOUS
370
13
 10
309.764340671151
 20
170.746867027394
 11
309.764340671151
 21
170.630294027394
  0
LINE
  5
3FF
100
AcDbEntity
  8
2-2
100
AcDbLine
  6
CONTINUOUS
370
13
 10
309.764340671151
 20
167.224479027394
 11
309.764340671151
 21
163.760377027394
  0
LINE
  5
400
100
AcDbEntity
  8
2-2
100
AcDbLine
  6
CONTINUOUS
370
13
 10
310.117667671151
 20
164.915078027394
 11
310.264340671151
 21
164.915078027394
  0
LINE
  5
401
100
AcDbEntity
  8
2-2
100
AcDbLine
  6
CONTINUOUS
370
13
 10
310.117667671151
 20
169.533880027394
 11
310.264340671151
 21
169.533880027394
  0
LINE
  5
402
100
AcDbEntity
  8
2-2
100
AcDbLine
  6
CONTINUOUS
370
13
 10
310.264340671151
 20
171.843281027394
 11
310.117667671151
 21
171.843281027394
  0
LINE
  5
403
100
AcDbEntity
  8
2-2
100
AcDbLine
  6
CONTINUOUS
370
13
 10
309.764340671151
 20
169.824479027394
 11
308.083073671151
 21
169.824479027394
  0
LINE
  5
404
100
AcDbEntity
  8
2-2
100
AcDbLine
  6
CONTINUOUS
370
13
 10
309.764340671151
 20
170.224479027394
 11
308.483073671151
 21
170.224479027394
  0
LINE
  5
405
100
AcDbEntity
  8
2-2
100
AcDbLine
  6
CONTINUOUS
370
13
 10
308.083073671151
 20
164.624479027394
 11
309.764340671151
 21
164.624479027394
  0
LINE
  5
406
100
AcDbEntity
  8
2-2
100
AcDbLine
  6
CONTINUOUS
370
13
 10
308.483073671151
 20
167.224479027394
 11
308.483073671151
 21
164.224479027394
  0
LINE
  5
407
100
AcDbEntity
  8
2-2
100
AcDbLine
  6
CONTINUOUS
370
13
 10
308.483073671151
 20
164.224479027394
 11
308.083073671151
 21
164.624479027394
  0
LINE
  5
408
100
AcDbEntity
  8
2-2
100
AcDbLine
  6
CONTINUOUS
370
13
 10
308.483073671151
 20
164.224479027394
 11
309.764340671151
 21
164.224479027394
  0
LINE
  5
409
100
AcDbEntity
  8
2-2
100
AcDbLine
  6
CONTINUOUS
370
13
 10
308.083073671151
 20
167.224479027394
 11
308.083073671151
 21
164.624479027394
  0
LINE
  5
40A
100
AcDbEntity
  8
2-2
100
AcDbLine
  6
CONTINUOUS
370
13
 10
308.483073671151
 20
170.224479027394
 11
308.483073671151
 21
167.224479027394
  0
LINE
  5
40B
100
AcDbEntity
  8
2-2
100
AcDbLine
  6
CONTINUOUS
370
13
 10
308.083073671151
 20
169.824479027394
 11
308.483073671151
 21
170.224479027394
  0
LINE
  5
40C
100
AcDbEntity
  8
2-2
100
AcDbLine
  6
CONTINUOUS
370
13
 10
308.083073671151
 20
169.824479027394
 11
308.083073671151
 21
167.224479027394
  0
LINE
  5
40D
100
AcDbEntity
  8
2-2
100
AcDbLine
  6
CONTINUOUS
370
13
 10
302.178783671151
 20
170.744895027394
 11
301.637684671151
 21
168.304155027394
  0
LINE
  5
40E
100
AcDbEntity
  8
2-2
100
AcDbLine
  6
CONTINUOUS
370
13
 10
307.548411671151
 20
169.554477027394
 11
307.007312671151
 21
167.113737027394
  0
LINE
  5
40F
100
AcDbEntity
  8
2-2
100
AcDbLine
  6
CONTINUOUS
370
13
 10
302.178783671151
 20
170.744895027394
 11
307.548411671151
 21
169.554477027394
  0
LINE
  5
410
100
AcDbEntity
  8
2-2
100
AcDbLine
  6
CONTINUOUS
370
13
 10
301.637684671151
 20
168.304155027394
 11
307.007312671151
 21
167.113737027394
  0
ARC
  5
411
100
AcDbEntity
  8
2-2
100
AcDbCircle
  6
CONTINUOUS
370
13
 10
311.827831671151
 20
163.760377027394
 40
2.063491
100
AcDbArc
 50
180
 51
214.027169
  0
ARC
  5
412
100
AcDbEntity
  8
2-2
100
AcDbCircle
  6
CONTINUOUS
370
13
 10
311.827831671151
 20
163.760377027394
 40
2.063491
100
AcDbArc
 50
145.972831
 51
180
  0
ARC
  5
413
100
AcDbEntity
  8
2-2
100
AcDbCircle
  6
CONTINUOUS
370
13
 10
311.823023671151
 20
170.688580027394
 40
2.059508
100
AcDbArc
 50
178.378247
 51
181.621753
  0
ARC
  5
414
100
AcDbEntity
  8
2-2
100
AcDbCircle
  6
CONTINUOUS
370
13
 10
311.823023671151
 20
170.688580027394
 40
2.059508
100
AcDbArc
 50
145.897987
 51
178.378247
  0
ARC
  5
415
100
AcDbEntity
  8
2-2
100
AcDbCircle
  6
CONTINUOUS
370
13
 10
317.488314671151
 20
167.224479027394
 40
7.723973
100
AcDbArc
 50
162.60297
 51
180
  0
ARC
  5
416
100
AcDbEntity
  8
2-2
100
AcDbCircle
  6
CONTINUOUS
370
13
 10
317.488314671151
 20
167.224479027394
 40
7.723973
100
AcDbArc
 50
180
 51
197.39703
  0
ARC
  5
417
100
AcDbEntity
  8
2-2
100
AcDbCircle
  6
CONTINUOUS
370
13
 10
311.823023671151
 20
170.688580027394
 40
2.059508
100
AcDbArc
 50
181.621753
 51
214.102013
  0
SOLID
  5
418
100
AcDbEntity
  8
2-2
 62
250
100
AcDbTrace
 10
309.223707671151
 20
132.224479027394
 30
0.0
 11
308.730898671151
 21
133.104519027394
 31
0.0
 12
308.519918671151
 22
132.946984027394
 32
0.0
 13
308.519918671151
 23
132.946984027394
 33
0.0
  0
SOLID
  5
419
100
AcDbEntity
  8
2-2
 62
250
100
AcDbTrace
 10
309.223707671151
 20
126.224479027394
 30
0.0
 11
308.609692671151
 21
125.424279027394
 31
0.0
 12
308.837721671151
 22
125.292627027394
 32
0.0
 13
308.837721671151
 23
125.292627027394
 33
0.0
  0
LINE
  5
41A
100
AcDbEntity
  8
2-2
100
AcDbLine
  6
CONTINUOUS
370
13
 10
308.083073671151
 20
131.384732027394
 11
307.537589671151
 21
131.505662027394
  0
LINE
  5
41B
100
AcDbEntity
  8
2-2
100
AcDbLine
  6
CONTINUOUS
370
13
 10
308.083073671151
 20
128.926461027394
 11
307.018134671151
 21
129.162552027394
  0
LINE
  5
41C
100
AcDbEntity
  8
2-2
100
AcDbLine
  6
CONTINUOUS
370
13
 10
310.117667671151
 20
124.605676027394
 11
310.264340671151
 21
124.605676027394
  0
LINE
  5
41D
100
AcDbEntity
  8
2-2
100
AcDbLine
  6
CONTINUOUS
370
13
 10
309.764340671151
 20
132.630294027394
 11
309.764340671151
 21
129.224479027394
  0
LINE
  5
41E
100
AcDbEntity
  8
2-2
100
AcDbLine
  6
CONTINUOUS
370
13
 10
309.764340671151
 20
132.746867027394
 11
309.764340671151
 21
132.630294027394
  0
LINE
  5
41F
100
AcDbEntity
  8
2-2
100
AcDbLine
  6
CONTINUOUS
370
13
 10
309.764340671151
 20
129.224479027394
 11
309.764340671151
 21
125.760377027394
  0
LINE
  5
420
100
AcDbEntity
  8
2-2
100
AcDbLine
  6
CONTINUOUS
370
13
 10
310.117667671151
 20
126.915078027394
 11
310.264340671151
 21
126.915078027394
  0
LINE
  5
421
100
AcDbEntity
  8
2-2
100
AcDbLine
  6
CONTINUOUS
370
13
 10
310.117667671151
 20
131.533880027394
 11
310.264340671151
 21
131.533880027394
  0
LINE
  5
422
100
AcDbEntity
  8
2-2
100
AcDbLine
  6
CONTINUOUS
370
13
 10
310.264340671151
 20
133.843281027394
 11
310.117667671151
 21
133.843281027394
  0
LINE
  5
423
100
AcDbEntity
  8
2-2
100
AcDbLine
  6
CONTINUOUS
370
13
 10
309.764340671151
 20
131.824479027394
 11
308.083073671151
 21
131.824479027394
  0
LINE
  5
424
100
AcDbEntity
  8
2-2
100
AcDbLine
  6
CONTINUOUS
370
13
 10
309.764340671151
 20
132.224479027394
 11
308.483073671151
 21
132.224479027394
  0
LINE
  5
425
100
AcDbEntity
  8
2-2
100
AcDbLine
  6
CONTINUOUS
370
13
 10
308.083073671151
 20
126.624479027394
 11
309.764340671151
 21
126.624479027394
  0
LINE
  5
426
100
AcDbEntity
  8
2-2
100
AcDbLine
  6
CONTINUOUS
370
13
 10
308.483073671151
 20
129.224479027394
 11
308.483073671151
 21
126.224479027394
  0
LINE
  5
427
100
AcDbEntity
  8
2-2
100
AcDbLine
  6
CONTINUOUS
370
13
 10
308.483073671151
 20
126.224479027394
 11
308.083073671151
 21
126.624479027394
  0
LINE
  5
428
100
AcDbEntity
  8
2-2
100
AcDbLine
  6
CONTINUOUS
370
13
 10
308.483073671151
 20
126.224479027394
 11
309.764340671151
 21
126.224479027394
  0
LINE
  5
429
100
AcDbEntity
  8
2-2
100
AcDbLine
  6
CONTINUOUS
370
13
 10
308.083073671151
 20
129.224479027394
 11
308.083073671151
 21
126.624479027394
  0
LINE
  5
42A
100
AcDbEntity
  8
2-2
100
AcDbLine
  6
CONTINUOUS
370
13
 10
308.483073671151
 20
132.224479027394
 11
308.483073671151
 21
129.224479027394
  0
LINE
  5
42B
100
AcDbEntity
  8
2-2
100
AcDbLine
  6
CONTINUOUS
370
13
 10
308.083073671151
 20
131.824479027394
 11
308.483073671151
 21
132.224479027394
  0
LINE
  5
42C
100
AcDbEntity
  8
2-2
100
AcDbLine
  6
CONTINUOUS
370
13
 10
308.083073671151
 20
131.824479027394
 11
308.083073671151
 21
129.224479027394
  0
LINE
  5
42D
100
AcDbEntity
  8
2-2
100
AcDbLine
  6
CONTINUOUS
370
13
 10
302.178783671151
 20
132.744895027394
 11
301.637684671151
 21
130.304155027394
  0
LINE
  5
42E
100
AcDbEntity
  8
2-2
100
AcDbLine
  6
CONTINUOUS
370
13
 10
307.548411671151
 20
131.554477027394
 11
307.007312671151
 21
129.113737027394
  0
LINE
  5
42F
100
AcDbEntity
  8
2-2
100
AcDbLine
  6
CONTINUOUS
370
13
 10
302.178783671151
 20
132.744895027394
 11
307.548411671151
 21
131.554477027394
  0
LINE
  5
430
100
AcDbEntity
  8
2-2
100
AcDbLine
  6
CONTINUOUS
370
13
 10
301.637684671151
 20
130.304155027394
 11
307.007312671151
 21
129.113737027394
  0
ARC
  5
431
100
AcDbEntity
  8
2-2
100
AcDbCircle
  6
CONTINUOUS
370
13
 10
311.827831671151
 20
125.760377027394
 40
2.063491
100
AcDbArc
 50
180
 51
214.027169
  0
ARC
  5
432
100
AcDbEntity
  8
2-2
100
AcDbCircle
  6
CONTINUOUS
370
13
 10
311.827831671151
 20
125.760377027394
 40
2.063491
100
AcDbArc
 50
145.972831
 51
180
  0
ARC
  5
433
100
AcDbEntity
  8
2-2
100
AcDbCircle
  6
CONTINUOUS
370
13
 10
311.823023671151
 20
132.688580027394
 40
2.059508
100
AcDbArc
 50
178.378247
 51
181.621753
  0
ARC
  5
434
100
AcDbEntity
  8
2-2
100
AcDbCircle
  6
CONTINUOUS
370
13
 10
311.823023671151
 20
132.688580027394
 40
2.059508
100
AcDbArc
 50
145.897987
 51
178.378247
  0
ARC
  5
435
100
AcDbEntity
  8
2-2
100
AcDbCircle
  6
CONTINUOUS
370
13
 10
317.488314671151
 20
129.224479027394
 40
7.723973
100
AcDbArc
 50
162.60297
 51
180
  0
ARC
  5
436
100
AcDbEntity
  8
2-2
100
AcDbCircle
  6
CONTINUOUS
370
13
 10
317.488314671151
 20
129.224479027394
 40
7.723973
100
AcDbArc
 50
180
 51
197.39703
  0
ARC
  5
437
100
AcDbEntity
  8
2-2
100
AcDbCircle
  6
CONTINUOUS
370
13
 10
311.823023671151
 20
132.688580027394
 40
2.059508
100
AcDbArc
 50
181.621753
 51
214.102013
  0
LINE
  5
438
100
AcDbEntity
  8
0-0
100
AcDbLine
  6
CONTINUOUS
370
13
 10
310.264340671151
 20
175.255996068014
 11
310.264340671151
 21
157.459278225665
  0
LINE
  5
439
100
AcDbEntity
  8
0-0
100
AcDbLine
  6
CONTINUOUS
370
13
 10
310.264340671151
 20
152.843281527398
 11
310.264340671151
 21
143.605676527398
  0
LINE
  5
43A
100
AcDbEntity
  8
0-0
100
AcDbLine
  6
CONTINUOUS
370
13
 10
310.264340671151
 20
133.843281027394
 11
310.264340671151
 21
124.605676027394
  0
LINE
  5
43B
100
AcDbEntity
  8
0-0
100
AcDbLine
  6
CONTINUOUS
370
13
 10
310.264340671151
 20
91.0744790273981
 11
310.264340671151
 21
60.0349635791459
  0
LINE
  5
43C
100
AcDbEntity
  8
0-0
100
AcDbLine
  6
CONTINUOUS
370
13
 10
310.264340671151
 20
60.5349635791459
 11
274.614822296645
 21
60.5349635791459
  0
LINE
  5
43D
100
AcDbEntity
  8
0-0
100
AcDbLine
  6
CONTINUOUS
370
13
 10
310.264340671151
 20
60.5349635791459
 11
307.366563192284
 21
59.7585064438383
  0
LINE
  5
43E
100
AcDbEntity
  8
0-0
100
AcDbLine
  6
CONTINUOUS
370
13
 10
310.264340671151
 20
60.5349635791459
 11
307.366563192284
 21
61.3114207144534
  0
LINE
  5
43F
100
AcDbEntity
  8
0-0
100
AcDbLine
  6
CONTINUOUS
370
13
 10
274.614822296645
 20
60.5349635791459
 11
277.512599775512
 21
61.3114207144534
  0
LINE
  5
440
100
AcDbEntity
  8
0-0
100
AcDbLine
  6
CONTINUOUS
370
13
 10
274.614822296645
 20
60.5349635791459
 11
277.512599775512
 21
59.7585064438383
  0
TEXT
  5
441
100
AcDbEntity
  8
0-0
100
AcDbText
  6
CONTINUOUS
 10
284.439581483898
 20
60.7849635791459
 40
8
  1
35.6
  7
Font_0
 72
1
 11
292.439581483898
 21
60.7849635791459
100
AcDbText
  0
LINE
  5
442
100
AcDbEntity
  8
0-0
100
AcDbLine
  6
CONTINUOUS
370
13
 10
274.614822296645
 20
133.474479027398
 11
274.614822296645
 21
60.0349635791459
  0
LINE
  5
443
100
AcDbEntity
  8
0-0
100
AcDbLine
  6
CONTINUOUS
370
13
 10
443.764340671151
 20
90.5744790273981
 11
443.764340671151
 21
60.0349635791459
  0
LINE
  5
444
100
AcDbEntity
  8
0-0
100
AcDbLine
  6
CONTINUOUS
370
13
 10
443.764340671151
 20
60.5349635791459
 11
310.264340671151
 21
60.5349635791459
  0
LINE
  5
445
100
AcDbEntity
  8
0-0
100
AcDbLine
  6
CONTINUOUS
370
13
 10
443.764340671151
 20
60.5349635791459
 11
440.866563192284
 21
59.7585064438383
  0
LINE
  5
446
100
AcDbEntity
  8
0-0
100
AcDbLine
  6
CONTINUOUS
370
13
 10
443.764340671151
 20
60.5349635791459
 11
440.866563192284
 21
61.3114207144534
  0
LINE
  5
447
100
AcDbEntity
  8
0-0
100
AcDbLine
  6
CONTINUOUS
370
13
 10
310.264340671151
 20
60.5349635791459
 11
313.162118150019
 21
61.3114207144534
  0
LINE
  5
448
100
AcDbEntity
  8
0-0
100
AcDbLine
  6
CONTINUOUS
370
13
 10
310.264340671151
 20
60.5349635791459
 11
313.162118150019
 21
59.7585064438383
  0
TEXT
  5
449
100
AcDbEntity
  8
0-0
100
AcDbText
  6
CONTINUOUS
 10
367.014340671151
 20
60.7849635791459
 40
8
  1
133.5
  7
Font_0
 72
1
 11
377.014340671151
 21
60.7849635791459
100
AcDbText
  0
LINE
  5
44A
100
AcDbEntity
  8
0-0
100
AcDbLine
  6
CONTINUOUS
370
13
 10
310.264340671151
 20
75.304721303272
 11
310.264340671151
 21
60.0349635791459
  0
LINE
  5
44B
100
AcDbEntity
  8
0-0
100
AcDbLine
  6
CONTINUOUS
370
13
 10
170.824495323525
 20
90.5744790273982
 11
170.824495323525
 21
60.0349635791459
  0
LINE
  5
44C
100
AcDbEntity
  8
0-0
100
AcDbLine
  6
CONTINUOUS
370
13
 10
170.824495323525
 20
60.5349635791459
 11
36.8244953235253
 21
60.5349635791459
  0
LINE
  5
44D
100
AcDbEntity
  8
0-0
100
AcDbLine
  6
CONTINUOUS
370
13
 10
170.824495323525
 20
60.5349635791459
 11
167.926717844658
 21
59.7585064438383
  0
LINE
  5
44E
100
AcDbEntity
  8
0-0
100
AcDbLine
  6
CONTINUOUS
370
13
 10
170.824495323525
 20
60.5349635791459
 11
167.926717844658
 21
61.3114207144534
  0
LINE
  5
44F
100
AcDbEntity
  8
0-0
100
AcDbLine
  6
CONTINUOUS
370
13
 10
36.8244953235253
 20
60.5349635791459
 11
39.7222728023925
 21
61.3114207144534
  0
LINE
  5
450
100
AcDbEntity
  8
0-0
100
AcDbLine
  6
CONTINUOUS
370
13
 10
36.8244953235253
 20
60.5349635791459
 11
39.7222728023925
 21
59.7585064438383
  0
TEXT
  5
451
100
AcDbEntity
  8
0-0
100
AcDbText
  6
CONTINUOUS
 10
97.824495323525
 20
60.7849635791459
 40
8
  1
134
  7
Font_0
 72
1
 11
103.824495323525
 21
60.7849635791459
100
AcDbText
  0
LINE
  5
452
100
AcDbEntity
  8
0-0
100
AcDbLine
  6
CONTINUOUS
370
13
 10
36.8244953235253
 20
90.5744790273982
 11
36.8244953235253
 21
60.0349635791459
  0
LINE
  5
453
100
AcDbEntity
  8
0-0
100
AcDbLine
  6
CONTINUOUS
370
13
 10
171.074495323525
 20
185.824479027398
 11
202.513592606135
 21
185.824479027398
  0
LINE
  5
454
100
AcDbEntity
  8
0-0
100
AcDbLine
  6
CONTINUOUS
370
13
 10
202.013592606135
 20
185.824479027398
 11
202.013592606135
 21
85.7244790273982
  0
LINE
  5
455
100
AcDbEntity
  8
0-0
100
AcDbLine
  6
CONTINUOUS
370
13
 10
202.013592606135
 20
185.824479027398
 11
202.790049741443
 21
182.926701548531
  0
LINE
  5
456
100
AcDbEntity
  8
0-0
100
AcDbLine
  6
CONTINUOUS
370
13
 10
202.013592606135
 20
185.824479027398
 11
201.237135470828
 21
182.926701548531
  0
LINE
  5
457
100
AcDbEntity
  8
0-0
100
AcDbLine
  6
CONTINUOUS
370
13
 10
202.013592606135
 20
85.7244790273982
 11
201.237135470828
 21
88.6222565062654
  0
LINE
  5
458
100
AcDbEntity
  8
0-0
100
AcDbLine
  6
CONTINUOUS
370
13
 10
202.013592606135
 20
85.7244790273982
 11
202.790049741443
 21
88.6222565062654
  0
TEXT
  5
459
100
AcDbEntity
  8
0-0
100
AcDbText
  6
CONTINUOUS
 10
201.763592606135
 20
129.774479027398
 40
8
  1
100
  7
Font_0
 50
90
 72
1
 11
201.763592606135
 21
135.774479027398
100
AcDbText
  0
LINE
  5
45A
100
AcDbEntity
  8
0-0
100
AcDbLine
  6
CONTINUOUS
370
13
 10
163.824495323525
 20
85.7244790273982
 11
202.513592606135
 21
85.7244790273982
  0
LINE
  5
45B
100
AcDbEntity
  8
0-0
100
AcDbLine
  6
CONTINUOUS
370
13
 10
166.999515631195
 20
91.2244790273982
 11
189.148423089408
 21
91.2244790273982
  0
LINE
  5
45C
100
AcDbEntity
  8
0-0
100
AcDbLine
  6
CONTINUOUS
370
13
 10
188.648423089408
 20
91.2244790273982
 11
188.648423089408
 21
85.7244790273982
  0
LINE
  5
45D
100
AcDbEntity
  8
0-0
100
AcDbLine
  6
CONTINUOUS
370
13
 10
188.648423089408
 20
91.2244790273982
 11
187.8719659541
 21
94.1222565062654
  0
LINE
  5
45E
100
AcDbEntity
  8
0-0
100
AcDbLine
  6
CONTINUOUS
370
13
 10
188.648423089408
 20
91.2244790273982
 11
189.424880224715
 21
94.1222565062654
  0
LINE
  5
45F
100
AcDbEntity
  8
0-0
100
AcDbLine
  6
CONTINUOUS
370
13
 10
188.648423089408
 20
85.7244790273982
 11
189.424880224715
 21
82.826701548531
  0
LINE
  5
460
100
AcDbEntity
  8
0-0
100
AcDbLine
  6
CONTINUOUS
370
13
 10
188.648423089408
 20
85.7244790273982
 11
187.8719659541
 21
82.826701548531
  0
TEXT
  5
461
100
AcDbEntity
  8
0-0
100
AcDbText
  6
CONTINUOUS
 10
188.398423089408
 20
82.4744790273982
 40
8
  1
5.5
  7
Font_0
 50
90
 72
1
 11
188.398423089408
 21
88.4744790273982
100
AcDbText
  0
LINE
  5
462
100
AcDbEntity
  8
0-0
100
AcDbLine
  6
CONTINUOUS
370
13
 10
167.581671640459
 20
85.7244790273982
 11
189.148423089408
 21
85.7244790273982
  0
LINE
  5
463
100
AcDbEntity
  8
0-0
100
AcDbLine
  6
CONTINUOUS
370
13
 10
178.323969360301
 20
91.2244790273982
 11
187.29404396483
 21
91.2244790273982
  0
LINE
  5
464
100
AcDbEntity
  8
0-0
100
AcDbLine
  6
CONTINUOUS
370
13
 10
186.79404396483
 20
91.2244790273982
 11
186.79404396483
 21
185.824479027398
  0
LINE
  5
465
100
AcDbEntity
  8
0-0
100
AcDbLine
  6
CONTINUOUS
370
13
 10
186.79404396483
 20
91.2244790273982
 11
186.017586829523
 21
94.1222565062654
  0
LINE
  5
466
100
AcDbEntity
  8
0-0
100
AcDbLine
  6
CONTINUOUS
370
13
 10
186.79404396483
 20
91.2244790273982
 11
187.570501100138
 21
94.1222565062654
  0
LINE
  5
467
100
AcDbEntity
  8
0-0
100
AcDbLine
  6
CONTINUOUS
370
13
 10
186.79404396483
 20
185.824479027398
 11
187.570501100138
 21
182.926701548531
  0
LINE
  5
468
100
AcDbEntity
  8
0-0
100
AcDbLine
  6
CONTINUOUS
370
13
 10
186.79404396483
 20
185.824479027398
 11
186.017586829523
 21
182.926701548531
  0
TEXT
  5
469
100
AcDbEntity
  8
0-0
100
AcDbText
  6
CONTINUOUS
 10
186.54404396483
 20
132.524479027398
 40
6
  1
94.6
  7
Font_0
 50
90
 72
1
 11
186.54404396483
 21
138.524479027398
100
AcDbText
  0
LINE
  5
46A
100
AcDbEntity
  8
0-0
100
AcDbLine
  6
CONTINUOUS
370
13
 10
181.814914121867
 20
185.824479027398
 11
187.29404396483
 21
185.824479027398
  0
LINE
  5
46B
100
AcDbEntity
  8
0-0
100
AcDbLine
  6
CONTINUOUS
370
13
 10
61.3207861418775
 20
225.769646036026
 11
79.3207861418778
 21
225.769646036026
  0
LINE
  5
46C
100
AcDbEntity
  8
0-0
100
AcDbLine
  6
CONTINUOUS
370
13
 10
89.3207861418774
 20
225.769646036026
 11
79.3207861418778
 21
225.769646036026
  0
LINE
  5
46D
100
AcDbEntity
  8
0-0
100
AcDbLine
  6
CONTINUOUS
370
13
 10
91.3207861418774
 20
230.769164410532
 11
91.3207861418774
 21
227.769646036026
  0
LINE
  5
46E
100
AcDbEntity
  8
0-0
100
AcDbLine
  6
CONTINUOUS
370
13
 10
59.3207861418775
 20
227.769646036026
 11
61.3207861418775
 21
225.769646036026
  0
LINE
  5
46F
100
AcDbEntity
  8
0-0
100
AcDbLine
  6
CONTINUOUS
370
13
 10
91.3207861418774
 20
227.769646036026
 11
89.3207861418774
 21
225.769646036026
  0
LINE
  5
470
100
AcDbEntity
  8
0-0
100
AcDbLine
  6
CONTINUOUS
370
13
 10
91.3207861418774
 20
245.769164410532
 11
52.3207861418775
 21
245.769164410532
  0
LINE
  5
471
100
AcDbEntity
  8
0-0
100
AcDbLine
  6
CONTINUOUS
370
13
 10
98.3207861418774
 20
245.769164410532
 11
91.3207861418774
 21
245.769164410532
  0
LINE
  5
472
100
AcDbEntity
  8
0-0
100
AcDbLine
  6
CONTINUOUS
370
13
 10
81.7172163056014
 20
235.769164410532
 11
75.3207861418775
 21
235.769164410532
  0
LINE
  5
473
100
AcDbEntity
  8
0-0
100
AcDbLine
  6
CONTINUOUS
370
13
 10
90.8194357242158
 20
219.119646036026
 11
59.8194357242159
 21
219.119646036026
  0
LINE
  5
474
100
AcDbEntity
  8
0-0
100
AcDbLine
  6
CONTINUOUS
370
13
 10
58.3194357242159
 20
220.619646036026
 11
58.3194357242159
 21
223.619646036026
  0
LINE
  5
475
100
AcDbEntity
  8
0-0
100
AcDbLine
  6
CONTINUOUS
370
13
 10
92.3194357242158
 20
223.619646036026
 11
92.3194357242158
 21
220.619646036026
  0
LINE
  5
476
100
AcDbEntity
  8
0-0
100
AcDbLine
  6
CONTINUOUS
370
13
 10
90.8194357242158
 20
225.119646036026
 11
59.8194357242159
 21
225.119646036026
  0
LINE
  5
477
100
AcDbEntity
  8
0-0
100
AcDbLine
  6
CONTINUOUS
370
13
 10
75.3207861418775
 20
235.769164410532
 11
75.3207861418775
 21
245.769164410532
  0
LINE
  5
478
100
AcDbEntity
  8
0-0
100
AcDbLine
  6
CONTINUOUS
370
13
 10
83.3207861418775
 20
245.769164410532
 11
103.320786141877
 21
245.769164410532
  0
LINE
  5
479
100
AcDbEntity
  8
0-0
100
AcDbLine
  6
CONTINUOUS
370
13
 10
83.3207861418775
 20
230.769164410532
 11
103.320786141877
 21
230.769164410532
  0
LINE
  5
47A
100
AcDbEntity
  8
0-0
100
AcDbLine
  6
CONTINUOUS
370
13
 10
91.7172163056014
 20
234.969164410532
 11
91.7172163056014
 21
245.769164410532
  0
LINE
  5
47B
100
AcDbEntity
  8
0-0
100
AcDbLine
  6
CONTINUOUS
370
13
 10
81.7172163056014
 20
234.969164410532
 11
81.7172163056014
 21
245.769164410532
  0
LINE
  5
47C
100
AcDbEntity
  8
0-0
100
AcDbLine
  6
CONTINUOUS
370
13
 10
91.7172163056014
 20
245.769164410532
 11
81.7166995298405
 21
245.769164410532
  0
LINE
  5
47D
100
AcDbEntity
  8
0-0
100
AcDbLine
  6
CONTINUOUS
370
13
 10
299.564148204431
 20
115.123128609737
 11
299.610773460234
 21
115.123128609737
  0
LINE
  5
47E
100
AcDbEntity
  8
0-0
100
AcDbLine
  6
CONTINUOUS
370
13
 10
281.264822296645
 20
163.223128609737
 11
281.264822296645
 21
135.223128609737
  0
LINE
  5
47F
100
AcDbEntity
  8
0-0
100
AcDbLine
  6
CONTINUOUS
370
13
 10
283.264822296645
 20
165.223128609737
 11
281.264822296645
 21
163.223128609737
  0
LINE
  5
480
100
AcDbEntity
  8
0-0
100
AcDbLine
  6
CONTINUOUS
370
13
 10
283.264822296645
 20
133.223128609737
 11
281.264822296645
 21
135.223128609737
  0
LINE
  5
481
100
AcDbEntity
  8
0-0
100
AcDbLine
  6
CONTINUOUS
370
13
 10
301.264340671151
 20
126.223128609737
 11
301.264340671151
 21
133.223128609737
  0
LINE
  5
482
100
AcDbEntity
  8
0-0
100
AcDbLine
  6
CONTINUOUS
370
13
 10
274.614822296645
 20
133.723128609737
 11
274.614822296645
 21
164.723128609737
  0
LINE
  5
483
100
AcDbEntity
  8
0-0
100
AcDbLine
  6
CONTINUOUS
370
13
 10
279.114822296645
 20
166.223128609737
 11
276.114822296645
 21
166.223128609737
  0
LINE
  5
484
100
AcDbEntity
  8
0-0
100
AcDbLine
  6
CONTINUOUS
370
13
 10
279.114822296645
 20
132.223128609737
 11
276.114822296645
 21
132.223128609737
  0
LINE
  5
485
100
AcDbEntity
  8
0-0
100
AcDbLine
  6
CONTINUOUS
370
13
 10
280.614822296645
 20
133.723128609737
 11
280.614822296645
 21
164.723128609737
  0
CIRCLE
  5
486
100
AcDbEntity
  8
0-0
100
AcDbCircle
  6
CONTINUOUS
370
13
 10
277.614822296645
 20
149.221778192076
 40
2
  0
CIRCLE
  5
487
100
AcDbEntity
  8
0-0
100
AcDbCircle
  6
CONTINUOUS
370
13
 10
277.614822296645
 20
149.221778192076
 40
1.65
  0
LINE
  5
488
100
AcDbEntity
  8
0-0
100
AcDbLine
  6
CONTINUOUS
370
13
 10
286.264340671151
 20
179.223128609737
 11
286.264340671151
 21
119.223128609737
  0
LINE
  5
489
100
AcDbEntity
  8
0-0
100
AcDbLine
  6
CONTINUOUS
370
13
 10
292.764340671151
 20
179.223128609737
 11
286.264340671151
 21
179.223128609737
  0
LINE
  5
48A
100
AcDbEntity
  8
0-0
100
AcDbLine
  6
CONTINUOUS
370
13
 10
297.764340671151
 20
179.223128609737
 11
301.264340671151
 21
179.223128609737
  0
LINE
  5
48B
100
AcDbEntity
  8
0-0
100
AcDbLine
  6
CONTINUOUS
370
13
 10
286.264340671151
 20
122.226698446013
 11
301.264340671151
 21
122.226698446013
  0
LINE
  5
48C
100
AcDbEntity
  8
0-0
100
AcDbLine
  6
CONTINUOUS
370
13
 10
301.264340671151
 20
119.223128609737
 11
286.264340671151
 21
119.223128609737
  0
LINE
  5
48D
100
AcDbEntity
  8
0-0
100
AcDbLine
  6
CONTINUOUS
370
13
 10
286.264340671151
 20
165.366722149186
 11
297.687774721558
 21
165.366722149186
  0
LINE
  5
48E
100
AcDbEntity
  8
0-0
100
AcDbLine
  6
CONTINUOUS
370
13
 10
286.264340671151
 20
133.079535070288
 11
301.264340671151
 21
133.079535070288
  0
LINE
  5
48F
100
AcDbEntity
  8
0-0
100
AcDbLine
  6
CONTINUOUS
370
13
 10
95.8207861418775
 20
234.269164410532
 11
95.8207861418775
 21
245.769164410532
  0
LINE
  5
490
100
AcDbEntity
  8
0-0
100
AcDbLine
  6
CONTINUOUS
370
13
 10
83.3207861418775
 20
234.969164410532
 11
83.3207861418775
 21
230.769164410532
  0
LINE
  5
491
100
AcDbEntity
  8
0-0
100
AcDbLine
  6
CONTINUOUS
370
13
 10
91.8207861418775
 20
233.769164410532
 11
91.8207861418775
 21
245.769164410532
  0
LINE
  5
492
100
AcDbEntity
  8
0-0
100
AcDbLine
  6
CONTINUOUS
370
13
 10
91.8207861418775
 20
241.769164410532
 11
95.8207861418775
 21
241.769164410532
  0
LINE
  5
493
100
AcDbEntity
  8
0-0
100
AcDbLine
  6
CONTINUOUS
370
13
 10
91.8207861418775
 20
237.769164410532
 11
95.8207861418775
 21
237.769164410532
  0
LINE
  5
494
100
AcDbEntity
  8
0-0
100
AcDbLine
  6
CONTINUOUS
370
13
 10
97.6716391029634
 20
234.269164410532
 11
95.8207861418775
 21
234.269164410532
  0
LINE
  5
495
100
AcDbEntity
  8
0-0
100
AcDbLine
  6
CONTINUOUS
370
13
 10
101.671639102963
 20
244.269164410532
 11
101.671639102963
 21
245.769164410532
  0
LINE
  5
496
100
AcDbEntity
  8
0-0
100
AcDbLine
  6
CONTINUOUS
370
13
 10
83.3207861418775
 20
233.769164410532
 11
91.8207861418775
 21
233.769164410532
  0
LINE
  5
497
100
AcDbEntity
  8
0-0
100
AcDbLine
  6
CONTINUOUS
370
13
 10
86.3207861418775
 20
230.769164410532
 11
86.3207861418775
 21
233.769164410532
  0
ARC
  5
498
100
AcDbEntity
  8
0-0
100
AcDbCircle
  6
CONTINUOUS
370
13
 10
97.6716391029634
 20
238.269164410532
 40
4
100
AcDbArc
 50
-90
 51
-48.5903778907175
  0
LINE
  5
499
100
AcDbEntity
  8
0-0
100
AcDbLine
  6
CONTINUOUS
370
13
 10
59.8194357242159
 20
225.119646036026
 11
58.3194357242159
 21
223.619646036026
  0
LINE
  5
49A
100
AcDbEntity
  8
0-0
100
AcDbLine
  6
CONTINUOUS
370
13
 10
59.8194357242159
 20
219.119646036026
 11
58.3194357242159
 21
220.619646036026
  0
LINE
  5
49B
100
AcDbEntity
  8
0-0
100
AcDbLine
  6
CONTINUOUS
370
13
 10
90.8194357242158
 20
219.119646036026
 11
92.3194357242158
 21
220.619646036026
  0
LINE
  5
49C
100
AcDbEntity
  8
0-0
100
AcDbLine
  6
CONTINUOUS
370
13
 10
92.3194357242158
 20
223.619646036026
 11
90.8194357242158
 21
225.119646036026
  0
LINE
  5
49D
100
AcDbEntity
  8
0-0
100
AcDbLine
  6
CONTINUOUS
370
13
 10
58.3194357242159
 20
223.619646036026
 11
92.3194357242158
 21
223.619646036026
  0
LINE
  5
49E
100
AcDbEntity
  8
0-0
100
AcDbLine
  6
CONTINUOUS
370
13
 10
58.3194357242159
 20
220.619646036026
 11
92.3194357242158
 21
220.619646036026
  0
LINE
  5
49F
100
AcDbEntity
  8
0-0
100
AcDbLine
  6
CONTINUOUS
370
13
 10
276.114822296645
 20
166.223128609737
 11
274.614822296645
 21
164.723128609737
  0
LINE
  5
4A0
100
AcDbEntity
  8
0-0
100
AcDbLine
  6
CONTINUOUS
370
13
 10
279.114822296645
 20
166.223128609737
 11
280.614822296645
 21
164.723128609737
  0
LINE
  5
4A1
100
AcDbEntity
  8
0-0
100
AcDbLine
  6
CONTINUOUS
370
13
 10
276.114822296645
 20
132.223128609737
 11
274.614822296645
 21
133.723128609737
  0
LINE
  5
4A2
100
AcDbEntity
  8
0-0
100
AcDbLine
  6
CONTINUOUS
370
13
 10
279.114822296645
 20
132.223128609737
 11
280.614822296645
 21
133.723128609737
  0
LINE
  5
4A3
100
AcDbEntity
  8
0-0
100
AcDbLine
  6
CONTINUOUS
370
13
 10
298.728442286289
 20
167.726698446013
 11
301.264340671151
 21
167.726698446013
  0
LINE
  5
4A4
100
AcDbEntity
  8
0-0
100
AcDbLine
  6
CONTINUOUS
370
13
 10
83.7167323315445
 20
234.764378340298
 11
89.7171687481961
 21
234.764378340298
  0
LINE
  5
4A5
100
AcDbEntity
  8
0-0
100
AcDbLine
  6
CONTINUOUS
370
13
 10
83.7167470872457
 20
234.764378340298
 11
89.7171687481961
 21
234.764378340298
  0
LINE
  5
4A6
100
AcDbEntity
  8
0-0
100
AcDbLine
  6
CONTINUOUS
370
13
 10
89.3667323315445
 20
234.064378340298
 11
84.0667323315445
 21
234.064378340298
  0
LINE
  5
4A7
100
AcDbEntity
  8
0-0
100
AcDbLine
  6
CONTINUOUS
370
13
 10
83.7167323315445
 20
234.414378340298
 11
83.7167323315445
 21
234.764378340298
  0
LINE
  5
4A8
100
AcDbEntity
  8
0-0
100
AcDbLine
  6
CONTINUOUS
370
13
 10
89.7167323315444
 20
234.414378340298
 11
89.7167323315444
 21
234.764378340298
  0
ARC
  5
4A9
100
AcDbEntity
  8
0-0
100
AcDbCircle
  6
CONTINUOUS
370
13
 10
84.0667323315445
 20
234.414378340298
 40
0.35
100
AcDbArc
 50
180
 51
-90
  0
ARC
  5
4AA
100
AcDbEntity
  8
0-0
100
AcDbCircle
  6
CONTINUOUS
370
13
 10
89.3667323315445
 20
234.414378340298
 40
0.35
100
AcDbArc
 50
-90
 51
0
  0
LINE
  5
4AB
100
AcDbEntity
  8
0-0
100
AcDbLine
  6
CONTINUOUS
370
13
 10
91.7172163056014
 20
234.969164410532
 11
81.7166995298405
 21
234.969164410532
  0
LINE
  5
4AC
100
AcDbEntity
  8
0-0
100
AcDbLine
  6
CONTINUOUS
370
13
 10
289.764340671151
 20
176.690800061151
 11
289.764340671151
 21
179.223128609737
  0
LINE
  5
4AD
100
AcDbEntity
  8
0-0
100
AcDbLine
  6
CONTINUOUS
370
13
 10
72.3207861418779
 20
225.769646036026
 11
72.3207861418775
 21
225.119646036026
  0
LINE
  5
4AE
100
AcDbEntity
  8
0-0
100
AcDbLine
  6
CONTINUOUS
370
13
 10
78.3207861418779
 20
225.769646036026
 11
78.3207861418779
 21
225.119646036026
  0
ARC
  5
4AF
100
AcDbEntity
  8
0-0
100
AcDbCircle
  6
CONTINUOUS
370
13
 10
86.7207861418775
 20
173.223128609737
 40
5
100
AcDbArc
 50
109.8363073669
 51
-132.843643043597
  0
CIRCLE
  5
4B0
100
AcDbEntity
  8
0-0
100
AcDbCircle
  6
CONTINUOUS
370
13
 10
75.3207861418775
 20
149.223128609737
 40
16
  0
CIRCLE
  5
4B1
100
AcDbEntity
  8
0-0
100
AcDbCircle
  6
CONTINUOUS
370
13
 10
75.3207861418775
 20
149.223128609737
 40
15
  0
LINE
  5
4B2
100
AcDbEntity
  8
0-0
100
AcDbLine
  6
CONTINUOUS
370
13
 10
286.064340671151
 20
128.923128609737
 11
286.064340671151
 21
121.523128609737
  0
LINE
  5
4B3
100
AcDbEntity
  8
0-0
100
AcDbLine
  6
CONTINUOUS
370
13
 10
286.064340671151
 20
121.523128609737
 11
286.264340671151
 21
121.323128609738
  0
LINE
  5
4B4
100
AcDbEntity
  8
0-0
100
AcDbLine
  6
CONTINUOUS
370
13
 10
286.264340671151
 20
129.123128609737
 11
286.064340671151
 21
128.923128609737
  0
CIRCLE
  5
4B5
100
AcDbEntity
  8
0-0
100
AcDbCircle
  6
CONTINUOUS
370
13
 10
89.3207861418774
 20
125.223128609737
 40
4
  0
LINE
  5
4B6
100
AcDbEntity
  8
0-0
100
AcDbLine
  6
CONTINUOUS
370
13
 10
84.5207861418774
 20
234.769164410532
 11
88.9207861418774
 21
234.769164410532
  0
LINE
  5
4B7
100
AcDbEntity
  8
0-0
100
AcDbLine
  6
CONTINUOUS
370
13
 10
88.9207861418774
 20
234.769164410532
 11
89.1207861418774
 21
234.969164410532
  0
LINE
  5
4B8
100
AcDbEntity
  8
0-0
100
AcDbLine
  6
CONTINUOUS
370
13
 10
84.3207861418774
 20
234.969164410532
 11
84.5207861418774
 21
234.769164410532
  0
ARC
  5
4B9
100
AcDbEntity
  8
0-0
100
AcDbCircle
  6
CONTINUOUS
370
13
 10
75.3207861418775
 20
149.223128609737
 40
16
100
AcDbArc
 50
-59.6284372271245
 51
59.6284372271244
  0
LINE
  5
4BA
100
AcDbEntity
  8
0-0
100
AcDbLine
  6
CONTINUOUS
370
13
 10
83.3207861418775
 20
134.385339016944
 11
83.3207861418775
 21
122.223128609737
  0
LINE
  5
4BB
100
AcDbEntity
  8
0-0
100
AcDbLine
  6
CONTINUOUS
370
13
 10
95.3207861418775
 20
119.223128609737
 11
103.320786141877
 21
133.079535070288
  0
LINE
  5
4BC
100
AcDbEntity
  8
0-0
100
AcDbLine
  6
CONTINUOUS
370
13
 10
95.7537988437697
 20
178.473128609737
 11
103.320786141877
 21
165.366722149186
  0
LINE
  5
4BD
100
AcDbEntity
  8
0-0
100
AcDbLine
  6
CONTINUOUS
370
13
 10
94.4547607380931
 20
179.223128609737
 11
86.3207861418775
 21
179.223128609737
  0
LINE
  5
4BE
100
AcDbEntity
  8
0-0
100
AcDbLine
  6
CONTINUOUS
370
13
 10
86.3207861418775
 20
119.223128609737
 11
83.3207861418775
 21
122.223128609737
  0
LINE
  5
4BF
100
AcDbEntity
  8
0-0
100
AcDbLine
  6
CONTINUOUS
370
13
 10
86.3207861418775
 20
179.223128609737
 11
83.3207861418775
 21
176.223128609737
  0
LINE
  5
4C0
100
AcDbEntity
  8
0-0
100
AcDbLine
  6
CONTINUOUS
370
13
 10
86.3207861418775
 20
119.223128609737
 11
95.3207861418775
 21
119.223128609737
  0
LINE
  5
4C1
100
AcDbEntity
  8
0-0
100
AcDbLine
  6
CONTINUOUS
370
13
 10
103.320786141877
 20
165.366722149186
 11
103.320786141877
 21
133.079535070288
  0
LINE
  5
4C2
100
AcDbEntity
  8
0-0
100
AcDbLine
  6
CONTINUOUS
370
13
 10
83.3207861418774
 20
164.06091820253
 11
83.3207861418775
 21
176.223128609737
  0
ARC
  5
4C3
100
AcDbEntity
  8
0-0
100
AcDbCircle
  6
CONTINUOUS
370
13
 10
94.454760738093
 20
177.723128609737
 40
1.5
100
AcDbArc
 50
29.9999999999997
 51
89.9999999999984
  0
ARC
  5
4C4
100
AcDbEntity
  8
0-0
100
AcDbCircle
  6
CONTINUOUS
370
13
 10
89.3207861418774
 20
134.385339016944
 40
6
100
AcDbArc
 50
170.080811044173
 51
180
  0
ARC
  5
4C5
100
AcDbEntity
  8
0-0
100
AcDbCircle
  6
CONTINUOUS
370
13
 10
89.3207861418774
 20
164.06091820253
 40
6
100
AcDbArc
 50
180
 51
-170.080811044174
  0
LINE
  5
4C6
100
AcDbEntity
  8
0-0
100
AcDbLine
  6
CONTINUOUS
370
13
 10
96.3207861418774
 20
177.723128609737
 11
111.818650186878
 21
177.723128609737
  0
LINE
  5
4C7
100
AcDbEntity
  8
0-0
100
AcDbLine
  6
CONTINUOUS
370
13
 10
101.382963968368
 20
168.723128609737
 11
111.818650186878
 21
168.723128609737
  0
ARC
  5
4C8
100
AcDbEntity
  8
0-0
100
AcDbCircle
  6
CONTINUOUS
370
13
 10
96.3207861418774
 20
177.223128609737
 40
0.5
100
AcDbArc
 50
90
 51
104.457731776648
  0
LINE
  5
4C9
100
AcDbEntity
  8
0-0
100
AcDbLine
  6
CONTINUOUS
370
13
 10
95.8207861418774
 20
235.769164410532
 11
95.8207861418774
 21
243.769164410532
  0
LINE
  5
4CA
100
AcDbEntity
  8
0-0
100
AcDbLine
  6
CONTINUOUS
370
13
 10
96.3207861418774
 20
244.269164410532
 11
111.818650186878
 21
244.269164410532
  0
LINE
  5
4CB
100
AcDbEntity
  8
0-0
100
AcDbLine
  6
CONTINUOUS
370
13
 10
96.3207861418774
 20
235.269164410532
 11
111.818650186878
 21
235.269164410532
  0
ARC
  5
4CC
100
AcDbEntity
  8
0-0
100
AcDbCircle
  6
CONTINUOUS
370
13
 10
96.3207861418774
 20
243.769164410532
 40
0.5
100
AcDbArc
 50
90
 51
180
  0
ARC
  5
4CD
100
AcDbEntity
  8
0-0
100
AcDbCircle
  6
CONTINUOUS
370
13
 10
96.3207861418774
 20
235.769164410532
 40
0.5
100
AcDbArc
 50
180
 51
-90
  0
LINE
  5
4CE
100
AcDbEntity
  8
0-0
100
AcDbLine
  6
CONTINUOUS
370
13
 10
111.818650186878
 20
168.532712849914
 11
111.818650186878
 21
177.913544369561
  0
ARC
  5
4CF
100
AcDbEntity
  8
0-0
100
AcDbCircle
  6
CONTINUOUS
370
13
 10
116.318650186878
 20
173.223128609737
 40
6.5
100
AcDbArc
 50
-133.447711492946
 51
133.813061460403
  0
LINE
  5
4D0
100
AcDbEntity
  8
0-0
100
AcDbLine
  6
CONTINUOUS
370
13
 10
111.818650186878
 20
235.078579507624
 11
111.818650186878
 21
244.459411027271
  0
ARC
  5
4D1
100
AcDbEntity
  8
0-0
100
AcDbCircle
  6
CONTINUOUS
370
13
 10
116.318650186878
 20
239.768995267447
 40
6.5
100
AcDbArc
 50
-133.447711492946
 51
133.813061460403
  0
CIRCLE
  5
4D2
100
AcDbEntity
  8
0-0
100
AcDbCircle
  6
CONTINUOUS
370
13
 10
295.264340671151
 20
173.226698446013
 40
6.5
  0
LINE
  5
4D3
100
AcDbEntity
  8
0-0
100
AcDbLine
  6
CONTINUOUS
370
13
 10
53.8207861418775
 20
116.723128609738
 11
48.8207861418775
 21
116.723128609738
  0
ARC
  5
4D4
100
AcDbEntity
  8
0-0
100
AcDbCircle
  6
CONTINUOUS
370
13
 10
75.3207861418775
 20
149.223128609737
 40
23
100
AcDbArc
 50
-116.962388997481
 51
-69.6455936017628
  0
ARC
  5
4D5
100
AcDbEntity
  8
0-0
100
AcDbCircle
  6
CONTINUOUS
370
13
 10
75.3207861418775
 20
149.223128609737
 40
23
100
AcDbArc
 50
72.7130547215597
 51
116.962388997479
  0
CIRCLE
  5
4D6
100
AcDbEntity
  8
0-0
100
AcDbCircle
  6
CONTINUOUS
370
13
 10
75.3207861418775
 20
149.223128609737
 40
16.0013504176615
  0
LINE
  5
4D7
100
AcDbEntity
  8
0-0
100
AcDbLine
  6
CONTINUOUS
370
13
 10
103.320786141877
 20
245.769164410532
 11
103.320786141877
 21
244.269164410532
  0
LINE
  5
4D8
100
AcDbEntity
  8
0-0
100
AcDbLine
  6
CONTINUOUS
370
13
 10
103.320786141877
 20
235.269164410532
 11
103.320786141877
 21
230.769164410532
  0
LINE
  5
4D9
100
AcDbEntity
  8
0-0
100
AcDbLine
  6
CONTINUOUS
370
13
 10
301.264340671151
 20
179.223128609737
 11
301.264340671151
 21
175.726698446014
  0
LINE
  5
4DA
100
AcDbEntity
  8
0-0
100
AcDbLine
  6
CONTINUOUS
370
13
 10
301.264340671151
 20
175.726698446013
 11
301.264340671151
 21
178.227215221774
  0
LINE
  5
4DB
100
AcDbEntity
  8
0-0
100
AcDbLine
  6
CONTINUOUS
370
13
 10
301.264340671151
 20
170.726698446013
 11
301.264340671151
 21
136.592808585925
  0
LINE
  5
4DC
100
AcDbEntity
  8
0-0
100
AcDbLine
  6
CONTINUOUS
370
13
 10
301.264340671151
 20
136.592808585925
 11
301.264340671151
 21
119.223128609737
  0
LINE
  5
4DD
100
AcDbEntity
  8
0-0
100
AcDbLine
  6
CONTINUOUS
370
13
 10
301.264340671151
 20
135.173128609737
 11
301.264340671151
 21
136.592808585925
  0
LINE
  5
4DE
100
AcDbEntity
  8
0-0
100
AcDbLine
  6
CONTINUOUS
370
13
 10
276.114822296645
 20
166.223128609737
 11
276.114822296645
 21
150.544653847608
  0
LINE
  5
4DF
100
AcDbEntity
  8
0-0
100
AcDbLine
  6
CONTINUOUS
370
13
 10
276.114822296645
 20
147.898902536544
 11
276.114822296645
 21
132.223128609737
  0
LINE
  5
4E0
100
AcDbEntity
  8
0-0
100
AcDbLine
  6
CONTINUOUS
370
13
 10
279.114822296645
 20
166.223128609737
 11
279.114822296645
 21
150.544653847608
  0
LINE
  5
4E1
100
AcDbEntity
  8
0-0
100
AcDbLine
  6
CONTINUOUS
370
13
 10
279.114822296645
 20
147.898902536544
 11
279.114822296645
 21
132.223128609737
  0
LINE
  5
4E2
100
AcDbEntity
  8
0-0
100
AcDbLine
  6
CONTINUOUS
370
13
 10
92.3194357242158
 20
223.619646036026
 11
92.3194357242158
 21
220.619646036026
  0
LINE
  5
4E3
100
AcDbEntity
  8
0-0
100
AcDbLine
  6
CONTINUOUS
370
13
 10
58.3194357242159
 20
220.619646036026
 11
58.3194357242159
 21
223.619646036026
  0
LINE
  5
4E4
100
AcDbEntity
  8
0-0
100
AcDbLine
  6
CONTINUOUS
370
13
 10
92.3194357242158
 20
223.619646036026
 11
58.3194357242159
 21
223.619646036026
  0
LINE
  5
4E5
100
AcDbEntity
  8
0-0
100
AcDbLine
  6
CONTINUOUS
370
13
 10
92.3194357242158
 20
220.619646036026
 11
58.3194357242159
 21
220.619646036026
  0
LINE
  5
4E6
100
AcDbEntity
  8
0-0
100
AcDbLine
  6
CONTINUOUS
370
13
 10
58.4291612776917
 20
220.619646036026
 11
58.3194357242159
 21
220.729371589502
  0
LINE
  5
4E7
100
AcDbEntity
  8
0-0
100
AcDbLine
  6
CONTINUOUS
370
13
 10
60.5504816212513
 20
220.619646036026
 11
58.3194357242159
 21
222.850691933062
  0
LINE
  5
4E8
100
AcDbEntity
  8
0-0
100
AcDbLine
  6
CONTINUOUS
370
13
 10
62.671801964811
 20
220.619646036026
 11
59.671801964811
 21
223.619646036026
  0
LINE
  5
4E9
100
AcDbEntity
  8
0-0
100
AcDbLine
  6
CONTINUOUS
370
13
 10
64.7931223083708
 20
220.619646036026
 11
61.7931223083708
 21
223.619646036026
  0
LINE
  5
4EA
100
AcDbEntity
  8
0-0
100
AcDbLine
  6
CONTINUOUS
370
13
 10
66.9144426519304
 20
220.619646036026
 11
63.9144426519303
 21
223.619646036026
  0
LINE
  5
4EB
100
AcDbEntity
  8
0-0
100
AcDbLine
  6
CONTINUOUS
370
13
 10
69.0348913659027
 20
220.620517665614
 11
66.0357629954898
 21
223.619646036026
  0
LINE
  5
4EC
100
AcDbEntity
  8
0-0
100
AcDbLine
  6
CONTINUOUS
370
13
 10
71.1570833390496
 20
220.619646036026
 11
68.1570833390496
 21
223.619646036026
  0
LINE
  5
4ED
100
AcDbEntity
  8
0-0
100
AcDbLine
  6
CONTINUOUS
370
13
 10
73.2784036826094
 20
220.619646036026
 11
70.2784036826092
 21
223.619646036026
  0
LINE
  5
4EE
100
AcDbEntity
  8
0-0
100
AcDbLine
  6
CONTINUOUS
370
13
 10
75.3997240261689
 20
220.619646036026
 11
72.3997240261688
 21
223.619646036026
  0
LINE
  5
4EF
100
AcDbEntity
  8
0-0
100
AcDbLine
  6
CONTINUOUS
370
13
 10
77.5210443697286
 20
220.619646036026
 11
74.5210443697285
 21
223.619646036026
  0
LINE
  5
4F0
100
AcDbEntity
  8
0-0
100
AcDbLine
  6
CONTINUOUS
370
13
 10
79.6423647132883
 20
220.619646036026
 11
76.6423647132881
 21
223.619646036026
  0
LINE
  5
4F1
100
AcDbEntity
  8
0-0
100
AcDbLine
  6
CONTINUOUS
370
13
 10
81.7636850568479
 20
220.619646036026
 11
78.7636850568478
 21
223.619646036026
  0
LINE
  5
4F2
100
AcDbEntity
  8
0-0
100
AcDbLine
  6
CONTINUOUS
370
13
 10
83.8850054004075
 20
220.619646036026
 11
80.8850054004073
 21
223.619646036026
  0
LINE
  5
4F3
100
AcDbEntity
  8
0-0
100
AcDbLine
  6
CONTINUOUS
370
13
 10
86.0063257439671
 20
220.619646036026
 11
83.0063257439671
 21
223.619646036026
  0
LINE
  5
4F4
100
AcDbEntity
  8
0-0
100
AcDbLine
  6
CONTINUOUS
370
13
 10
88.1276460875268
 20
220.619646036026
 11
85.1276460875267
 21
223.619646036026
  0
LINE
  5
4F5
100
AcDbEntity
  8
0-0
100
AcDbLine
  6
CONTINUOUS
370
13
 10
90.2489664310864
 20
220.619646036026
 11
87.2489664310862
 21
223.619646036026
  0
LINE
  5
4F6
100
AcDbEntity
  8
0-0
100
AcDbLine
  6
CONTINUOUS
370
13
 10
92.3194357242158
 20
220.670497086456
 11
89.3702867746459
 21
223.619646036026
  0
LINE
  5
4F7
100
AcDbEntity
  8
0-0
100
AcDbLine
  6
CONTINUOUS
370
13
 10
92.3194357242158
 20
222.791817430016
 11
91.4916071182055
 21
223.619646036026
  0
LINE
  5
4F8
100
AcDbEntity
  8
0-0
100
AcDbLine
  6
CONTINUOUS
370
13
 10
58.3194357242159
 20
222.617235126297
 11
59.3218466339453
 21
223.619646036026
  0
LINE
  5
4F9
100
AcDbEntity
  8
0-0
100
AcDbLine
  6
CONTINUOUS
370
13
 10
58.4431669775049
 20
220.619646036026
 11
61.443166977505
 21
223.619646036026
  0
LINE
  5
4FA
100
AcDbEntity
  8
0-0
100
AcDbLine
  6
CONTINUOUS
370
13
 10
60.5644873210646
 20
220.619646036026
 11
63.5644873210646
 21
223.619646036026
  0
LINE
  5
4FB
100
AcDbEntity
  8
0-0
100
AcDbLine
  6
CONTINUOUS
370
13
 10
62.6858076646242
 20
220.619646036026
 11
65.6858076646243
 21
223.619646036026
  0
LINE
  5
4FC
100
AcDbEntity
  8
0-0
100
AcDbLine
  6
CONTINUOUS
370
13
 10
64.8071280081839
 20
220.619646036026
 11
67.8071280081839
 21
223.619646036026
  0
LINE
  5
4FD
100
AcDbEntity
  8
0-0
100
AcDbLine
  6
CONTINUOUS
370
13
 10
66.9284483517435
 20
220.619646036026
 11
69.9284483517436
 21
223.619646036026
  0
LINE
  5
4FE
100
AcDbEntity
  8
0-0
100
AcDbLine
  6
CONTINUOUS
370
13
 10
69.0497686953032
 20
220.619646036026
 11
72.0497686953034
 21
223.619646036026
  0
LINE
  5
4FF
100
AcDbEntity
  8
0-0
100
AcDbLine
  6
CONTINUOUS
370
13
 10
71.1710890388628
 20
220.619646036026
 11
74.1710890388628
 21
223.619646036026
  0
LINE
  5
500
100
AcDbEntity
  8
0-0
100
AcDbLine
  6
CONTINUOUS
370
13
 10
73.2924093824224
 20
220.619646036026
 11
76.2924093824225
 21
223.619646036026
  0
LINE
  5
501
100
AcDbEntity
  8
0-0
100
AcDbLine
  6
CONTINUOUS
370
13
 10
75.4137297259821
 20
220.619646036026
 11
78.4137297259821
 21
223.619646036026
  0
LINE
  5
502
100
AcDbEntity
  8
0-0
100
AcDbLine
  6
CONTINUOUS
370
13
 10
77.5350500695417
 20
220.619646036026
 11
80.5350500695418
 21
223.619646036026
  0
LINE
  5
503
100
AcDbEntity
  8
0-0
100
AcDbLine
  6
CONTINUOUS
370
13
 10
79.6563704131012
 20
220.619646036026
 11
82.6563704131015
 21
223.619646036026
  0
LINE
  5
504
100
AcDbEntity
  8
0-0
100
AcDbLine
  6
CONTINUOUS
370
13
 10
81.777690756661
 20
220.619646036026
 11
84.7776907566611
 21
223.619646036026
  0
LINE
  5
505
100
AcDbEntity
  8
0-0
100
AcDbLine
  6
CONTINUOUS
370
13
 10
83.8990111002205
 20
220.619646036026
 11
86.8990111002208
 21
223.619646036026
  0
LINE
  5
506
100
AcDbEntity
  8
0-0
100
AcDbLine
  6
CONTINUOUS
370
13
 10
86.0203314437803
 20
220.619646036026
 11
89.0203314437804
 21
223.619646036026
  0
LINE
  5
507
100
AcDbEntity
  8
0-0
100
AcDbLine
  6
CONTINUOUS
370
13
 10
88.1416517873397
 20
220.619646036026
 11
91.14165178734
 21
223.619646036026
  0
LINE
  5
508
100
AcDbEntity
  8
0-0
100
AcDbLine
  6
CONTINUOUS
370
13
 10
90.2629721308996
 20
220.619646036026
 11
92.3194357242158
 21
222.676109629343
  0
LINE
  5
509
100
AcDbEntity
  8
0-0
100
AcDbLine
  6
CONTINUOUS
370
13
 10
276.114822296645
 20
166.223128609737
 11
279.114822296645
 21
166.223128609737
  0
LINE
  5
50A
100
AcDbEntity
  8
0-0
100
AcDbLine
  6
CONTINUOUS
370
13
 10
279.114822296645
 20
132.223128609737
 11
276.114822296645
 21
132.223128609737
  0
LINE
  5
50B
100
AcDbEntity
  8
0-0
100
AcDbLine
  6
CONTINUOUS
370
13
 10
279.114822296645
 20
132.332854163213
 11
279.005096743169
 21
132.223128609737
  0
LINE
  5
50C
100
AcDbEntity
  8
0-0
100
AcDbLine
  6
CONTINUOUS
370
13
 10
279.114822296645
 20
134.454174506773
 11
276.88377639961
 21
132.223128609737
  0
LINE
  5
50D
100
AcDbEntity
  8
0-0
100
AcDbLine
  6
CONTINUOUS
370
13
 10
279.114822296645
 20
136.575494850332
 11
276.114822296645
 21
133.575494850332
  0
LINE
  5
50E
100
AcDbEntity
  8
0-0
100
AcDbLine
  6
CONTINUOUS
370
13
 10
279.114822296645
 20
138.696815193892
 11
276.114822296645
 21
135.696815193892
  0
LINE
  5
50F
100
AcDbEntity
  8
0-0
100
AcDbLine
  6
CONTINUOUS
370
13
 10
279.114822296645
 20
140.818135537452
 11
276.114822296645
 21
137.818135537452
  0
LINE
  5
510
100
AcDbEntity
  8
0-0
100
AcDbLine
  6
CONTINUOUS
370
13
 10
279.113950667058
 20
142.938584251424
 11
276.114822296645
 21
139.939455881011
  0
LINE
  5
511
100
AcDbEntity
  8
0-0
100
AcDbLine
  6
CONTINUOUS
370
13
 10
279.114822296645
 20
145.060776224571
 11
276.114822296645
 21
142.060776224571
  0
LINE
  5
512
100
AcDbEntity
  8
0-0
100
AcDbLine
  6
CONTINUOUS
370
13
 10
279.114822296645
 20
147.182096568131
 11
276.114822296645
 21
144.182096568131
  0
LINE
  5
513
100
AcDbEntity
  8
0-0
100
AcDbLine
  6
CONTINUOUS
370
13
 10
277.100457751904
 20
147.289052366949
 11
276.114822296645
 21
146.30341691169
  0
LINE
  5
514
100
AcDbEntity
  8
0-0
100
AcDbLine
  6
CONTINUOUS
370
13
 10
279.114822296645
 20
151.42473725525
 11
278.633182952407
 21
150.943097911012
  0
LINE
  5
515
100
AcDbEntity
  8
0-0
100
AcDbLine
  6
CONTINUOUS
370
13
 10
279.114822296645
 20
153.54605759881
 11
276.114822296645
 21
150.54605759881
  0
LINE
  5
516
100
AcDbEntity
  8
0-0
100
AcDbLine
  6
CONTINUOUS
370
13
 10
279.114822296645
 20
155.667377942369
 11
276.114822296645
 21
152.667377942369
  0
LINE
  5
517
100
AcDbEntity
  8
0-0
100
AcDbLine
  6
CONTINUOUS
370
13
 10
279.114822296645
 20
157.788698285929
 11
276.114822296645
 21
154.788698285929
  0
LINE
  5
518
100
AcDbEntity
  8
0-0
100
AcDbLine
  6
CONTINUOUS
370
13
 10
279.114822296645
 20
159.910018629489
 11
276.114822296645
 21
156.910018629489
  0
LINE
  5
519
100
AcDbEntity
  8
0-0
100
AcDbLine
  6
CONTINUOUS
370
13
 10
279.114822296645
 20
162.031338973048
 11
276.114822296645
 21
159.031338973048
  0
LINE
  5
51A
100
AcDbEntity
  8
0-0
100
AcDbLine
  6
CONTINUOUS
370
13
 10
279.114822296645
 20
164.152659316608
 11
276.114822296645
 21
161.152659316608
  0
LINE
  5
51B
100
AcDbEntity
  8
0-0
100
AcDbLine
  6
CONTINUOUS
370
13
 10
279.063971246215
 20
166.223128609737
 11
276.114822296645
 21
163.273979660167
  0
LINE
  5
51C
100
AcDbEntity
  8
0-0
100
AcDbLine
  6
CONTINUOUS
370
13
 10
276.942650902655
 20
166.223128609737
 11
276.114822296645
 21
165.395300003727
  0
LINE
  5
51D
100
AcDbEntity
  8
0-0
100
AcDbLine
  6
CONTINUOUS
370
13
 10
277.117233206375
 20
132.223128609737
 11
276.114822296645
 21
133.225539519467
  0
LINE
  5
51E
100
AcDbEntity
  8
0-0
100
AcDbLine
  6
CONTINUOUS
370
13
 10
279.114822296645
 20
132.346859863026
 11
276.114822296645
 21
135.346859863026
  0
LINE
  5
51F
100
AcDbEntity
  8
0-0
100
AcDbLine
  6
CONTINUOUS
370
13
 10
279.114822296645
 20
134.468180206586
 11
276.114822296645
 21
137.468180206586
  0
LINE
  5
520
100
AcDbEntity
  8
0-0
100
AcDbLine
  6
CONTINUOUS
370
13
 10
279.114822296645
 20
136.589500550146
 11
276.114822296645
 21
139.589500550146
  0
LINE
  5
521
100
AcDbEntity
  8
0-0
100
AcDbLine
  6
CONTINUOUS
370
13
 10
279.114822296645
 20
138.710820893705
 11
276.114822296645
 21
141.710820893705
  0
LINE
  5
522
100
AcDbEntity
  8
0-0
100
AcDbLine
  6
CONTINUOUS
370
13
 10
279.114822296645
 20
140.832141237265
 11
276.114822296645
 21
143.832141237265
  0
LINE
  5
523
100
AcDbEntity
  8
0-0
100
AcDbLine
  6
CONTINUOUS
370
13
 10
279.114822296645
 20
142.953461580825
 11
276.114822296645
 21
145.953461580825
  0
LINE
  5
524
100
AcDbEntity
  8
0-0
100
AcDbLine
  6
CONTINUOUS
370
13
 10
279.114822296645
 20
145.074781924384
 11
276.789674129897
 21
147.399930091132
  0
LINE
  5
525
100
AcDbEntity
  8
0-0
100
AcDbLine
  6
CONTINUOUS
370
13
 10
279.114822296645
 20
147.196102267944
 11
278.741558444045
 21
147.569366120544
  0
LINE
  5
526
100
AcDbEntity
  8
0-0
100
AcDbLine
  6
CONTINUOUS
370
13
 10
277.244963162118
 20
151.18728174603
 11
276.114822296645
 21
152.317422611504
  0
LINE
  5
527
100
AcDbEntity
  8
0-0
100
AcDbLine
  6
CONTINUOUS
370
13
 10
279.114822296645
 20
151.438742955063
 11
276.114822296645
 21
154.438742955063
  0
LINE
  5
528
100
AcDbEntity
  8
0-0
100
AcDbLine
  6
CONTINUOUS
370
13
 10
279.114822296645
 20
153.560063298623
 11
276.114822296645
 21
156.560063298623
  0
LINE
  5
529
100
AcDbEntity
  8
0-0
100
AcDbLine
  6
CONTINUOUS
370
13
 10
279.114822296645
 20
155.681383642182
 11
276.114822296645
 21
158.681383642183
  0
LINE
  5
52A
100
AcDbEntity
  8
0-0
100
AcDbLine
  6
CONTINUOUS
370
13
 10
279.114822296645
 20
157.802703985742
 11
276.114822296645
 21
160.802703985742
  0
LINE
  5
52B
100
AcDbEntity
  8
0-0
100
AcDbLine
  6
CONTINUOUS
370
13
 10
279.114822296645
 20
159.924024329302
 11
276.114822296645
 21
162.924024329302
  0
LINE
  5
52C
100
AcDbEntity
  8
0-0
100
AcDbLine
  6
CONTINUOUS
370
13
 10
279.114822296645
 20
162.045344672861
 11
276.114822296645
 21
165.045344672862
  0
LINE
  5
52D
100
AcDbEntity
  8
0-0
100
AcDbLine
  6
CONTINUOUS
370
13
 10
279.114822296645
 20
164.166665016421
 11
277.058358703329
 21
166.223128609737
  0
LINE
  5
52E
100
AcDbEntity
  8
0-0
100
AcDbLine
  6
CONTINUOUS
370
13
 10
276.114822296645
 20
166.223128609737
 11
276.114822296645
 21
150.54605759881
  0
LINE
  5
52F
100
AcDbEntity
  8
0-0
100
AcDbLine
  6
CONTINUOUS
370
13
 10
276.114822296645
 20
147.898902536544
 11
276.114822296645
 21
132.223128609737
  0
LINE
  5
530
100
AcDbEntity
  8
0-0
100
AcDbLine
  6
CONTINUOUS
370
13
 10
279.114822296645
 20
166.223128609737
 11
279.114822296645
 21
150.544653847608
  0
LINE
  5
531
100
AcDbEntity
  8
0-0
100
AcDbLine
  6
CONTINUOUS
370
13
 10
279.114822296645
 20
147.898902536544
 11
279.114822296645
 21
132.223128609737
  0
LINE
  5
532
100
AcDbEntity
  8
0-0
100
AcDbLine
  6
CONTINUOUS
370
13
 10
91.3207861418774
 20
227.769646036026
 11
74.3207861418775
 21
227.769646036026
  0
CIRCLE
  5
533
100
AcDbEntity
  8
0-0
100
AcDbCircle
  6
CONTINUOUS
370
13
 10
89.3207861418777
 20
125.223128609737
 40
3
  0
LINE
  5
534
100
AcDbEntity
  8
0-0
100
AcDbLine
  6
CONTINUOUS
370
13
 10
87.4667365201054
 20
125.973128609737
 11
88.5707861418779
 21
125.973128609737
  0
LINE
  5
535
100
AcDbEntity
  8
0-0
100
AcDbLine
  6
CONTINUOUS
370
13
 10
87.4667365201054
 20
124.473128609737
 11
88.5707861418777
 21
124.473128609737
  0
LINE
  5
536
100
AcDbEntity
  8
0-0
100
AcDbLine
  6
CONTINUOUS
370
13
 10
88.5707861418779
 20
123.369078987965
 11
88.5707861418777
 21
124.473128609737
  0
LINE
  5
537
100
AcDbEntity
  8
0-0
100
AcDbLine
  6
CONTINUOUS
370
13
 10
90.0707861418778
 20
123.369078987965
 11
90.0707861418777
 21
124.473128609737
  0
LINE
  5
538
100
AcDbEntity
  8
0-0
100
AcDbLine
  6
CONTINUOUS
370
13
 10
91.1748357636515
 20
125.973128609737
 11
91.1748357636515
 21
124.473128609737
  0
LINE
  5
539
100
AcDbEntity
  8
0-0
100
AcDbLine
  6
CONTINUOUS
370
13
 10
87.4667365201036
 20
125.973128609737
 11
87.4667365201036
 21
124.473128609737
  0
LINE
  5
53A
100
AcDbEntity
  8
0-0
100
AcDbLine
  6
CONTINUOUS
370
13
 10
88.5707861418777
 20
123.369078987963
 11
90.0707861418779
 21
123.369078987963
  0
LINE
  5
53B
100
AcDbEntity
  8
0-0
100
AcDbLine
  6
CONTINUOUS
370
13
 10
88.5707861418777
 20
127.077178231511
 11
90.0707861418778
 21
127.077178231511
  0
LINE
  5
53C
100
AcDbEntity
  8
0-0
100
AcDbLine
  6
CONTINUOUS
370
13
 10
90.0707861418777
 20
124.473128609737
 11
91.1748357636515
 21
124.473128609737
  0
LINE
  5
53D
100
AcDbEntity
  8
0-0
100
AcDbLine
  6
CONTINUOUS
370
13
 10
88.5707861418779
 20
125.973128609737
 11
88.5707861418777
 21
127.077178231511
  0
LINE
  5
53E
100
AcDbEntity
  8
0-0
100
AcDbLine
  6
CONTINUOUS
370
13
 10
90.0707861418778
 20
125.973128609737
 11
91.1748357636515
 21
125.973128609737
  0
LINE
  5
53F
100
AcDbEntity
  8
0-0
100
AcDbLine
  6
CONTINUOUS
370
13
 10
90.0707861418778
 20
125.973128609737
 11
90.0707861418778
 21
127.077178231511
  0
CIRCLE
  5
540
100
AcDbEntity
  8
0-0
100
AcDbCircle
  6
CONTINUOUS
370
13
 10
89.3207861418775
 20
125.223128609737
 40
4.2
  0
LINE
  5
541
100
AcDbEntity
  8
0-0
100
AcDbLine
  6
CONTINUOUS
370
13
 10
104.095786141878
 20
149.966007016521
 11
104.095786141877
 21
148.480250202954
  0
LINE
  5
542
100
AcDbEntity
  8
0-0
100
AcDbLine
  6
CONTINUOUS
370
13
 10
103.320786141878
 20
150.413453475143
 11
104.095786141878
 21
149.966007016521
  0
LINE
  5
543
100
AcDbEntity
  8
0-0
100
AcDbLine
  6
CONTINUOUS
370
13
 10
103.320786141877
 20
148.032803744332
 11
104.095786141877
 21
148.480250202954
  0
ARC
  5
544
100
AcDbEntity
  8
0-0
100
AcDbCircle
  6
CONTINUOUS
370
13
 10
102.820786141877
 20
149.223128609737
 40
2.7
100
AcDbArc
 50
-79.328070714235
 51
79.3280707142368
  0
ARC
  5
545
100
AcDbEntity
  8
0-0
100
AcDbCircle
  6
CONTINUOUS
370
13
 10
102.820786141877
 20
149.223128609737
 40
3
100
AcDbArc
 50
-80.4059317731372
 51
80.4059317731377
  0
LINE
  5
546
100
AcDbEntity
  8
0-0
100
AcDbLine
  6
CONTINUOUS
370
13
 10
286.064340671151
 20
121.023128609737
 11
286.064340671151
 21
121.023128609737
  0
LINE
  5
547
100
AcDbEntity
  8
0-0
100
AcDbLine
  6
CONTINUOUS
370
13
 10
286.064340671151
 20
129.423128609737
 11
286.064340671151
 21
129.423128609737
  0
LINE
  5
548
100
AcDbEntity
  8
0-0
100
AcDbLine
  6
CONTINUOUS
370
13
 10
286.064340671151
 20
129.423128609737
 11
286.064340671151
 21
121.023128609737
  0
LINE
  5
549
100
AcDbEntity
  8
0-0
100
AcDbLine
  6
CONTINUOUS
370
13
 10
284.064340671151
 20
127.423128609737
 11
284.064340671151
 21
123.023128609737
  0
ARC
  5
54A
100
AcDbEntity
  8
0-0
100
AcDbCircle
  6
CONTINUOUS
370
13
 10
286.064340671151
 20
123.023128609737
 40
2
100
AcDbArc
 50
180.000000000001
 51
270.000000000001
  0
ARC
  5
54B
100
AcDbEntity
  8
0-0
100
AcDbCircle
  6
CONTINUOUS
370
13
 10
286.064340671151
 20
127.423128609737
 40
2
100
AcDbArc
 50
450.000000000002
 51
540
  0
LINE
  5
54C
100
AcDbEntity
  8
0-0
100
AcDbLine
  6
BYLAYER
370
13
 10
43.0990986418775
 20
158.97312919255
 11
44.5424736418775
 21
158.97312919255
  0
LINE
  5
54D
100
AcDbEntity
  8
0-0
100
AcDbLine
  6
BYLAYER
370
13
 10
44.5424736418775
 20
161.473128026925
 11
43.0990986418775
 21
161.473128026925
  0
CIRCLE
  5
54E
100
AcDbEntity
  8
0-0
100
AcDbCircle
  6
BYLAYER
370
13
 10
43.8207861418775
 20
160.223128609737
 40
2.4035896769725
  0
CIRCLE
  5
54F
100
AcDbEntity
  8
0-0
100
AcDbCircle
  6
BYLAYER
370
13
 10
43.8207861418775
 20
160.223128609737
 40
2.74999999999989
  0
LINE
  5
550
100
AcDbEntity
  8
0-0
100
AcDbLine
  6
BYLAYER
370
13
 10
42.3774111418773
 20
160.223128609737
 11
43.0990986418775
 21
158.97312919255
  0
LINE
  5
551
100
AcDbEntity
  8
0-0
100
AcDbLine
  6
BYLAYER
370
13
 10
43.0990986418775
 20
161.473128026925
 11
42.3774111418773
 21
160.223128609737
  0
LINE
  5
552
100
AcDbEntity
  8
0-0
100
AcDbLine
  6
BYLAYER
370
13
 10
44.5424736418775
 20
158.97312919255
 11
45.2641611418775
 21
160.223128609737
  0
LINE
  5
553
100
AcDbEntity
  8
0-0
100
AcDbLine
  6
BYLAYER
370
13
 10
45.2641611418775
 20
160.223128609737
 11
44.5424736418775
 21
161.473128026925
  0
LINE
  5
554
100
AcDbEntity
  8
0-0
100
AcDbLine
  6
BYLAYER
370
13
 10
43.0990986418775
 20
136.97312919255
 11
44.5424736418775
 21
136.97312919255
  0
LINE
  5
555
100
AcDbEntity
  8
0-0
100
AcDbLine
  6
BYLAYER
370
13
 10
44.5424736418775
 20
139.473128026925
 11
43.0990986418775
 21
139.473128026925
  0
CIRCLE
  5
556
100
AcDbEntity
  8
0-0
100
AcDbCircle
  6
BYLAYER
370
13
 10
43.8207861418775
 20
138.223128609737
 40
2.4035896769725
  0
CIRCLE
  5
557
100
AcDbEntity
  8
0-0
100
AcDbCircle
  6
BYLAYER
370
13
 10
43.8207861418775
 20
138.223128609737
 40
2.74999999999989
  0
LINE
  5
558
100
AcDbEntity
  8
0-0
100
AcDbLine
  6
BYLAYER
370
13
 10
42.3774111418773
 20
138.223128609737
 11
43.0990986418775
 21
136.97312919255
  0
LINE
  5
559
100
AcDbEntity
  8
0-0
100
AcDbLine
  6
BYLAYER
370
13
 10
43.0990986418775
 20
139.473128026925
 11
42.3774111418773
 21
138.223128609737
  0
LINE
  5
55A
100
AcDbEntity
  8
0-0
100
AcDbLine
  6
BYLAYER
370
13
 10
44.5424736418775
 20
136.97312919255
 11
45.2641611418775
 21
138.223128609737
  0
LINE
  5
55B
100
AcDbEntity
  8
0-0
100
AcDbLine
  6
BYLAYER
370
13
 10
45.2641611418775
 20
138.223128609737
 11
44.5424736418775
 21
139.473128026925
  0
CIRCLE
  5
55C
100
AcDbEntity
  8
0-0
100
AcDbCircle
  6
CONTINUOUS
370
13
 10
89.3207861418775
 20
125.223128609737
 40
4
  0
CIRCLE
  5
55D
100
AcDbEntity
  8
0-0
100
AcDbCircle
  6
CONTINUOUS
370
13
 10
89.3207861418775
 20
125.223128609737
 40
3
  0
LINE
  5
55E
100
AcDbEntity
  8
0-0
100
AcDbLine
  6
CONTINUOUS
370
13
 10
87.4667365201052
 20
125.973128609737
 11
88.5707861418778
 21
125.973128609737
  0
LINE
  5
55F
100
AcDbEntity
  8
0-0
100
AcDbLine
  6
CONTINUOUS
370
13
 10
87.4667365201052
 20
124.473128609737
 11
88.5707861418775
 21
124.473128609737
  0
LINE
  5
560
100
AcDbEntity
  8
0-0
100
AcDbLine
  6
CONTINUOUS
370
13
 10
88.5707861418778
 20
123.369078987965
 11
88.5707861418775
 21
124.473128609737
  0
LINE
  5
561
100
AcDbEntity
  8
0-0
100
AcDbLine
  6
CONTINUOUS
370
13
 10
90.0707861418776
 20
123.369078987965
 11
90.0707861418775
 21
124.473128609737
  0
LINE
  5
562
100
AcDbEntity
  8
0-0
100
AcDbLine
  6
CONTINUOUS
370
13
 10
91.1748357636513
 20
125.973128609737
 11
91.1748357636513
 21
124.473128609737
  0
LINE
  5
563
100
AcDbEntity
  8
0-0
100
AcDbLine
  6
CONTINUOUS
370
13
 10
87.4667365201034
 20
125.973128609737
 11
87.4667365201034
 21
124.473128609737
  0
LINE
  5
564
100
AcDbEntity
  8
0-0
100
AcDbLine
  6
CONTINUOUS
370
13
 10
88.5707861418775
 20
123.369078987963
 11
90.0707861418778
 21
123.369078987963
  0
LINE
  5
565
100
AcDbEntity
  8
0-0
100
AcDbLine
  6
CONTINUOUS
370
13
 10
88.5707861418775
 20
127.077178231511
 11
90.0707861418776
 21
127.077178231511
  0
LINE
  5
566
100
AcDbEntity
  8
0-0
100
AcDbLine
  6
CONTINUOUS
370
13
 10
90.0707861418775
 20
124.473128609737
 11
91.1748357636513
 21
124.473128609737
  0
LINE
  5
567
100
AcDbEntity
  8
0-0
100
AcDbLine
  6
CONTINUOUS
370
13
 10
88.5707861418778
 20
125.973128609737
 11
88.5707861418775
 21
127.077178231511
  0
LINE
  5
568
100
AcDbEntity
  8
0-0
100
AcDbLine
  6
CONTINUOUS
370
13
 10
90.0707861418776
 20
125.973128609737
 11
91.1748357636513
 21
125.973128609737
  0
LINE
  5
569
100
AcDbEntity
  8
0-0
100
AcDbLine
  6
CONTINUOUS
370
13
 10
90.0707861418776
 20
125.973128609737
 11
90.0707861418776
 21
127.077178231511
  0
LINE
  5
56A
100
AcDbEntity
  8
0-0
100
AcDbLine
  6
CONTINUOUS
370
13
 10
88.3530163083502
 20
149.921760999041
 11
85.3793856803117
 21
149.524871986859
  0
LINE
  5
56B
100
AcDbEntity
  8
0-0
100
AcDbLine
  6
CONTINUOUS
370
13
 10
88.3530163083502
 20
149.921760999041
 11
86.5742734991419
 21
153.521736654945
  0
LINE
  5
56C
100
AcDbEntity
  8
0-0
100
AcDbLine
  6
CONTINUOUS
370
13
 10
85.3793856803117
 20
149.524871986859
 11
86.5742734991419
 21
153.521736654945
  0
LINE
  5
56D
100
AcDbEntity
  8
0-0
100
AcDbLine
  6
CONTINUOUS
370
13
 10
88.363135912511
 20
148.289157484443
 11
85.3895052844724
 21
148.686046496625
  0
LINE
  5
56E
100
AcDbEntity
  8
0-0
100
AcDbLine
  6
CONTINUOUS
370
13
 10
88.363135912511
 20
148.289157484443
 11
86.5843931033027
 21
144.689181828539
  0
LINE
  5
56F
100
AcDbEntity
  8
0-0
100
AcDbLine
  6
CONTINUOUS
370
13
 10
85.3895052844724
 20
148.686046496625
 11
86.5843931033027
 21
144.689181828539
  0
ARC
  5
570
100
AcDbEntity
  8
0-0
100
AcDbCircle
  6
DIVIDE
370
13
 10
103.105395832704
 20
149.34748426272
 40
16
100
AcDbArc
 50
-118.247495151507
 51
-1.75250484849342
  0
LINE
  5
571
100
AcDbEntity
  8
0-0
100
AcDbLine
  6
DIVIDE
370
13
 10
92.8393522326022
 20
134.182776919654
 11
83.722709930524
 21
128.919281032444
  0
ARC
  5
572
100
AcDbEntity
  8
0-0
100
AcDbCircle
  6
DIVIDE
370
13
 10
103.105395832704
 20
149.34748426272
 40
14.4
100
AcDbArc
 50
-102.463723610133
 51
-17.5362732735535
  0
LINE
  5
573
100
AcDbEntity
  8
0-0
100
AcDbLine
  6
DIVIDE
370
13
 10
87.1246337191707
 20
117.026976187031
 11
103.124633719171
 21
117.026976187031
  0
LINE
  5
574
100
AcDbEntity
  8
0-0
100
AcDbLine
  6
DIVIDE
370
13
 10
139.086157946237
 20
147.026976187031
 11
131.086157946237
 21
133.17056972648
  0
LINE
  5
575
100
AcDbEntity
  8
0-0
100
AcDbLine
  6
DIVIDE
370
13
 10
134.586157946237
 20
154.821204821091
 11
139.086157946237
 21
147.026976187031
  0
LINE
  5
576
100
AcDbEntity
  8
0-0
100
AcDbLine
  6
DIVIDE
370
13
 10
82.6246337191707
 20
124.821204821091
 11
83.722709930524
 21
128.919281032444
  0
LINE
  5
577
100
AcDbEntity
  8
0-0
100
AcDbLine
  6
DIVIDE
370
13
 10
134.586157946237
 20
154.821204821091
 11
130.488081734884
 21
155.919281032444
  0
LINE
  5
578
100
AcDbEntity
  8
0-0
100
AcDbLine
  6
DIVIDE
370
13
 10
82.6246337191707
 20
124.821204821091
 11
87.1246337191707
 21
117.026976187031
  0
LINE
  5
579
100
AcDbEntity
  8
0-0
100
AcDbLine
  6
DIVIDE
370
13
 10
131.086157946237
 20
133.17056972648
 11
103.124633719171
 21
117.026976187031
  0
LINE
  5
57A
100
AcDbEntity
  8
0-0
100
AcDbLine
  6
DIVIDE
370
13
 10
121.371439432805
 20
150.655785145233
 11
130.488081734884
 21
155.919281032444
  0
LINE
  5
57B
100
AcDbEntity
  8
0-0
100
AcDbLine
  6
DIVIDE
370
13
 10
79.3838733216952
 20
195.4850709854
 11
71.2598349170593
 21
190.794655225577
  0
ARC
  5
57C
100
AcDbEntity
  8
0-0
100
AcDbCircle
  6
DIVIDE
370
13
 10
73.0718541193772
 20
197.036977422519
 40
6.5
100
AcDbArc
 50
-13.8130614604036
 51
-106.186938539597
  0
LINE
  5
57D
100
AcDbEntity
  8
0-0
100
AcDbLine
  6
DIVIDE
370
13
 10
85.7848877570153
 20
183.017357243797
 11
78.8566845267397
 21
179.017357243797
  0
LINE
  5
57E
100
AcDbEntity
  8
0-0
100
AcDbLine
  6
DIVIDE
370
13
 10
71.4247398023473
 20
190.889863105489
 11
78.1736718248475
 21
179.200369945689
  0
LINE
  5
57F
100
AcDbEntity
  8
0-0
100
AcDbLine
  6
DIVIDE
370
13
 10
79.2189684364072
 20
195.389863105488
 11
85.9679004589074
 21
183.700369945689
  0
LINE
  5
580
100
AcDbEntity
  8
0-0
100
AcDbLine
  6
DIVIDE
370
13
 10
78.8566845267397
 20
179.017357243797
 11
78.1736718248475
 21
179.200369945689
  0
LINE
  5
581
100
AcDbEntity
  8
0-0
100
AcDbLine
  6
DIVIDE
370
13
 10
85.7848877570153
 20
183.017357243797
 11
85.9679004589074
 21
183.700369945689
  0
LINE
  5
582
100
AcDbEntity
  8
0-0
100
AcDbLine
  6
DIVIDE
370
13
 10
83.619824247554
 20
181.767357243797
 11
85.5396972286318
 21
178.442039696492
  0
LINE
  5
583
100
AcDbEntity
  8
0-0
100
AcDbLine
  6
DIVIDE
370
13
 10
81.0217480362008
 20
180.267357243797
 11
83.1369000326584
 21
176.603806520202
  0
LINE
  5
584
100
AcDbEntity
  8
0-0
100
AcDbLine
  6
DIVIDE
370
13
 10
83.2815556573361
 20
176.95325562866
 11
83.3546234374338
 21
176.826698521134
  0
LINE
  5
585
100
AcDbEntity
  8
0-0
100
AcDbLine
  6
DIVIDE
370
13
 10
83.0217480362008
 20
176.80325562866
 11
85.1018750551226
 21
178.004217522983
  0
LINE
  5
586
100
AcDbEntity
  8
0-0
100
AcDbLine
  6
DIVIDE
370
13
 10
85.3999512664762
 20
178.302293734336
 11
85.4698242475541
 21
178.563063249795
  0
LINE
  5
587
100
AcDbEntity
  8
0-0
100
AcDbLine
  6
DIVIDE
370
13
 10
83.2815556573361
 20
176.95325562866
 11
82.8717480362008
 21
177.063063249795
  0
POINT
  5
588
100
AcDbEntity
  8
0-0
100
AcDbPoint
 10
83.0217480362008
 20
176.80325562866
  0
ARC
  5
589
100
AcDbEntity
  8
0-0
100
AcDbCircle
  6
DIVIDE
370
13
 10
97.8393522326022
 20
125.52252288181
 40
10
100
AcDbArc
 50
77.5362731164223
 51
120
  0
ARC
  5
58A
100
AcDbEntity
  8
0-0
100
AcDbCircle
  6
DIVIDE
370
13
 10
126.371439432805
 20
141.995531107389
 40
10
100
AcDbArc
 50
120
 51
162.463722396086
  0
LINE
  5
58B
100
AcDbEntity
  8
0-0
100
AcDbLine
  6
DIVIDE
370
13
 10
39.8194357242158
 20
168.844872148404
 11
26.868035312333
 21
168.844872148404
  0
LINE
  5
58C
100
AcDbEntity
  8
0-0
100
AcDbLine
  6
DIVIDE
370
13
 10
39.8194357242158
 20
167.244872148404
 11
26.8030197705564
 21
167.244872148404
  0
LINE
  5
58D
100
AcDbEntity
  8
0-0
100
AcDbLine
  6
DIVIDE
370
13
 10
39.8194357242158
 20
131.092349280726
 11
27.467970376314
 21
131.092349280726
  0
LINE
  5
58E
100
AcDbEntity
  8
0-0
100
AcDbLine
  6
DIVIDE
370
13
 10
39.8194357242158
 20
129.492349280726
 11
27.4975228953033
 21
129.492349280726
  0
LWPOLYLINE
  5
58F
100
AcDbEntity
  8
0-0
100
AcDbPolyline
  6
DIVIDE
370
13
 90
     28
 10
26.8355940813552
  20
168.859702027024
 10
26.925558561178
  20
168.806868886148
 10
27.0077446192849
  20
168.75366178032
 10
27.0807122170004
  20
168.700063972074
 10
27.1430213156488
  20
168.646058723944
 10
27.1932318765544
  20
168.591629298464
 10
27.2299038610416
  20
168.536758958168
 10
27.2515972304348
  20
168.48143096559
 10
27.2568719460583
  20
168.425628583264
 10
27.2442879692366
  20
168.369335073724
 10
27.2064773711483
  20
168.303096141366
 10
27.1480408894393
  20
168.236232271397
 10
27.074569448063
  20
168.168808446723
 10
26.9916539709732
  20
168.100889650251
 10
26.9048853821234
  20
168.03254086489
 10
26.8198546054671
  20
167.963827073545
 10
26.742152564958
  20
167.894813259124
 10
26.6773701845497
  20
167.825564404534
 10
26.6310983881957
  20
167.756145492683
 10
26.6106922174539
  20
167.701437826917
 10
26.60396629543
  20
167.646650667709
 10
26.6096785063619
  20
167.591769578038
 10
26.6265867344877
  20
167.53678012088
 10
26.6534488640454
  20
167.481667859214
 10
26.689022779273
  20
167.426418356018
 10
26.7320663644085
  20
167.371017174269
 10
26.7813375036899
  20
167.315449876945
 10
26.8355940813552
  20
167.259702027024
  0
LWPOLYLINE
  5
590
100
AcDbEntity
  8
0-0
100
AcDbPolyline
  6
DIVIDE
370
13
 90
     28
 10
26.8355940813552
  20
168.859702027024
 10
26.7855160822737
  20
168.808841517653
 10
26.7396559636642
  20
168.759642882667
 10
26.6991493054731
  20
168.711727948871
 10
26.665131687647
  20
168.664718543073
 10
26.6387386901324
  20
168.618236492079
 10
26.6211058928757
  20
168.571903622695
 10
26.6133688758235
  20
168.525341761729
 10
26.6166632189223
  20
168.478172735985
 10
26.6321245021185
  20
168.430018372272
 10
26.6606529234423
  20
168.379996392612
 10
26.6993972566751
  20
168.329732591992
 10
26.7448640708873
  20
168.280390360039
 10
26.7935599351496
  20
168.233133086382
 10
26.8419914185325
  20
168.189124160646
 10
26.8866650901064
  20
168.149526972461
 10
26.924087518942
  20
168.115504911452
 10
26.9507652741097
  20
168.088221367249
 10
26.9632049246801
  20
168.068839729477
 10
26.9636974744855
  20
168.065897622975
 10
26.9634885277247
  20
168.063326405118
 10
26.962646796517
  20
168.061103193254
 10
26.9612409929816
  20
168.05920510473
 10
26.9593398292378
  20
168.057609256893
 10
26.9570120174049
  20
168.05629276709
 10
26.9543262696021
  20
168.055232752669
 10
26.9513512979486
  20
168.054406330977
 10
26.9481558145638
  20
168.053790619361
  0
LWPOLYLINE
  5
591
100
AcDbEntity
  8
0-0
100
AcDbPolyline
  6
DIVIDE
370
13
 90
     28
 10
27.5029275161431
  20
131.099638791115
 10
27.5928919959659
  20
131.046805650239
 10
27.6750780540729
  20
130.993598544411
 10
27.7480456517883
  20
130.940000736165
 10
27.8103547504367
  20
130.885995488035
 10
27.8605653113423
  20
130.831566062555
 10
27.8972372958295
  20
130.776695722259
 10
27.9189306652227
  20
130.721367729681
 10
27.9242053808463
  20
130.665565347355
 10
27.9116214040245
  20
130.609271837815
 10
27.8738108059363
  20
130.543032905457
 10
27.8153743242273
  20
130.476169035488
 10
27.7419028828511
  20
130.408745210814
 10
27.6589874057612
  20
130.340826414342
 10
27.5722188169113
  20
130.272477628981
 10
27.487188040255
  20
130.203763837636
 10
27.4094859997459
  20
130.134750023215
 10
27.3447036193376
  20
130.065501168626
 10
27.2984318229836
  20
129.996082256774
 10
27.2780256522418
  20
129.941374591008
 10
27.2712997302179
  20
129.886587431801
 10
27.2770119411498
  20
129.831706342129
 10
27.2939201692756
  20
129.776716884971
 10
27.3207822988333
  20
129.721604623305
 10
27.3563562140609
  20
129.666355120109
 10
27.3993997991964
  20
129.61095393836
 10
27.4486709384778
  20
129.555386641036
 10
27.5029275161431
  20
129.499638791115
  0
LWPOLYLINE
  5
592
100
AcDbEntity
  8
0-0
100
AcDbPolyline
  6
DIVIDE
370
13
 90
     28
 10
27.5029275161431
  20
131.099638791115
 10
27.4528495170616
  20
131.048778281744
 10
27.4069893984521
  20
130.999579646758
 10
27.366482740261
  20
130.951664712962
 10
27.3324651224349
  20
130.904655307164
 10
27.3060721249203
  20
130.85817325617
 10
27.2884393276636
  20
130.811840386786
 10
27.2807023106114
  20
130.76527852582
 10
27.2839966537102
  20
130.718109500076
 10
27.2994579369064
  20
130.669955136363
 10
27.3279863582302
  20
130.619933156703
 10
27.366730691463
  20
130.569669356083
 10
27.4121975056753
  20
130.52032712413
 10
27.4608933699376
  20
130.473069850473
 10
27.5093248533205
  20
130.429060924737
 10
27.5539985248945
  20
130.389463736552
 10
27.5914209537301
  20
130.355441675543
 10
27.6180987088978
  20
130.32815813134
 10
27.6305383594682
  20
130.308776493568
 10
27.6310309092736
  20
130.305834387066
 10
27.6308219625127
  20
130.303263169209
 10
27.629980231305
  20
130.301039957345
 10
27.6285744277696
  20
130.299141868821
 10
27.6266732640258
  20
130.297546020984
 10
27.6243454521929
  20
130.296229531181
 10
27.6216597043901
  20
130.29516951676
 10
27.6186847327366
  20
130.294343095068
 10
27.6154892493518
  20
130.293727383452
  0
LWPOLYLINE
  5
593
100
AcDbEntity
  8
0-0
100
AcDbPolyline
  6
DIVIDE
370
13
 90
     28
 10
26.8355940813552
  20
241.583994289152
 10
26.925558561178
  20
241.531161148276
 10
27.0077446192849
  20
241.477954042448
 10
27.0807122170004
  20
241.424356234202
 10
27.1430213156488
  20
241.370350986072
 10
27.1932318765544
  20
241.315921560592
 10
27.2299038610416
  20
241.261051220296
 10
27.2515972304348
  20
241.205723227718
 10
27.2568719460583
  20
241.149920845392
 10
27.2442879692366
  20
241.093627335852
 10
27.2064773711483
  20
241.027388403494
 10
27.1480408894393
  20
240.960524533524
 10
27.074569448063
  20
240.89310070885
 10
26.9916539709732
  20
240.825181912379
 10
26.9048853821234
  20
240.756833127017
 10
26.8198546054671
  20
240.688119335672
 10
26.742152564958
  20
240.619105521252
 10
26.6773701845497
  20
240.549856666662
 10
26.6310983881957
  20
240.480437754811
 10
26.6106922174539
  20
240.425730089045
 10
26.60396629543
  20
240.370942929837
 10
26.6096785063619
  20
240.316061840166
 10
26.6265867344877
  20
240.261072383008
 10
26.6534488640454
  20
240.205960121342
 10
26.689022779273
  20
240.150710618146
 10
26.7320663644085
  20
240.095309436396
 10
26.7813375036899
  20
240.039742139073
 10
26.8355940813552
  20
239.983994289151
  0
LWPOLYLINE
  5
594
100
AcDbEntity
  8
0-0
100
AcDbPolyline
  6
DIVIDE
370
13
 90
     28
 10
26.8355940813552
  20
241.583994289152
 10
26.7855160822737
  20
241.533133779781
 10
26.7396559636642
  20
241.483935144794
 10
26.6991493054731
  20
241.436020210999
 10
26.665131687647
  20
241.389010805201
 10
26.6387386901324
  20
241.342528754207
 10
26.6211058928757
  20
241.296195884823
 10
26.6133688758235
  20
241.249634023856
 10
26.6166632189223
  20
241.202464998113
 10
26.6321245021185
  20
241.154310634399
 10
26.6606529234423
  20
241.104288654739
 10
26.6993972566751
  20
241.054024854119
 10
26.7448640708873
  20
241.004682622167
 10
26.7935599351496
  20
240.957425348509
 10
26.8419914185325
  20
240.913416422774
 10
26.8866650901064
  20
240.873819234588
 10
26.924087518942
  20
240.83979717358
 10
26.9507652741097
  20
240.812513629376
 10
26.9632049246801
  20
240.793131991605
 10
26.9636974744855
  20
240.790189885103
 10
26.9634885277247
  20
240.787618667246
 10
26.962646796517
  20
240.785395455382
 10
26.9612409929816
  20
240.783497366858
 10
26.9593398292378
  20
240.78190151902
 10
26.9570120174049
  20
240.780585029218
 10
26.9543262696021
  20
240.779525014797
 10
26.9513512979486
  20
240.778698593104
 10
26.9481558145638
  20
240.778082881488
  0
LINE
  5
595
100
AcDbEntity
  8
0-0
100
AcDbLine
  6
DASHDOT
370
13
 10
26.2489095153973
 20
240.769164410532
 11
83.7225393404868
 21
240.769164410532
  0
LINE
  5
596
100
AcDbEntity
  8
0-0
100
AcDbLine
  6
DIVIDE
370
13
 10
81.7172163056014
 20
241.569164410532
 11
58.0707861418776
 21
241.569164410532
  0
LINE
  5
597
100
AcDbEntity
  8
0-0
100
AcDbLine
  6
DIVIDE
370
13
 10
44.5707861418774
 20
241.569164410532
 11
26.8695124141854
 21
241.569164410532
  0
LINE
  5
598
100
AcDbEntity
  8
0-0
100
AcDbLine
  6
DIVIDE
370
13
 10
81.7172163056014
 20
239.969164410532
 11
58.0707861418776
 21
239.969164410532
  0
LINE
  5
599
100
AcDbEntity
  8
0-0
100
AcDbLine
  6
DIVIDE
370
13
 10
44.5707861418774
 20
239.969164410532
 11
26.8581288403899
 21
239.969164410532
  0
LINE
  5
59A
100
AcDbEntity
  8
0-0
100
AcDbLine
  6
CONTINUOUS
370
13
 10
40.3207861418771
 20
245.769164410532
 11
98.3207861418774
 21
245.769164410532
  0
LINE
  5
59B
100
AcDbEntity
  8
0-0
100
AcDbLine
  6
CONTINUOUS
370
13
 10
107.320786141877
 20
245.769164410532
 11
98.3207861418774
 21
245.769164410532
  0
LINE
  5
59C
100
AcDbEntity
  8
0-0
100
AcDbLine
  6
CONTINUOUS
370
13
 10
107.820786141877
 20
246.269164410532
 11
107.820786141877
 21
254.769164410532
  0
LINE
  5
59D
100
AcDbEntity
  8
0-0
100
AcDbLine
  6
CONTINUOUS
370
13
 10
107.820786141877
 20
246.269164410532
 11
107.320786141877
 21
245.769164410532
  0
LINE
  5
59E
100
AcDbEntity
  8
0-0
100
AcDbLine
  6
CONTINUOUS
370
13
 10
39.8207861418771
 20
246.269164410532
 11
39.8207861418771
 21
254.769164410532
  0
LINE
  5
59F
100
AcDbEntity
  8
0-0
100
AcDbLine
  6
CONTINUOUS
370
13
 10
40.3207861418771
 20
245.769164410532
 11
39.8207861418771
 21
246.269164410532
  0
CIRCLE
  5
5A0
100
AcDbEntity
  8
0-0
100
AcDbCircle
  6
CONTINUOUS
370
13
 10
51.3207861418775
 20
232.769164410532
 40
2.5
  0
LINE
  5
5A1
100
AcDbEntity
  8
0-0
100
AcDbLine
  6
CONTINUOUS
370
13
 10
45.0707861418775
 20
242.769164410532
 11
45.0707861418775
 21
228.769164410532
  0
LINE
  5
5A2
100
AcDbEntity
  8
0-0
100
AcDbLine
  6
CONTINUOUS
370
13
 10
57.5707861418775
 20
228.769164410532
 11
57.5707861418775
 21
242.769164410532
  0
LINE
  5
5A3
100
AcDbEntity
  8
0-0
100
AcDbLine
  6
CONTINUOUS
370
13
 10
47.0707861418775
 20
226.769164410532
 11
55.5707861418775
 21
226.769164410532
  0
LINE
  5
5A4
100
AcDbEntity
  8
0-0
100
AcDbLine
  6
CONTINUOUS
370
13
 10
47.0707861418775
 20
244.769164410532
 11
55.5707861418775
 21
244.769164410532
  0
LINE
  5
5A5
100
AcDbEntity
  8
0-0
100
AcDbLine
  6
CONTINUOUS
370
13
 10
57.5707861418775
 20
228.769164410532
 11
55.5707861418775
 21
226.769164410532
  0
LINE
  5
5A6
100
AcDbEntity
  8
0-0
100
AcDbLine
  6
CONTINUOUS
370
13
 10
57.5707861418775
 20
242.769164410532
 11
55.5707861418775
 21
244.769164410532
  0
LINE
  5
5A7
100
AcDbEntity
  8
0-0
100
AcDbLine
  6
CONTINUOUS
370
13
 10
47.0707861418775
 20
244.769164410532
 11
45.0707861418775
 21
242.769164410532
  0
LINE
  5
5A8
100
AcDbEntity
  8
0-0
100
AcDbLine
  6
CONTINUOUS
370
13
 10
45.0707861418775
 20
228.769164410532
 11
47.0707861418775
 21
226.769164410532
  0
LINE
  5
5A9
100
AcDbEntity
  8
0-0
100
AcDbLine
  6
CONTINUOUS
370
13
 10
57.5707861418775
 20
242.769164410532
 11
55.5707861418775
 21
244.769164410532
  0
LINE
  5
5AA
100
AcDbEntity
  8
0-0
100
AcDbLine
  6
CONTINUOUS
370
13
 10
57.5707861418775
 20
228.769164410532
 11
55.5707861418775
 21
226.769164410532
  0
LINE
  5
5AB
100
AcDbEntity
  8
0-0
100
AcDbLine
  6
CONTINUOUS
370
13
 10
47.0707861418775
 20
226.769164410532
 11
45.0707861418775
 21
228.769164410532
  0
LINE
  5
5AC
100
AcDbEntity
  8
0-0
100
AcDbLine
  6
CONTINUOUS
370
13
 10
45.0707861418775
 20
242.769164410532
 11
47.0707861418775
 21
244.769164410532
  0
LINE
  5
5AD
100
AcDbEntity
  8
0-0
100
AcDbLine
  6
CONTINUOUS
370
13
 10
39.8207861418775
 20
227.769164410532
 11
39.8207861418775
 21
245.769164410532
  0
LINE
  5
5AE
100
AcDbEntity
  8
0-0
100
AcDbLine
  6
CONTINUOUS
370
13
 10
74.3207861418775
 20
245.769164410532
 11
39.8207861418775
 21
245.769164410532
  0
LINE
  5
5AF
100
AcDbEntity
  8
0-0
100
AcDbLine
  6
CONTINUOUS
370
13
 10
74.3207861418775
 20
227.769164410532
 11
74.3207861418772
 21
245.769164410532
  0
LINE
  5
5B0
100
AcDbEntity
  8
0-0
100
AcDbLine
  6
CONTINUOUS
370
13
 10
65.8207861418774
 20
227.769164410532
 11
65.8207861418775
 21
237.019164410532
  0
LINE
  5
5B1
100
AcDbEntity
  8
0-0
100
AcDbLine
  6
CONTINUOUS
370
13
 10
65.8207861418775
 20
244.519164410532
 11
65.8207861418775
 21
245.769164410532
  0
LINE
  5
5B2
100
AcDbEntity
  8
0-0
100
AcDbLine
  6
CONTINUOUS
370
13
 10
39.8207861418775
 20
244.519164410532
 11
46.8207861418775
 21
244.519164410532
  0
LINE
  5
5B3
100
AcDbEntity
  8
0-0
100
AcDbLine
  6
CONTINUOUS
370
13
 10
55.8207861418775
 20
244.519164410532
 11
65.8207861418775
 21
244.519164410532
  0
LINE
  5
5B4
100
AcDbEntity
  8
0-0
100
AcDbLine
  6
CONTINUOUS
370
13
 10
39.8207861418775
 20
240.769164410532
 11
45.0707861418775
 21
240.769164410532
  0
LINE
  5
5B5
100
AcDbEntity
  8
0-0
100
AcDbLine
  6
CONTINUOUS
370
13
 10
57.5707861418775
 20
240.769164410532
 11
73.7172327512842
 21
240.769164410532
  0
LINE
  5
5B6
100
AcDbEntity
  8
0-0
100
AcDbLine
  6
CONTINUOUS
370
13
 10
39.8207861418775
 20
237.019164410532
 11
45.0707861418775
 21
237.019164410532
  0
LINE
  5
5B7
100
AcDbEntity
  8
0-0
100
AcDbLine
  6
CONTINUOUS
370
13
 10
57.5707861418775
 20
237.019164410532
 11
65.8207861418775
 21
237.019164410532
  0
LINE
  5
5B8
100
AcDbEntity
  8
0-0
100
AcDbLine
  6
CONTINUOUS
370
13
 10
46.8207861418775
 20
245.769164410532
 11
46.8207861418775
 21
244.519164410532
  0
LINE
  5
5B9
100
AcDbEntity
  8
0-0
100
AcDbLine
  6
CONTINUOUS
370
13
 10
55.8207861418775
 20
245.769164410532
 11
55.8207861418775
 21
244.519164410532
  0
LINE
  5
5BA
100
AcDbEntity
  8
0-0
100
AcDbLine
  6
CONTINUOUS
370
13
 10
73.6448063444129
 20
240.769164410532
 11
65.8207861418775
 21
237.019164410532
  0
LINE
  5
5BB
100
AcDbEntity
  8
0-0
100
AcDbLine
  6
CONTINUOUS
370
13
 10
73.6448063444128
 20
240.769164410532
 11
65.8207861418775
 21
244.519164410532
  0
LINE
  5
5BC
100
AcDbEntity
  8
0-0
100
AcDbLine
  6
CONTINUOUS
370
13
 10
74.3207861418775
 20
227.769164410532
 11
56.5707861418775
 21
227.769164410532
  0
LINE
  5
5BD
100
AcDbEntity
  8
0-0
100
AcDbLine
  6
CONTINUOUS
370
13
 10
46.0707861418775
 20
227.769164410532
 11
39.8207861418775
 21
227.769164410532
  0
CIRCLE
  5
5BE
100
AcDbEntity
  8
0-0
100
AcDbCircle
  6
DIVIDE
370
13
 10
51.3207861418775
 20
232.769164410532
 40
2.5
  0
LINE
  5
5BF
100
AcDbEntity
  8
0-0
100
AcDbLine
  6
DIVIDE
370
13
 10
41.3207861418775
 20
226.519164410532
 11
55.3207861418775
 21
226.519164410532
  0
LINE
  5
5C0
100
AcDbEntity
  8
0-0
100
AcDbLine
  6
DIVIDE
370
13
 10
55.3207861418775
 20
239.019164410532
 11
41.3207861418775
 21
239.019164410532
  0
LINE
  5
5C1
100
AcDbEntity
  8
0-0
100
AcDbLine
  6
DIVIDE
370
13
 10
57.3207861418775
 20
228.519164410532
 11
57.3207861418775
 21
237.019164410532
  0
LINE
  5
5C2
100
AcDbEntity
  8
0-0
100
AcDbLine
  6
DIVIDE
370
13
 10
39.3207861418775
 20
228.519164410532
 11
39.3207861418775
 21
237.019164410532
  0
LINE
  5
5C3
100
AcDbEntity
  8
0-0
100
AcDbLine
  6
DIVIDE
370
13
 10
55.3207861418775
 20
239.019164410532
 11
57.3207861418775
 21
237.019164410532
  0
LINE
  5
5C4
100
AcDbEntity
  8
0-0
100
AcDbLine
  6
DIVIDE
370
13
 10
41.3207861418775
 20
239.019164410532
 11
39.3207861418775
 21
237.019164410532
  0
LINE
  5
5C5
100
AcDbEntity
  8
0-0
100
AcDbLine
  6
DIVIDE
370
13
 10
39.3207861418775
 20
228.519164410532
 11
41.3207861418775
 21
226.519164410532
  0
LINE
  5
5C6
100
AcDbEntity
  8
0-0
100
AcDbLine
  6
DIVIDE
370
13
 10
55.3207861418775
 20
226.519164410532
 11
57.3207861418775
 21
228.519164410532
  0
LINE
  5
5C7
100
AcDbEntity
  8
0-0
100
AcDbLine
  6
DIVIDE
370
13
 10
41.3207861418775
 20
239.019164410532
 11
39.3207861418775
 21
237.019164410532
  0
LINE
  5
5C8
100
AcDbEntity
  8
0-0
100
AcDbLine
  6
DIVIDE
370
13
 10
55.3207861418775
 20
239.019164410532
 11
57.3207861418775
 21
237.019164410532
  0
LINE
  5
5C9
100
AcDbEntity
  8
0-0
100
AcDbLine
  6
DIVIDE
370
13
 10
57.3207861418775
 20
228.519164410532
 11
55.3207861418775
 21
226.519164410532
  0
LINE
  5
5CA
100
AcDbEntity
  8
0-0
100
AcDbLine
  6
DIVIDE
370
13
 10
41.3207861418775
 20
226.519164410532
 11
39.3207861418775
 21
228.519164410532
  0
CIRCLE
  5
5CB
100
AcDbEntity
  8
0-0
100
AcDbCircle
  6
DIVIDE
370
13
 10
89.3207861418775
 20
122.223128609737
 40
4
  0
LINE
  5
5CC
100
AcDbEntity
  8
0-0
100
AcDbLine
  6
CONTINUOUS
370
13
 10
107.820786141877
 20
119.723128609738
 11
104.820786141877
 21
116.723128609738
  0
LINE
  5
5CD
100
AcDbEntity
  8
0-0
100
AcDbLine
  6
CONTINUOUS
370
13
 10
107.820786141877
 20
178.723128609737
 11
104.820786141877
 21
181.723128609737
  0
ARC
  5
5CE
100
AcDbEntity
  8
0-0
100
AcDbCircle
  6
CONTINUOUS
370
13
 10
102.820786141877
 20
149.223128609738
 40
3.75
100
AcDbArc
 50
-82.3377443392322
 51
82.3377443392317
  0
CIRCLE
  5
5CF
100
AcDbEntity
  8
0-0
100
AcDbCircle
  6
CONTINUOUS
370
13
 10
89.3207861418775
 20
125.223128609738
 40
4
  0
LINE
  5
5D0
100
AcDbEntity
  8
0-0
100
AcDbLine
  6
CONTINUOUS
370
13
 10
104.820786141878
 20
116.723128609738
 11
39.8207861418775
 21
116.723128609738
  0
LINE
  5
5D1
100
AcDbEntity
  8
0-0
100
AcDbLine
  6
CONTINUOUS
370
13
 10
104.820786141877
 20
181.723128609737
 11
39.8207861418775
 21
181.723128609738
  0
LINE
  5
5D2
100
AcDbEntity
  8
0-0
100
AcDbLine
  6
CONTINUOUS
370
13
 10
39.8207861418775
 20
181.723128609738
 11
39.8207861418775
 21
116.723128609738
  0
LINE
  5
5D3
100
AcDbEntity
  8
0-0
100
AcDbLine
  6
CONTINUOUS
370
13
 10
107.320786141877
 20
119.930235390924
 11
104.613679360691
 21
117.223128609738
  0
LINE
  5
5D4
100
AcDbEntity
  8
0-0
100
AcDbLine
  6
CONTINUOUS
370
13
 10
107.320786141877
 20
178.516021828551
 11
104.613679360691
 21
181.223128609737
  0
ARC
  5
5D5
100
AcDbEntity
  8
0-0
100
AcDbCircle
  6
CONTINUOUS
370
13
 10
75.3207861418775
 20
149.223128609737
 40
23
100
AcDbArc
 50
-116.96238899748
 51
-69.6455936017628
  0
ARC
  5
5D6
100
AcDbEntity
  8
0-0
100
AcDbCircle
  6
CONTINUOUS
370
13
 10
75.3207861418775
 20
149.223128609737
 40
23
100
AcDbArc
 50
72.7130547215596
 51
116.962388997479
  0
LINE
  5
5D7
100
AcDbEntity
  8
0-0
100
AcDbLine
  6
CONTINUOUS
370
13
 10
107.820786141877
 20
178.723128609737
 11
107.820786141877
 21
177.723128609737
  0
LINE
  5
5D8
100
AcDbEntity
  8
0-0
100
AcDbLine
  6
CONTINUOUS
370
13
 10
107.820786141877
 20
168.723128609737
 11
107.820786141877
 21
119.723128609738
  0
LINE
  5
5D9
100
AcDbEntity
  8
0-0
100
AcDbLine
  6
CONTINUOUS
370
13
 10
107.320786141877
 20
178.516021828551
 11
107.320786141877
 21
177.723128609737
  0
LINE
  5
5DA
100
AcDbEntity
  8
0-0
100
AcDbLine
  6
CONTINUOUS
370
13
 10
107.320786141877
 20
168.723128609737
 11
107.320786141877
 21
119.930235390924
  0
LINE
  5
5DB
100
AcDbEntity
  8
0-0
100
AcDbLine
  6
CONTINUOUS
370
13
 10
104.613679360691
 20
181.223128609737
 11
44.5707861418774
 21
181.223128609738
  0
LINE
  5
5DC
100
AcDbEntity
  8
0-0
100
AcDbLine
  6
CONTINUOUS
370
13
 10
44.5707861418774
 20
181.223128609738
 11
40.3207861418775
 21
181.223128609738
  0
LINE
  5
5DD
100
AcDbEntity
  8
0-0
100
AcDbLine
  6
CONTINUOUS
370
13
 10
104.613679360691
 20
117.223128609738
 11
44.5707861418774
 21
117.223128609738
  0
LINE
  5
5DE
100
AcDbEntity
  8
0-0
100
AcDbLine
  6
CONTINUOUS
370
13
 10
44.5707861418774
 20
117.223128609738
 11
40.3207861418775
 21
117.223128609738
  0
LINE
  5
5DF
100
AcDbEntity
  8
0-0
100
AcDbLine
  6
CONTINUOUS
370
13
 10
40.3207861418775
 20
181.223128609738
 11
40.3207861418775
 21
169.223128609738
  0
LINE
  5
5E0
100
AcDbEntity
  8
0-0
100
AcDbLine
  6
CONTINUOUS
370
13
 10
40.3207861418775
 20
129.223128609738
 11
40.3207861418775
 21
117.223128609738
  0
LINE
  5
5E1
100
AcDbEntity
  8
0-0
100
AcDbLine
  6
CONTINUOUS
370
13
 10
45.0707861418775
 20
180.623128609738
 11
57.5707861418775
 21
180.623128609738
  0
LINE
  5
5E2
100
AcDbEntity
  8
0-0
100
AcDbLine
  6
CONTINUOUS
370
13
 10
46.8207861418775
 20
164.623128609738
 11
55.8207861418775
 21
164.623128609738
  0
LINE
  5
5E3
100
AcDbEntity
  8
0-0
100
AcDbLine
  6
CONTINUOUS
370
13
 10
46.8207861418775
 20
169.223128609738
 11
46.8207861418775
 21
164.623128609738
  0
LINE
  5
5E4
100
AcDbEntity
  8
0-0
100
AcDbLine
  6
CONTINUOUS
370
13
 10
55.8207861418775
 20
169.223128609738
 11
55.8207861418775
 21
164.623128609738
  0
LINE
  5
5E5
100
AcDbEntity
  8
0-0
100
AcDbLine
  6
CONTINUOUS
370
13
 10
45.0707861418775
 20
169.223128609738
 11
46.8207861418775
 21
169.223128609738
  0
LINE
  5
5E6
100
AcDbEntity
  8
0-0
100
AcDbLine
  6
CONTINUOUS
370
13
 10
45.0707861418775
 20
180.623128609738
 11
45.0707861418775
 21
169.223128609738
  0
LINE
  5
5E7
100
AcDbEntity
  8
0-0
100
AcDbLine
  6
CONTINUOUS
370
13
 10
47.0707861418775
 20
180.623128609738
 11
47.0707861418775
 21
164.623128609738
  0
LINE
  5
5E8
100
AcDbEntity
  8
0-0
100
AcDbLine
  6
CONTINUOUS
370
13
 10
55.5707861418775
 20
180.623128609738
 11
55.5707861418775
 21
164.623128609738
  0
LINE
  5
5E9
100
AcDbEntity
  8
0-0
100
AcDbLine
  6
CONTINUOUS
370
13
 10
57.5707861418775
 20
180.623128609738
 11
57.5707861418775
 21
169.223128609738
  0
ARC
  5
5EA
100
AcDbEntity
  8
0-0
100
AcDbCircle
  6
CONTINUOUS
370
13
 10
75.3207861418775
 20
149.223128609738
 40
16
100
AcDbArc
 50
93.583321698472
 51
-93.583321698472
  0
LINE
  5
5EB
100
AcDbEntity
  8
0-0
100
AcDbLine
  6
CONTINUOUS
370
13
 10
39.8207861418775
 20
169.223128609738
 11
39.8207861418775
 21
129.223128609738
  0
CIRCLE
  5
5EC
100
AcDbEntity
  8
0-0
100
AcDbCircle
  6
CONTINUOUS
370
13
 10
43.8207861418775
 20
160.223128609738
 40
3
  0
CIRCLE
  5
5ED
100
AcDbEntity
  8
0-0
100
AcDbCircle
  6
CONTINUOUS
370
13
 10
43.8207861418775
 20
138.223128609738
 40
3
  0
CIRCLE
  5
5EE
100
AcDbEntity
  8
0-0
100
AcDbCircle
  6
CONTINUOUS
370
13
 10
43.8207861418775
 20
160.223128609738
 40
1.6
  0
CIRCLE
  5
5EF
100
AcDbEntity
  8
0-0
100
AcDbCircle
  6
CONTINUOUS
370
13
 10
43.8207861418775
 20
138.223128609738
 40
1.6
  0
LINE
  5
5F0
100
AcDbEntity
  8
0-0
100
AcDbLine
  6
CONTINUOUS
370
13
 10
74.3207861418775
 20
165.702313329566
 11
65.8207861418775
 21
169.223128609738
  0
LINE
  5
5F1
100
AcDbEntity
  8
0-0
100
AcDbLine
  6
CONTINUOUS
370
13
 10
74.3207861418775
 20
165.692488321073
 11
74.3207861418775
 21
165.191848032409
  0
LINE
  5
5F2
100
AcDbEntity
  8
0-0
100
AcDbLine
  6
CONTINUOUS
370
13
 10
74.3207861418775
 20
132.753768898402
 11
74.3207861418775
 21
133.254409187066
  0
LINE
  5
5F3
100
AcDbEntity
  8
0-0
100
AcDbLine
  6
CONTINUOUS
370
13
 10
74.3207861418775
 20
132.743943889909
 11
65.8207861418774
 21
129.223128609738
  0
LINE
  5
5F4
100
AcDbEntity
  8
0-0
100
AcDbLine
  6
CONTINUOUS
370
13
 10
46.8207861418775
 20
169.223128609738
 11
46.8207861418775
 21
163.423128609738
  0
LINE
  5
5F5
100
AcDbEntity
  8
0-0
100
AcDbLine
  6
CONTINUOUS
370
13
 10
55.8207861418775
 20
169.223128609738
 11
55.8207861418775
 21
163.423128609738
  0
LINE
  5
5F6
100
AcDbEntity
  8
0-0
100
AcDbLine
  6
CONTINUOUS
370
13
 10
46.8207861418775
 20
135.023128609738
 11
46.8207861418775
 21
129.223128609738
  0
LINE
  5
5F7
100
AcDbEntity
  8
0-0
100
AcDbLine
  6
CONTINUOUS
370
13
 10
55.8207861418775
 20
135.023128609738
 11
55.8207861418775
 21
129.223128609738
  0
LINE
  5
5F8
100
AcDbEntity
  8
0-0
100
AcDbLine
  6
CONTINUOUS
370
13
 10
46.8207861418775
 20
129.223128609738
 11
39.8207861418775
 21
129.223128609738
  0
LINE
  5
5F9
100
AcDbEntity
  8
0-0
100
AcDbLine
  6
CONTINUOUS
370
13
 10
65.8207861418774
 20
129.223128609738
 11
55.8207861418775
 21
129.223128609738
  0
LINE
  5
5FA
100
AcDbEntity
  8
0-0
100
AcDbLine
  6
CONTINUOUS
370
13
 10
46.8207861418775
 20
169.223128609738
 11
39.8207861418775
 21
169.223128609738
  0
LINE
  5
5FB
100
AcDbEntity
  8
0-0
100
AcDbLine
  6
CONTINUOUS
370
13
 10
65.8207861418775
 20
169.223128609738
 11
55.8207861418775
 21
169.223128609738
  0
LINE
  5
5FC
100
AcDbEntity
  8
0-0
100
AcDbLine
  6
CONTINUOUS
370
13
 10
55.8207861418775
 20
135.023128609738
 11
46.8207861418775
 21
135.023128609738
  0
LINE
  5
5FD
100
AcDbEntity
  8
0-0
100
AcDbLine
  6
CONTINUOUS
370
13
 10
55.8207861418775
 20
163.423128609738
 11
46.8207861418775
 21
163.423128609738
  0
LINE
  5
5FE
100
AcDbEntity
  8
0-0
100
AcDbLine
  6
CONTINUOUS
370
13
 10
45.0707861418775
 20
117.823128609738
 11
57.5707861418775
 21
117.823128609738
  0
LINE
  5
5FF
100
AcDbEntity
  8
0-0
100
AcDbLine
  6
CONTINUOUS
370
13
 10
46.8207861418775
 20
133.823128609738
 11
55.8207861418775
 21
133.823128609738
  0
LINE
  5
600
100
AcDbEntity
  8
0-0
100
AcDbLine
  6
CONTINUOUS
370
13
 10
46.8207861418775
 20
129.223128609738
 11
46.8207861418775
 21
133.823128609738
  0
LINE
  5
601
100
AcDbEntity
  8
0-0
100
AcDbLine
  6
CONTINUOUS
370
13
 10
55.8207861418775
 20
129.223128609738
 11
55.8207861418775
 21
133.823128609738
  0
LINE
  5
602
100
AcDbEntity
  8
0-0
100
AcDbLine
  6
CONTINUOUS
370
13
 10
55.8207861418775
 20
129.223128609738
 11
57.5707861418775
 21
129.223128609738
  0
LINE
  5
603
100
AcDbEntity
  8
0-0
100
AcDbLine
  6
CONTINUOUS
370
13
 10
45.0707861418775
 20
129.223128609738
 11
46.8207861418775
 21
129.223128609738
  0
LINE
  5
604
100
AcDbEntity
  8
0-0
100
AcDbLine
  6
CONTINUOUS
370
13
 10
45.0707861418775
 20
117.823128609738
 11
45.0707861418775
 21
129.223128609738
  0
LINE
  5
605
100
AcDbEntity
  8
0-0
100
AcDbLine
  6
CONTINUOUS
370
13
 10
47.0707861418775
 20
117.823128609738
 11
47.0707861418775
 21
133.823128609738
  0
LINE
  5
606
100
AcDbEntity
  8
0-0
100
AcDbLine
  6
CONTINUOUS
370
13
 10
55.5707861418775
 20
117.823128609738
 11
55.5707861418775
 21
133.823128609738
  0
LINE
  5
607
100
AcDbEntity
  8
0-0
100
AcDbLine
  6
CONTINUOUS
370
13
 10
57.5707861418775
 20
117.823128609738
 11
57.5707861418775
 21
129.223128609738
  0
LINE
  5
608
100
AcDbEntity
  8
0-0
100
AcDbLine
  6
DIVIDE
370
13
 10
45.0707861418775
 20
186.623128609738
 11
57.5707861418775
 21
186.623128609738
  0
LINE
  5
609
100
AcDbEntity
  8
0-0
100
AcDbLine
  6
DIVIDE
370
13
 10
46.8207861418775
 20
170.623128609738
 11
55.8207861418775
 21
170.623128609738
  0
LINE
  5
60A
100
AcDbEntity
  8
0-0
100
AcDbLine
  6
DIVIDE
370
13
 10
46.8207861418775
 20
175.223128609738
 11
46.8207861418775
 21
170.623128609738
  0
LINE
  5
60B
100
AcDbEntity
  8
0-0
100
AcDbLine
  6
DIVIDE
370
13
 10
55.8207861418775
 20
175.223128609738
 11
55.8207861418775
 21
170.623128609738
  0
LINE
  5
60C
100
AcDbEntity
  8
0-0
100
AcDbLine
  6
DIVIDE
370
13
 10
55.8207861418775
 20
175.223128609738
 11
57.5707861418775
 21
175.223128609738
  0
LINE
  5
60D
100
AcDbEntity
  8
0-0
100
AcDbLine
  6
DIVIDE
370
13
 10
45.0707861418775
 20
175.223128609738
 11
46.8207861418775
 21
175.223128609738
  0
LINE
  5
60E
100
AcDbEntity
  8
0-0
100
AcDbLine
  6
DIVIDE
370
13
 10
45.0707861418775
 20
186.623128609738
 11
45.0707861418775
 21
175.223128609738
  0
LINE
  5
60F
100
AcDbEntity
  8
0-0
100
AcDbLine
  6
DIVIDE
370
13
 10
57.5707861418775
 20
186.623128609738
 11
57.5707861418775
 21
175.223128609738
  0
LINE
  5
610
100
AcDbEntity
  8
0-0
100
AcDbLine
  6
DIVIDE
370
13
 10
45.0707861418775
 20
111.823128609738
 11
57.5707861418775
 21
111.823128609738
  0
LINE
  5
611
100
AcDbEntity
  8
0-0
100
AcDbLine
  6
DIVIDE
370
13
 10
46.8207861418775
 20
127.823128609738
 11
55.8207861418775
 21
127.823128609738
  0
LINE
  5
612
100
AcDbEntity
  8
0-0
100
AcDbLine
  6
DIVIDE
370
13
 10
46.8207861418775
 20
123.223128609738
 11
46.8207861418775
 21
127.823128609738
  0
LINE
  5
613
100
AcDbEntity
  8
0-0
100
AcDbLine
  6
DIVIDE
370
13
 10
55.8207861418775
 20
123.223128609738
 11
55.8207861418775
 21
127.823128609738
  0
LINE
  5
614
100
AcDbEntity
  8
0-0
100
AcDbLine
  6
DIVIDE
370
13
 10
55.8207861418775
 20
123.223128609738
 11
57.5707861418775
 21
123.223128609738
  0
LINE
  5
615
100
AcDbEntity
  8
0-0
100
AcDbLine
  6
DIVIDE
370
13
 10
45.0707861418775
 20
123.223128609738
 11
46.8207861418775
 21
123.223128609738
  0
LINE
  5
616
100
AcDbEntity
  8
0-0
100
AcDbLine
  6
DIVIDE
370
13
 10
45.0707861418775
 20
111.823128609738
 11
45.0707861418775
 21
123.223128609738
  0
LINE
  5
617
100
AcDbEntity
  8
0-0
100
AcDbLine
  6
DIVIDE
370
13
 10
57.5707861418775
 20
111.823128609738
 11
57.5707861418775
 21
123.223128609738
  0
LINE
  5
618
100
AcDbEntity
  8
0-0
100
AcDbLine
  6
CONTINUOUS
370
13
 10
301.264340671151
 20
118.223128609737
 11
301.264340671151
 21
126.223128609738
  0
LINE
  5
619
100
AcDbEntity
  8
0-0
100
AcDbLine
  6
CONTINUOUS
370
13
 10
301.764340671151
 20
181.723128609737
 11
310.264340671151
 21
181.723128609738
  0
LINE
  5
61A
100
AcDbEntity
  8
0-0
100
AcDbLine
  6
CONTINUOUS
370
13
 10
301.764340671151
 20
181.723128609737
 11
301.264340671151
 21
181.223128609737
  0
LINE
  5
61B
100
AcDbEntity
  8
0-0
100
AcDbLine
  6
CONTINUOUS
370
13
 10
301.264340671151
 20
181.223128609737
 11
301.264340671151
 21
175.726698446014
  0
LINE
  5
61C
100
AcDbEntity
  8
0-0
100
AcDbLine
  6
CONTINUOUS
370
13
 10
301.264340671151
 20
163.592808585926
 11
301.264340671151
 21
140.323006673537
  0
LINE
  5
61D
100
AcDbEntity
  8
0-0
100
AcDbLine
  6
CONTINUOUS
370
13
 10
301.264340671151
 20
136.592808585925
 11
301.264340671151
 21
126.223128609738
  0
LINE
  5
61E
100
AcDbEntity
  8
0-0
100
AcDbLine
  6
CONTINUOUS
370
13
 10
283.264340671151
 20
180.623128609738
 11
301.264340671151
 21
180.623128609738
  0
LINE
  5
61F
100
AcDbEntity
  8
0-0
100
AcDbLine
  6
CONTINUOUS
370
13
 10
283.264340671151
 20
164.623128609738
 11
287.239472932339
 21
164.623128609738
  0
LINE
  5
620
100
AcDbEntity
  8
0-0
100
AcDbLine
  6
CONTINUOUS
370
13
 10
283.264340671151
 20
169.223128609738
 11
287.266266529592
 21
169.223128609738
  0
LINE
  5
621
100
AcDbEntity
  8
0-0
100
AcDbLine
  6
CONTINUOUS
370
13
 10
299.264340671151
 20
180.623128609738
 11
299.264340671151
 21
179.254246123743
  0
LINE
  5
622
100
AcDbEntity
  8
0-0
100
AcDbLine
  6
CONTINUOUS
370
13
 10
301.264340671151
 20
180.623128609738
 11
301.264340671151
 21
179.238960617215
  0
LINE
  5
623
100
AcDbEntity
  8
0-0
100
AcDbLine
  6
CONTINUOUS
370
13
 10
285.264340671151
 20
180.623128609738
 11
285.264340671151
 21
169.223128609738
  0
LINE
  5
624
100
AcDbEntity
  8
0-0
100
AcDbLine
  6
CONTINUOUS
370
13
 10
283.264340671151
 20
180.623128609738
 11
283.264340671151
 21
164.623128609738
  0
LINE
  5
625
100
AcDbEntity
  8
0-0
100
AcDbLine
  6
CONTINUOUS
370
13
 10
283.264340671151
 20
117.823128609738
 11
301.264340671151
 21
117.823128609738
  0
LINE
  5
626
100
AcDbEntity
  8
0-0
100
AcDbLine
  6
CONTINUOUS
370
13
 10
283.264340671151
 20
133.823128609738
 11
283.664822296645
 21
133.823128609738
  0
LINE
  5
627
100
AcDbEntity
  8
0-0
100
AcDbLine
  6
CONTINUOUS
370
13
 10
299.264340671151
 20
117.823128609738
 11
299.264340671151
 21
119.235150781424
  0
LINE
  5
628
100
AcDbEntity
  8
0-0
100
AcDbLine
  6
CONTINUOUS
370
13
 10
301.264340671151
 20
117.823128609738
 11
301.264340671151
 21
119.222336208285
  0
LINE
  5
629
100
AcDbEntity
  8
0-0
100
AcDbLine
  6
CONTINUOUS
370
13
 10
283.264340671151
 20
117.823128609738
 11
283.264340671151
 21
133.823128609738
  0
LINE
  5
62A
100
AcDbEntity
  8
0-0
100
AcDbLine
  6
DIVIDE
370
13
 10
283.264340671151
 20
186.623128609738
 11
301.264340671151
 21
186.623128609738
  0
LINE
  5
62B
100
AcDbEntity
  8
0-0
100
AcDbLine
  6
DIVIDE
370
13
 10
283.264340671151
 20
170.623128609738
 11
287.239472932339
 21
170.623128609738
  0
LINE
  5
62C
100
AcDbEntity
  8
0-0
100
AcDbLine
  6
DIVIDE
370
13
 10
301.264340671151
 20
186.623128609738
 11
301.264340671151
 21
179.343559812999
  0
LINE
  5
62D
100
AcDbEntity
  8
0-0
100
AcDbLine
  6
DIVIDE
370
13
 10
283.264340671151
 20
186.623128609738
 11
283.264340671151
 21
170.623128609738
  0
LINE
  5
62E
100
AcDbEntity
  8
0-0
100
AcDbLine
  6
DIVIDE
370
13
 10
283.264340671151
 20
111.823128609738
 11
301.264340671151
 21
111.823128609738
  0
LINE
  5
62F
100
AcDbEntity
  8
0-0
100
AcDbLine
  6
DIVIDE
370
13
 10
301.264340671151
 20
111.823128609738
 11
301.264340671151
 21
116.222336208285
  0
LINE
  5
630
100
AcDbEntity
  8
0-0
100
AcDbLine
  6
DIVIDE
370
13
 10
283.264340671151
 20
111.823128609738
 11
283.264340671151
 21
127.823128609738
  0
LINE
  5
631
100
AcDbEntity
  8
0-0
100
AcDbLine
  6
CONTINUOUS
370
13
 10
285.264340671151
 20
117.823128609738
 11
285.264340671151
 21
122.15134882103
  0
LINE
  5
632
100
AcDbEntity
  8
0-0
100
AcDbLine
  6
CONTINUOUS
370
13
 10
285.264340671151
 20
128.294908398445
 11
285.264340671151
 21
129.223128609738
  0
LINE
  5
633
100
AcDbEntity
  8
0-0
100
AcDbLine
  6
CONTINUOUS
370
13
 10
283.264340671151
 20
129.223128609738
 11
286.192560882444
 21
129.223128609738
  0
LINE
  5
634
100
AcDbEntity
  8
0-0
100
AcDbLine
  6
CONTINUOUS
370
13
 10
287.064340671151
 20
129.223128609738
 11
287.272541804722
 21
129.223128609738
  0
ENDSEC
  0
SECTION
  2
OBJECTS
  0
DICTIONARY
  5
635
100
AcDbDictionary
  3
ACAD_GROUP
350
636
  3
ACAD_MLINESTYLE
350
637
  0
DICTIONARY
  5
636
102
{ACAD_REACTORS
330
635
102
}
100
AcDbDictionary
  0
DICTIONARY
  5
637
102
{ACAD_REACTORS
330
635
102
}
100
AcDbDictionary
  3
STANDARD
350
638
  0
MLINESTYLE
  5
638
102
{ACAD_REACTORS
330
637
102
}
100
AcDbMlineStyle
  2
Standard
 70
     0
  3

 62
     0
 51
90.0
 52
90.0
 71
     2
 49
0.5
 62
   256
  6
ByLayer
 49
-0.5
 62
   256
  6
ByLayer
  0
ENDSEC
  0
EOF
