999
Outputted By AR_CAD Ver.1.7.0
  0
SECTION
  2
HEADER
  9
$ACADVER
  1
AC1014
  9
$DWGCODEPAGE
  3
ANSI_932
  9
$EXTMIN
 10
0
 20
0
  9
$EXTMAX
 10
297
 20
210
  9
$INSBASE
 10
0.0
 20
0.0
 30
0.0
  9
$HANDLING
 70
     1
  9
$HANDSEED
  5
691
  9
$LTSCALE
 40
1
  0
ENDSEC
  0
SECTION
  2
TABLES
  0
TABLE
  2
VPORT
  5
1
100
AcDbSymbolTable
 70
     1
  0
VPORT
  5
30
100
AcDbSymbolTableRecord
100
AcDbViewportTableRecord
  2
*ACTIVE
 70
     0
 10
0.0
 20
0.0
 11
1.0
 21
1.0
 12
210.0
 22
148.5
 13
0.0
 23
0.0
 14
10.0
 24
10.0
 15
10.0
 25
10.0
 16
0.0
 26
0.0
 36
1.0
 17
0.0
 27
0.0
 37
0.0
 40
302.94
 41
1.333333
 42
50.0
 43
0.0
 44
0.0
 50
0.0
 51
0.0
 71
     0
 72
   100
 73
     1
 74
     1
 75
     0
 76
     0
 77
     0
 78
     0
  0
ENDTAB
  0
TABLE
  2
LTYPE
  5
2
100
AcDbSymbolTable
 70
     7
  0
LTYPE
  5
31
100
AcDbSymbolTableRecord
100
AcDbLinetypeTableRecord
  2
BYBLOCK
 70
    64
 3

 72
    65
 73
    0
 40
    0
  0
LTYPE
  5
32
100
AcDbSymbolTableRecord
100
AcDbLinetypeTableRecord
  2
BYLAYER
 70
    64
 3

 72
    65
 73
    0
 40
    0
  0
LTYPE
  5
33
100
AcDbSymbolTableRecord
100
AcDbLinetypeTableRecord
  2
CONTINUOUS
 70
    64
 3
CONTINUOUS
 72
    65
 73
    0
 40
    0
  0
LTYPE
  5
34
100
AcDbSymbolTableRecord
100
AcDbLinetypeTableRecord
  2
DASHED
 70
    64
 3

 72
    65
 73
    2
 40
    3.5
 49
    2.917
 74
    0
 49
    -0.583
 74
    0
  0
LTYPE
  5
35
100
AcDbSymbolTableRecord
100
AcDbLinetypeTableRecord
  2
DOT
 70
    64
 3

 72
    65
 73
    2
 40
    0.5
 49
    0.25
 74
    0
 49
    -0.25
 74
    0
  0
LTYPE
  5
36
100
AcDbSymbolTableRecord
100
AcDbLinetypeTableRecord
  2
DASHDOT
 70
    64
 3

 72
    65
 73
    4
 40
    3.5
 49
    1.84147386461011
 74
    0
 49
    -0.552842045129963
 74
    0
 49
    0.552842045129963
 74
    0
 49
    -0.552842045129963
 74
    0
  0
LTYPE
  5
37
100
AcDbSymbolTableRecord
100
AcDbLinetypeTableRecord
  2
DIVIDE
 70
    64
 3

 72
    65
 73
    6
 40
    3.5
 49
    1.4
 74
    0
 49
    -0.42
 74
    0
 49
    0.42
 74
    0
 49
    -0.42
 74
    0
 49
    0.42
 74
    0
 49
    -0.42
 74
    0
  0
LTYPE
  5
38
100
AcDbSymbolTableRecord
100
AcDbLinetypeTableRecord
  2
HIDDEN
 70
    64
 3

 72
    65
 73
    2
 40
    4
 49
    2
 74
    0
 49
    -2
 74
    0
  0
ENDTAB
  0
TABLE
  2
LAYER
  5
3
100
AcDbSymbolTable
 70
   257
  0
LAYER
  5
39
100
AcDbSymbolTableRecord
100
AcDbLayerTableRecord
  2
画層0
 70
    0
 62
250
  6
CONTINUOUS
  0
LAYER
  5
3A
100
AcDbSymbolTableRecord
100
AcDbLayerTableRecord
  2
画層1
 70
    0
 62
3
  6
CONTINUOUS
  0
LAYER
  5
3B
100
AcDbSymbolTableRecord
100
AcDbLayerTableRecord
  2
画層2
 70
    0
 62
9
  6
CONTINUOUS
  0
LAYER
  5
3C
100
AcDbSymbolTableRecord
100
AcDbLayerTableRecord
  2
画層3
 70
    0
 62
250
  6
CONTINUOUS
  0
LAYER
  5
3D
100
AcDbSymbolTableRecord
100
AcDbLayerTableRecord
  2
画層4
 70
    0
 62
6
  6
CONTINUOUS
  0
LAYER
  5
3E
100
AcDbSymbolTableRecord
100
AcDbLayerTableRecord
  2
画層5
 70
    0
 62
1
  6
CONTINUOUS
  0
LAYER
  5
3F
100
AcDbSymbolTableRecord
100
AcDbLayerTableRecord
  2
画層6
 70
    0
 62
7
  6
CONTINUOUS
  0
LAYER
  5
40
100
AcDbSymbolTableRecord
100
AcDbLayerTableRecord
  2
画層7
 70
    0
 62
51
  6
CONTINUOUS
  0
LAYER
  5
41
100
AcDbSymbolTableRecord
100
AcDbLayerTableRecord
  2
画層8
 70
    0
 62
61
  6
CONTINUOUS
  0
LAYER
  5
42
100
AcDbSymbolTableRecord
100
AcDbLayerTableRecord
  2
画層9
 70
    0
 62
111
  6
CONTINUOUS
  0
LAYER
  5
43
100
AcDbSymbolTableRecord
100
AcDbLayerTableRecord
  2
画層10
 70
    0
 62
91
  6
CONTINUOUS
  0
LAYER
  5
44
100
AcDbSymbolTableRecord
100
AcDbLayerTableRecord
  2
画層11
 70
    0
 62
131
  6
CONTINUOUS
  0
LAYER
  5
45
100
AcDbSymbolTableRecord
100
AcDbLayerTableRecord
  2
画層12
 70
    0
 62
161
  6
CONTINUOUS
  0
LAYER
  5
46
100
AcDbSymbolTableRecord
100
AcDbLayerTableRecord
  2
画層13
 70
    0
 62
5
  6
CONTINUOUS
  0
LAYER
  5
47
100
AcDbSymbolTableRecord
100
AcDbLayerTableRecord
  2
画層14
 70
    0
 62
7
  6
CONTINUOUS
  0
LAYER
  5
48
100
AcDbSymbolTableRecord
100
AcDbLayerTableRecord
  2
画層15
 70
    0
 62
11
  6
CONTINUOUS
  0
LAYER
  5
49
100
AcDbSymbolTableRecord
100
AcDbLayerTableRecord
  2
画層16
 70
    0
 62
250
  6
CONTINUOUS
  0
LAYER
  5
4A
100
AcDbSymbolTableRecord
100
AcDbLayerTableRecord
  2
画層17
 70
    0
 62
70
  6
CONTINUOUS
  0
LAYER
  5
4B
100
AcDbSymbolTableRecord
100
AcDbLayerTableRecord
  2
画層18
 70
    0
 62
211
  6
CONTINUOUS
  0
LAYER
  5
4C
100
AcDbSymbolTableRecord
100
AcDbLayerTableRecord
  2
画層19
 70
    0
 62
137
  6
CONTINUOUS
  0
LAYER
  5
4D
100
AcDbSymbolTableRecord
100
AcDbLayerTableRecord
  2
画層20
 70
    0
 62
4
  6
CONTINUOUS
  0
LAYER
  5
4E
100
AcDbSymbolTableRecord
100
AcDbLayerTableRecord
  2
画層21
 70
    0
 62
131
  6
CONTINUOUS
  0
LAYER
  5
4F
100
AcDbSymbolTableRecord
100
AcDbLayerTableRecord
  2
画層22
 70
    0
 62
4
  6
CONTINUOUS
  0
LAYER
  5
50
100
AcDbSymbolTableRecord
100
AcDbLayerTableRecord
  2
画層23
 70
    0
 62
4
  6
CONTINUOUS
  0
LAYER
  5
51
100
AcDbSymbolTableRecord
100
AcDbLayerTableRecord
  2
画層24
 70
    0
 62
250
  6
CONTINUOUS
  0
LAYER
  5
52
100
AcDbSymbolTableRecord
100
AcDbLayerTableRecord
  2
画層25
 70
    0
 62
250
  6
CONTINUOUS
  0
LAYER
  5
53
100
AcDbSymbolTableRecord
100
AcDbLayerTableRecord
  2
画層26
 70
    0
 62
250
  6
CONTINUOUS
  0
LAYER
  5
54
100
AcDbSymbolTableRecord
100
AcDbLayerTableRecord
  2
画層27
 70
    0
 62
250
  6
CONTINUOUS
  0
LAYER
  5
55
100
AcDbSymbolTableRecord
100
AcDbLayerTableRecord
  2
画層28
 70
    0
 62
250
  6
CONTINUOUS
  0
LAYER
  5
56
100
AcDbSymbolTableRecord
100
AcDbLayerTableRecord
  2
画層29
 70
    0
 62
250
  6
CONTINUOUS
  0
LAYER
  5
57
100
AcDbSymbolTableRecord
100
AcDbLayerTableRecord
  2
画層30
 70
    0
 62
250
  6
CONTINUOUS
  0
LAYER
  5
58
100
AcDbSymbolTableRecord
100
AcDbLayerTableRecord
  2
画層31
 70
    0
 62
250
  6
CONTINUOUS
  0
LAYER
  5
59
100
AcDbSymbolTableRecord
100
AcDbLayerTableRecord
  2
画層32
 70
    0
 62
250
  6
CONTINUOUS
  0
LAYER
  5
5A
100
AcDbSymbolTableRecord
100
AcDbLayerTableRecord
  2
画層33
 70
    0
 62
250
  6
CONTINUOUS
  0
LAYER
  5
5B
100
AcDbSymbolTableRecord
100
AcDbLayerTableRecord
  2
画層34
 70
    0
 62
250
  6
CONTINUOUS
  0
LAYER
  5
5C
100
AcDbSymbolTableRecord
100
AcDbLayerTableRecord
  2
画層35
 70
    0
 62
250
  6
CONTINUOUS
  0
LAYER
  5
5D
100
AcDbSymbolTableRecord
100
AcDbLayerTableRecord
  2
画層36
 70
    0
 62
250
  6
CONTINUOUS
  0
LAYER
  5
5E
100
AcDbSymbolTableRecord
100
AcDbLayerTableRecord
  2
画層37
 70
    0
 62
250
  6
CONTINUOUS
  0
LAYER
  5
5F
100
AcDbSymbolTableRecord
100
AcDbLayerTableRecord
  2
画層38
 70
    0
 62
250
  6
CONTINUOUS
  0
LAYER
  5
60
100
AcDbSymbolTableRecord
100
AcDbLayerTableRecord
  2
画層39
 70
    0
 62
250
  6
CONTINUOUS
  0
LAYER
  5
61
100
AcDbSymbolTableRecord
100
AcDbLayerTableRecord
  2
画層40
 70
    0
 62
250
  6
CONTINUOUS
  0
LAYER
  5
62
100
AcDbSymbolTableRecord
100
AcDbLayerTableRecord
  2
画層41
 70
    0
 62
250
  6
CONTINUOUS
  0
LAYER
  5
63
100
AcDbSymbolTableRecord
100
AcDbLayerTableRecord
  2
画層42
 70
    0
 62
250
  6
CONTINUOUS
  0
LAYER
  5
64
100
AcDbSymbolTableRecord
100
AcDbLayerTableRecord
  2
画層43
 70
    0
 62
250
  6
CONTINUOUS
  0
LAYER
  5
65
100
AcDbSymbolTableRecord
100
AcDbLayerTableRecord
  2
画層44
 70
    0
 62
250
  6
CONTINUOUS
  0
LAYER
  5
66
100
AcDbSymbolTableRecord
100
AcDbLayerTableRecord
  2
画層45
 70
    0
 62
250
  6
CONTINUOUS
  0
LAYER
  5
67
100
AcDbSymbolTableRecord
100
AcDbLayerTableRecord
  2
画層46
 70
    0
 62
250
  6
CONTINUOUS
  0
LAYER
  5
68
100
AcDbSymbolTableRecord
100
AcDbLayerTableRecord
  2
画層47
 70
    0
 62
250
  6
CONTINUOUS
  0
LAYER
  5
69
100
AcDbSymbolTableRecord
100
AcDbLayerTableRecord
  2
画層48
 70
    0
 62
250
  6
CONTINUOUS
  0
LAYER
  5
6A
100
AcDbSymbolTableRecord
100
AcDbLayerTableRecord
  2
画層49
 70
    0
 62
250
  6
CONTINUOUS
  0
LAYER
  5
6B
100
AcDbSymbolTableRecord
100
AcDbLayerTableRecord
  2
画層50
 70
    0
 62
250
  6
CONTINUOUS
  0
LAYER
  5
6C
100
AcDbSymbolTableRecord
100
AcDbLayerTableRecord
  2
画層51
 70
    0
 62
250
  6
CONTINUOUS
  0
LAYER
  5
6D
100
AcDbSymbolTableRecord
100
AcDbLayerTableRecord
  2
画層52
 70
    0
 62
250
  6
CONTINUOUS
  0
LAYER
  5
6E
100
AcDbSymbolTableRecord
100
AcDbLayerTableRecord
  2
画層53
 70
    0
 62
250
  6
CONTINUOUS
  0
LAYER
  5
6F
100
AcDbSymbolTableRecord
100
AcDbLayerTableRecord
  2
画層54
 70
    0
 62
250
  6
CONTINUOUS
  0
LAYER
  5
70
100
AcDbSymbolTableRecord
100
AcDbLayerTableRecord
  2
画層55
 70
    0
 62
250
  6
CONTINUOUS
  0
LAYER
  5
71
100
AcDbSymbolTableRecord
100
AcDbLayerTableRecord
  2
画層56
 70
    0
 62
250
  6
CONTINUOUS
  0
LAYER
  5
72
100
AcDbSymbolTableRecord
100
AcDbLayerTableRecord
  2
画層57
 70
    0
 62
250
  6
CONTINUOUS
  0
LAYER
  5
73
100
AcDbSymbolTableRecord
100
AcDbLayerTableRecord
  2
画層58
 70
    0
 62
250
  6
CONTINUOUS
  0
LAYER
  5
74
100
AcDbSymbolTableRecord
100
AcDbLayerTableRecord
  2
画層59
 70
    0
 62
250
  6
CONTINUOUS
  0
LAYER
  5
75
100
AcDbSymbolTableRecord
100
AcDbLayerTableRecord
  2
画層60
 70
    0
 62
250
  6
CONTINUOUS
  0
LAYER
  5
76
100
AcDbSymbolTableRecord
100
AcDbLayerTableRecord
  2
画層61
 70
    0
 62
250
  6
CONTINUOUS
  0
LAYER
  5
77
100
AcDbSymbolTableRecord
100
AcDbLayerTableRecord
  2
画層62
 70
    0
 62
250
  6
CONTINUOUS
  0
LAYER
  5
78
100
AcDbSymbolTableRecord
100
AcDbLayerTableRecord
  2
画層63
 70
    0
 62
250
  6
CONTINUOUS
  0
LAYER
  5
79
100
AcDbSymbolTableRecord
100
AcDbLayerTableRecord
  2
画層64
 70
    0
 62
250
  6
CONTINUOUS
  0
LAYER
  5
7A
100
AcDbSymbolTableRecord
100
AcDbLayerTableRecord
  2
画層65
 70
    0
 62
250
  6
CONTINUOUS
  0
LAYER
  5
7B
100
AcDbSymbolTableRecord
100
AcDbLayerTableRecord
  2
画層66
 70
    0
 62
250
  6
CONTINUOUS
  0
LAYER
  5
7C
100
AcDbSymbolTableRecord
100
AcDbLayerTableRecord
  2
画層67
 70
    0
 62
250
  6
CONTINUOUS
  0
LAYER
  5
7D
100
AcDbSymbolTableRecord
100
AcDbLayerTableRecord
  2
画層68
 70
    0
 62
250
  6
CONTINUOUS
  0
LAYER
  5
7E
100
AcDbSymbolTableRecord
100
AcDbLayerTableRecord
  2
画層69
 70
    0
 62
250
  6
CONTINUOUS
  0
LAYER
  5
7F
100
AcDbSymbolTableRecord
100
AcDbLayerTableRecord
  2
画層70
 70
    0
 62
250
  6
CONTINUOUS
  0
LAYER
  5
80
100
AcDbSymbolTableRecord
100
AcDbLayerTableRecord
  2
画層71
 70
    0
 62
250
  6
CONTINUOUS
  0
LAYER
  5
81
100
AcDbSymbolTableRecord
100
AcDbLayerTableRecord
  2
画層72
 70
    0
 62
250
  6
CONTINUOUS
  0
LAYER
  5
82
100
AcDbSymbolTableRecord
100
AcDbLayerTableRecord
  2
画層73
 70
    0
 62
250
  6
CONTINUOUS
  0
LAYER
  5
83
100
AcDbSymbolTableRecord
100
AcDbLayerTableRecord
  2
画層74
 70
    0
 62
250
  6
CONTINUOUS
  0
LAYER
  5
84
100
AcDbSymbolTableRecord
100
AcDbLayerTableRecord
  2
画層75
 70
    0
 62
250
  6
CONTINUOUS
  0
LAYER
  5
85
100
AcDbSymbolTableRecord
100
AcDbLayerTableRecord
  2
画層76
 70
    0
 62
250
  6
CONTINUOUS
  0
LAYER
  5
86
100
AcDbSymbolTableRecord
100
AcDbLayerTableRecord
  2
画層77
 70
    0
 62
250
  6
CONTINUOUS
  0
LAYER
  5
87
100
AcDbSymbolTableRecord
100
AcDbLayerTableRecord
  2
画層78
 70
    0
 62
250
  6
CONTINUOUS
  0
LAYER
  5
88
100
AcDbSymbolTableRecord
100
AcDbLayerTableRecord
  2
画層79
 70
    0
 62
250
  6
CONTINUOUS
  0
LAYER
  5
89
100
AcDbSymbolTableRecord
100
AcDbLayerTableRecord
  2
画層80
 70
    0
 62
250
  6
CONTINUOUS
  0
LAYER
  5
8A
100
AcDbSymbolTableRecord
100
AcDbLayerTableRecord
  2
画層81
 70
    0
 62
250
  6
CONTINUOUS
  0
LAYER
  5
8B
100
AcDbSymbolTableRecord
100
AcDbLayerTableRecord
  2
画層82
 70
    0
 62
250
  6
CONTINUOUS
  0
LAYER
  5
8C
100
AcDbSymbolTableRecord
100
AcDbLayerTableRecord
  2
画層83
 70
    0
 62
250
  6
CONTINUOUS
  0
LAYER
  5
8D
100
AcDbSymbolTableRecord
100
AcDbLayerTableRecord
  2
画層84
 70
    0
 62
250
  6
CONTINUOUS
  0
LAYER
  5
8E
100
AcDbSymbolTableRecord
100
AcDbLayerTableRecord
  2
画層85
 70
    0
 62
250
  6
CONTINUOUS
  0
LAYER
  5
8F
100
AcDbSymbolTableRecord
100
AcDbLayerTableRecord
  2
画層86
 70
    0
 62
250
  6
CONTINUOUS
  0
LAYER
  5
90
100
AcDbSymbolTableRecord
100
AcDbLayerTableRecord
  2
画層87
 70
    0
 62
250
  6
CONTINUOUS
  0
LAYER
  5
91
100
AcDbSymbolTableRecord
100
AcDbLayerTableRecord
  2
画層88
 70
    0
 62
250
  6
CONTINUOUS
  0
LAYER
  5
92
100
AcDbSymbolTableRecord
100
AcDbLayerTableRecord
  2
画層89
 70
    0
 62
250
  6
CONTINUOUS
  0
LAYER
  5
93
100
AcDbSymbolTableRecord
100
AcDbLayerTableRecord
  2
画層90
 70
    0
 62
250
  6
CONTINUOUS
  0
LAYER
  5
94
100
AcDbSymbolTableRecord
100
AcDbLayerTableRecord
  2
画層91
 70
    0
 62
250
  6
CONTINUOUS
  0
LAYER
  5
95
100
AcDbSymbolTableRecord
100
AcDbLayerTableRecord
  2
画層92
 70
    0
 62
250
  6
CONTINUOUS
  0
LAYER
  5
96
100
AcDbSymbolTableRecord
100
AcDbLayerTableRecord
  2
画層93
 70
    0
 62
250
  6
CONTINUOUS
  0
LAYER
  5
97
100
AcDbSymbolTableRecord
100
AcDbLayerTableRecord
  2
画層94
 70
    0
 62
250
  6
CONTINUOUS
  0
LAYER
  5
98
100
AcDbSymbolTableRecord
100
AcDbLayerTableRecord
  2
画層95
 70
    0
 62
250
  6
CONTINUOUS
  0
LAYER
  5
99
100
AcDbSymbolTableRecord
100
AcDbLayerTableRecord
  2
画層96
 70
    0
 62
250
  6
CONTINUOUS
  0
LAYER
  5
9A
100
AcDbSymbolTableRecord
100
AcDbLayerTableRecord
  2
画層97
 70
    0
 62
250
  6
CONTINUOUS
  0
LAYER
  5
9B
100
AcDbSymbolTableRecord
100
AcDbLayerTableRecord
  2
画層98
 70
    0
 62
250
  6
CONTINUOUS
  0
LAYER
  5
9C
100
AcDbSymbolTableRecord
100
AcDbLayerTableRecord
  2
画層99
 70
    0
 62
250
  6
CONTINUOUS
  0
LAYER
  5
9D
100
AcDbSymbolTableRecord
100
AcDbLayerTableRecord
  2
画層100
 70
    0
 62
250
  6
CONTINUOUS
  0
LAYER
  5
9E
100
AcDbSymbolTableRecord
100
AcDbLayerTableRecord
  2
画層101
 70
    0
 62
250
  6
CONTINUOUS
  0
LAYER
  5
9F
100
AcDbSymbolTableRecord
100
AcDbLayerTableRecord
  2
画層102
 70
    0
 62
250
  6
CONTINUOUS
  0
LAYER
  5
A0
100
AcDbSymbolTableRecord
100
AcDbLayerTableRecord
  2
画層103
 70
    0
 62
250
  6
CONTINUOUS
  0
LAYER
  5
A1
100
AcDbSymbolTableRecord
100
AcDbLayerTableRecord
  2
画層104
 70
    0
 62
250
  6
CONTINUOUS
  0
LAYER
  5
A2
100
AcDbSymbolTableRecord
100
AcDbLayerTableRecord
  2
画層105
 70
    0
 62
250
  6
CONTINUOUS
  0
LAYER
  5
A3
100
AcDbSymbolTableRecord
100
AcDbLayerTableRecord
  2
画層106
 70
    0
 62
250
  6
CONTINUOUS
  0
LAYER
  5
A4
100
AcDbSymbolTableRecord
100
AcDbLayerTableRecord
  2
画層107
 70
    0
 62
250
  6
CONTINUOUS
  0
LAYER
  5
A5
100
AcDbSymbolTableRecord
100
AcDbLayerTableRecord
  2
画層108
 70
    0
 62
250
  6
CONTINUOUS
  0
LAYER
  5
A6
100
AcDbSymbolTableRecord
100
AcDbLayerTableRecord
  2
画層109
 70
    0
 62
250
  6
CONTINUOUS
  0
LAYER
  5
A7
100
AcDbSymbolTableRecord
100
AcDbLayerTableRecord
  2
画層110
 70
    0
 62
250
  6
CONTINUOUS
  0
LAYER
  5
A8
100
AcDbSymbolTableRecord
100
AcDbLayerTableRecord
  2
画層111
 70
    0
 62
250
  6
CONTINUOUS
  0
LAYER
  5
A9
100
AcDbSymbolTableRecord
100
AcDbLayerTableRecord
  2
画層112
 70
    0
 62
250
  6
CONTINUOUS
  0
LAYER
  5
AA
100
AcDbSymbolTableRecord
100
AcDbLayerTableRecord
  2
画層113
 70
    0
 62
250
  6
CONTINUOUS
  0
LAYER
  5
AB
100
AcDbSymbolTableRecord
100
AcDbLayerTableRecord
  2
画層114
 70
    0
 62
250
  6
CONTINUOUS
  0
LAYER
  5
AC
100
AcDbSymbolTableRecord
100
AcDbLayerTableRecord
  2
画層115
 70
    0
 62
250
  6
CONTINUOUS
  0
LAYER
  5
AD
100
AcDbSymbolTableRecord
100
AcDbLayerTableRecord
  2
画層116
 70
    0
 62
250
  6
CONTINUOUS
  0
LAYER
  5
AE
100
AcDbSymbolTableRecord
100
AcDbLayerTableRecord
  2
画層117
 70
    0
 62
250
  6
CONTINUOUS
  0
LAYER
  5
AF
100
AcDbSymbolTableRecord
100
AcDbLayerTableRecord
  2
画層118
 70
    0
 62
250
  6
CONTINUOUS
  0
LAYER
  5
B0
100
AcDbSymbolTableRecord
100
AcDbLayerTableRecord
  2
画層119
 70
    0
 62
250
  6
CONTINUOUS
  0
LAYER
  5
B1
100
AcDbSymbolTableRecord
100
AcDbLayerTableRecord
  2
画層120
 70
    0
 62
250
  6
CONTINUOUS
  0
LAYER
  5
B2
100
AcDbSymbolTableRecord
100
AcDbLayerTableRecord
  2
画層121
 70
    0
 62
250
  6
CONTINUOUS
  0
LAYER
  5
B3
100
AcDbSymbolTableRecord
100
AcDbLayerTableRecord
  2
画層122
 70
    0
 62
250
  6
CONTINUOUS
  0
LAYER
  5
B4
100
AcDbSymbolTableRecord
100
AcDbLayerTableRecord
  2
画層123
 70
    0
 62
250
  6
CONTINUOUS
  0
LAYER
  5
B5
100
AcDbSymbolTableRecord
100
AcDbLayerTableRecord
  2
画層124
 70
    0
 62
250
  6
CONTINUOUS
  0
LAYER
  5
B6
100
AcDbSymbolTableRecord
100
AcDbLayerTableRecord
  2
画層125
 70
    0
 62
250
  6
CONTINUOUS
  0
LAYER
  5
B7
100
AcDbSymbolTableRecord
100
AcDbLayerTableRecord
  2
画層126
 70
    0
 62
250
  6
CONTINUOUS
  0
LAYER
  5
B8
100
AcDbSymbolTableRecord
100
AcDbLayerTableRecord
  2
画層127
 70
    0
 62
250
  6
CONTINUOUS
  0
LAYER
  5
B9
100
AcDbSymbolTableRecord
100
AcDbLayerTableRecord
  2
画層128
 70
    0
 62
250
  6
CONTINUOUS
  0
LAYER
  5
BA
100
AcDbSymbolTableRecord
100
AcDbLayerTableRecord
  2
画層129
 70
    0
 62
250
  6
CONTINUOUS
  0
LAYER
  5
BB
100
AcDbSymbolTableRecord
100
AcDbLayerTableRecord
  2
画層130
 70
    0
 62
250
  6
CONTINUOUS
  0
LAYER
  5
BC
100
AcDbSymbolTableRecord
100
AcDbLayerTableRecord
  2
画層131
 70
    0
 62
250
  6
CONTINUOUS
  0
LAYER
  5
BD
100
AcDbSymbolTableRecord
100
AcDbLayerTableRecord
  2
画層132
 70
    0
 62
250
  6
CONTINUOUS
  0
LAYER
  5
BE
100
AcDbSymbolTableRecord
100
AcDbLayerTableRecord
  2
画層133
 70
    0
 62
250
  6
CONTINUOUS
  0
LAYER
  5
BF
100
AcDbSymbolTableRecord
100
AcDbLayerTableRecord
  2
画層134
 70
    0
 62
250
  6
CONTINUOUS
  0
LAYER
  5
C0
100
AcDbSymbolTableRecord
100
AcDbLayerTableRecord
  2
画層135
 70
    0
 62
250
  6
CONTINUOUS
  0
LAYER
  5
C1
100
AcDbSymbolTableRecord
100
AcDbLayerTableRecord
  2
画層136
 70
    0
 62
250
  6
CONTINUOUS
  0
LAYER
  5
C2
100
AcDbSymbolTableRecord
100
AcDbLayerTableRecord
  2
画層137
 70
    0
 62
250
  6
CONTINUOUS
  0
LAYER
  5
C3
100
AcDbSymbolTableRecord
100
AcDbLayerTableRecord
  2
画層138
 70
    0
 62
250
  6
CONTINUOUS
  0
LAYER
  5
C4
100
AcDbSymbolTableRecord
100
AcDbLayerTableRecord
  2
画層139
 70
    0
 62
250
  6
CONTINUOUS
  0
LAYER
  5
C5
100
AcDbSymbolTableRecord
100
AcDbLayerTableRecord
  2
画層140
 70
    0
 62
250
  6
CONTINUOUS
  0
LAYER
  5
C6
100
AcDbSymbolTableRecord
100
AcDbLayerTableRecord
  2
画層141
 70
    0
 62
250
  6
CONTINUOUS
  0
LAYER
  5
C7
100
AcDbSymbolTableRecord
100
AcDbLayerTableRecord
  2
画層142
 70
    0
 62
250
  6
CONTINUOUS
  0
LAYER
  5
C8
100
AcDbSymbolTableRecord
100
AcDbLayerTableRecord
  2
画層143
 70
    0
 62
250
  6
CONTINUOUS
  0
LAYER
  5
C9
100
AcDbSymbolTableRecord
100
AcDbLayerTableRecord
  2
画層144
 70
    0
 62
250
  6
CONTINUOUS
  0
LAYER
  5
CA
100
AcDbSymbolTableRecord
100
AcDbLayerTableRecord
  2
画層145
 70
    0
 62
250
  6
CONTINUOUS
  0
LAYER
  5
CB
100
AcDbSymbolTableRecord
100
AcDbLayerTableRecord
  2
画層146
 70
    0
 62
250
  6
CONTINUOUS
  0
LAYER
  5
CC
100
AcDbSymbolTableRecord
100
AcDbLayerTableRecord
  2
画層147
 70
    0
 62
250
  6
CONTINUOUS
  0
LAYER
  5
CD
100
AcDbSymbolTableRecord
100
AcDbLayerTableRecord
  2
画層148
 70
    0
 62
250
  6
CONTINUOUS
  0
LAYER
  5
CE
100
AcDbSymbolTableRecord
100
AcDbLayerTableRecord
  2
画層149
 70
    0
 62
250
  6
CONTINUOUS
  0
LAYER
  5
CF
100
AcDbSymbolTableRecord
100
AcDbLayerTableRecord
  2
画層150
 70
    0
 62
250
  6
CONTINUOUS
  0
LAYER
  5
D0
100
AcDbSymbolTableRecord
100
AcDbLayerTableRecord
  2
画層151
 70
    0
 62
250
  6
CONTINUOUS
  0
LAYER
  5
D1
100
AcDbSymbolTableRecord
100
AcDbLayerTableRecord
  2
画層152
 70
    0
 62
250
  6
CONTINUOUS
  0
LAYER
  5
D2
100
AcDbSymbolTableRecord
100
AcDbLayerTableRecord
  2
画層153
 70
    0
 62
250
  6
CONTINUOUS
  0
LAYER
  5
D3
100
AcDbSymbolTableRecord
100
AcDbLayerTableRecord
  2
画層154
 70
    0
 62
250
  6
CONTINUOUS
  0
LAYER
  5
D4
100
AcDbSymbolTableRecord
100
AcDbLayerTableRecord
  2
画層155
 70
    0
 62
250
  6
CONTINUOUS
  0
LAYER
  5
D5
100
AcDbSymbolTableRecord
100
AcDbLayerTableRecord
  2
画層156
 70
    0
 62
250
  6
CONTINUOUS
  0
LAYER
  5
D6
100
AcDbSymbolTableRecord
100
AcDbLayerTableRecord
  2
画層157
 70
    0
 62
250
  6
CONTINUOUS
  0
LAYER
  5
D7
100
AcDbSymbolTableRecord
100
AcDbLayerTableRecord
  2
画層158
 70
    0
 62
250
  6
CONTINUOUS
  0
LAYER
  5
D8
100
AcDbSymbolTableRecord
100
AcDbLayerTableRecord
  2
画層159
 70
    0
 62
250
  6
CONTINUOUS
  0
LAYER
  5
D9
100
AcDbSymbolTableRecord
100
AcDbLayerTableRecord
  2
画層160
 70
    0
 62
250
  6
CONTINUOUS
  0
LAYER
  5
DA
100
AcDbSymbolTableRecord
100
AcDbLayerTableRecord
  2
画層161
 70
    0
 62
250
  6
CONTINUOUS
  0
LAYER
  5
DB
100
AcDbSymbolTableRecord
100
AcDbLayerTableRecord
  2
画層162
 70
    0
 62
250
  6
CONTINUOUS
  0
LAYER
  5
DC
100
AcDbSymbolTableRecord
100
AcDbLayerTableRecord
  2
画層163
 70
    0
 62
250
  6
CONTINUOUS
  0
LAYER
  5
DD
100
AcDbSymbolTableRecord
100
AcDbLayerTableRecord
  2
画層164
 70
    0
 62
250
  6
CONTINUOUS
  0
LAYER
  5
DE
100
AcDbSymbolTableRecord
100
AcDbLayerTableRecord
  2
画層165
 70
    0
 62
250
  6
CONTINUOUS
  0
LAYER
  5
DF
100
AcDbSymbolTableRecord
100
AcDbLayerTableRecord
  2
画層166
 70
    0
 62
250
  6
CONTINUOUS
  0
LAYER
  5
E0
100
AcDbSymbolTableRecord
100
AcDbLayerTableRecord
  2
画層167
 70
    0
 62
250
  6
CONTINUOUS
  0
LAYER
  5
E1
100
AcDbSymbolTableRecord
100
AcDbLayerTableRecord
  2
画層168
 70
    0
 62
250
  6
CONTINUOUS
  0
LAYER
  5
E2
100
AcDbSymbolTableRecord
100
AcDbLayerTableRecord
  2
画層169
 70
    0
 62
250
  6
CONTINUOUS
  0
LAYER
  5
E3
100
AcDbSymbolTableRecord
100
AcDbLayerTableRecord
  2
画層170
 70
    0
 62
250
  6
CONTINUOUS
  0
LAYER
  5
E4
100
AcDbSymbolTableRecord
100
AcDbLayerTableRecord
  2
画層171
 70
    0
 62
250
  6
CONTINUOUS
  0
LAYER
  5
E5
100
AcDbSymbolTableRecord
100
AcDbLayerTableRecord
  2
画層172
 70
    0
 62
250
  6
CONTINUOUS
  0
LAYER
  5
E6
100
AcDbSymbolTableRecord
100
AcDbLayerTableRecord
  2
画層173
 70
    0
 62
250
  6
CONTINUOUS
  0
LAYER
  5
E7
100
AcDbSymbolTableRecord
100
AcDbLayerTableRecord
  2
画層174
 70
    0
 62
250
  6
CONTINUOUS
  0
LAYER
  5
E8
100
AcDbSymbolTableRecord
100
AcDbLayerTableRecord
  2
画層175
 70
    0
 62
250
  6
CONTINUOUS
  0
LAYER
  5
E9
100
AcDbSymbolTableRecord
100
AcDbLayerTableRecord
  2
画層176
 70
    0
 62
250
  6
CONTINUOUS
  0
LAYER
  5
EA
100
AcDbSymbolTableRecord
100
AcDbLayerTableRecord
  2
画層177
 70
    0
 62
250
  6
CONTINUOUS
  0
LAYER
  5
EB
100
AcDbSymbolTableRecord
100
AcDbLayerTableRecord
  2
画層178
 70
    0
 62
250
  6
CONTINUOUS
  0
LAYER
  5
EC
100
AcDbSymbolTableRecord
100
AcDbLayerTableRecord
  2
画層179
 70
    0
 62
250
  6
CONTINUOUS
  0
LAYER
  5
ED
100
AcDbSymbolTableRecord
100
AcDbLayerTableRecord
  2
画層180
 70
    0
 62
250
  6
CONTINUOUS
  0
LAYER
  5
EE
100
AcDbSymbolTableRecord
100
AcDbLayerTableRecord
  2
画層181
 70
    0
 62
250
  6
CONTINUOUS
  0
LAYER
  5
EF
100
AcDbSymbolTableRecord
100
AcDbLayerTableRecord
  2
画層182
 70
    0
 62
250
  6
CONTINUOUS
  0
LAYER
  5
F0
100
AcDbSymbolTableRecord
100
AcDbLayerTableRecord
  2
画層183
 70
    0
 62
250
  6
CONTINUOUS
  0
LAYER
  5
F1
100
AcDbSymbolTableRecord
100
AcDbLayerTableRecord
  2
画層184
 70
    0
 62
250
  6
CONTINUOUS
  0
LAYER
  5
F2
100
AcDbSymbolTableRecord
100
AcDbLayerTableRecord
  2
画層185
 70
    0
 62
250
  6
CONTINUOUS
  0
LAYER
  5
F3
100
AcDbSymbolTableRecord
100
AcDbLayerTableRecord
  2
画層186
 70
    0
 62
250
  6
CONTINUOUS
  0
LAYER
  5
F4
100
AcDbSymbolTableRecord
100
AcDbLayerTableRecord
  2
画層187
 70
    0
 62
250
  6
CONTINUOUS
  0
LAYER
  5
F5
100
AcDbSymbolTableRecord
100
AcDbLayerTableRecord
  2
画層188
 70
    0
 62
250
  6
CONTINUOUS
  0
LAYER
  5
F6
100
AcDbSymbolTableRecord
100
AcDbLayerTableRecord
  2
画層189
 70
    0
 62
250
  6
CONTINUOUS
  0
LAYER
  5
F7
100
AcDbSymbolTableRecord
100
AcDbLayerTableRecord
  2
画層190
 70
    0
 62
250
  6
CONTINUOUS
  0
LAYER
  5
F8
100
AcDbSymbolTableRecord
100
AcDbLayerTableRecord
  2
画層191
 70
    0
 62
250
  6
CONTINUOUS
  0
LAYER
  5
F9
100
AcDbSymbolTableRecord
100
AcDbLayerTableRecord
  2
画層192
 70
    0
 62
250
  6
CONTINUOUS
  0
LAYER
  5
FA
100
AcDbSymbolTableRecord
100
AcDbLayerTableRecord
  2
画層193
 70
    0
 62
250
  6
CONTINUOUS
  0
LAYER
  5
FB
100
AcDbSymbolTableRecord
100
AcDbLayerTableRecord
  2
画層194
 70
    0
 62
250
  6
CONTINUOUS
  0
LAYER
  5
FC
100
AcDbSymbolTableRecord
100
AcDbLayerTableRecord
  2
画層195
 70
    0
 62
250
  6
CONTINUOUS
  0
LAYER
  5
FD
100
AcDbSymbolTableRecord
100
AcDbLayerTableRecord
  2
画層196
 70
    0
 62
250
  6
CONTINUOUS
  0
LAYER
  5
FE
100
AcDbSymbolTableRecord
100
AcDbLayerTableRecord
  2
画層197
 70
    0
 62
250
  6
CONTINUOUS
  0
LAYER
  5
FF
100
AcDbSymbolTableRecord
100
AcDbLayerTableRecord
  2
画層198
 70
    0
 62
250
  6
CONTINUOUS
  0
LAYER
  5
100
100
AcDbSymbolTableRecord
100
AcDbLayerTableRecord
  2
画層199
 70
    0
 62
250
  6
CONTINUOUS
  0
LAYER
  5
101
100
AcDbSymbolTableRecord
100
AcDbLayerTableRecord
  2
画層200
 70
    0
 62
250
  6
CONTINUOUS
  0
LAYER
  5
102
100
AcDbSymbolTableRecord
100
AcDbLayerTableRecord
  2
画層201
 70
    0
 62
250
  6
CONTINUOUS
  0
LAYER
  5
103
100
AcDbSymbolTableRecord
100
AcDbLayerTableRecord
  2
画層202
 70
    0
 62
250
  6
CONTINUOUS
  0
LAYER
  5
104
100
AcDbSymbolTableRecord
100
AcDbLayerTableRecord
  2
画層203
 70
    0
 62
250
  6
CONTINUOUS
  0
LAYER
  5
105
100
AcDbSymbolTableRecord
100
AcDbLayerTableRecord
  2
画層204
 70
    0
 62
250
  6
CONTINUOUS
  0
LAYER
  5
106
100
AcDbSymbolTableRecord
100
AcDbLayerTableRecord
  2
画層205
 70
    0
 62
250
  6
CONTINUOUS
  0
LAYER
  5
107
100
AcDbSymbolTableRecord
100
AcDbLayerTableRecord
  2
画層206
 70
    0
 62
250
  6
CONTINUOUS
  0
LAYER
  5
108
100
AcDbSymbolTableRecord
100
AcDbLayerTableRecord
  2
画層207
 70
    0
 62
250
  6
CONTINUOUS
  0
LAYER
  5
109
100
AcDbSymbolTableRecord
100
AcDbLayerTableRecord
  2
画層208
 70
    0
 62
250
  6
CONTINUOUS
  0
LAYER
  5
10A
100
AcDbSymbolTableRecord
100
AcDbLayerTableRecord
  2
画層209
 70
    0
 62
250
  6
CONTINUOUS
  0
LAYER
  5
10B
100
AcDbSymbolTableRecord
100
AcDbLayerTableRecord
  2
画層210
 70
    0
 62
250
  6
CONTINUOUS
  0
LAYER
  5
10C
100
AcDbSymbolTableRecord
100
AcDbLayerTableRecord
  2
画層211
 70
    0
 62
250
  6
CONTINUOUS
  0
LAYER
  5
10D
100
AcDbSymbolTableRecord
100
AcDbLayerTableRecord
  2
画層212
 70
    0
 62
250
  6
CONTINUOUS
  0
LAYER
  5
10E
100
AcDbSymbolTableRecord
100
AcDbLayerTableRecord
  2
画層213
 70
    0
 62
250
  6
CONTINUOUS
  0
LAYER
  5
10F
100
AcDbSymbolTableRecord
100
AcDbLayerTableRecord
  2
画層214
 70
    0
 62
250
  6
CONTINUOUS
  0
LAYER
  5
110
100
AcDbSymbolTableRecord
100
AcDbLayerTableRecord
  2
画層215
 70
    0
 62
250
  6
CONTINUOUS
  0
LAYER
  5
111
100
AcDbSymbolTableRecord
100
AcDbLayerTableRecord
  2
画層216
 70
    0
 62
250
  6
CONTINUOUS
  0
LAYER
  5
112
100
AcDbSymbolTableRecord
100
AcDbLayerTableRecord
  2
画層217
 70
    0
 62
250
  6
CONTINUOUS
  0
LAYER
  5
113
100
AcDbSymbolTableRecord
100
AcDbLayerTableRecord
  2
画層218
 70
    0
 62
250
  6
CONTINUOUS
  0
LAYER
  5
114
100
AcDbSymbolTableRecord
100
AcDbLayerTableRecord
  2
画層219
 70
    0
 62
250
  6
CONTINUOUS
  0
LAYER
  5
115
100
AcDbSymbolTableRecord
100
AcDbLayerTableRecord
  2
画層220
 70
    0
 62
250
  6
CONTINUOUS
  0
LAYER
  5
116
100
AcDbSymbolTableRecord
100
AcDbLayerTableRecord
  2
画層221
 70
    0
 62
250
  6
CONTINUOUS
  0
LAYER
  5
117
100
AcDbSymbolTableRecord
100
AcDbLayerTableRecord
  2
画層222
 70
    0
 62
250
  6
CONTINUOUS
  0
LAYER
  5
118
100
AcDbSymbolTableRecord
100
AcDbLayerTableRecord
  2
画層223
 70
    0
 62
250
  6
CONTINUOUS
  0
LAYER
  5
119
100
AcDbSymbolTableRecord
100
AcDbLayerTableRecord
  2
画層224
 70
    0
 62
250
  6
CONTINUOUS
  0
LAYER
  5
11A
100
AcDbSymbolTableRecord
100
AcDbLayerTableRecord
  2
画層225
 70
    0
 62
250
  6
CONTINUOUS
  0
LAYER
  5
11B
100
AcDbSymbolTableRecord
100
AcDbLayerTableRecord
  2
画層226
 70
    0
 62
250
  6
CONTINUOUS
  0
LAYER
  5
11C
100
AcDbSymbolTableRecord
100
AcDbLayerTableRecord
  2
画層227
 70
    0
 62
250
  6
CONTINUOUS
  0
LAYER
  5
11D
100
AcDbSymbolTableRecord
100
AcDbLayerTableRecord
  2
画層228
 70
    0
 62
250
  6
CONTINUOUS
  0
LAYER
  5
11E
100
AcDbSymbolTableRecord
100
AcDbLayerTableRecord
  2
画層229
 70
    0
 62
250
  6
CONTINUOUS
  0
LAYER
  5
11F
100
AcDbSymbolTableRecord
100
AcDbLayerTableRecord
  2
画層230
 70
    0
 62
250
  6
CONTINUOUS
  0
LAYER
  5
120
100
AcDbSymbolTableRecord
100
AcDbLayerTableRecord
  2
画層231
 70
    0
 62
250
  6
CONTINUOUS
  0
LAYER
  5
121
100
AcDbSymbolTableRecord
100
AcDbLayerTableRecord
  2
画層232
 70
    0
 62
250
  6
CONTINUOUS
  0
LAYER
  5
122
100
AcDbSymbolTableRecord
100
AcDbLayerTableRecord
  2
画層233
 70
    0
 62
250
  6
CONTINUOUS
  0
LAYER
  5
123
100
AcDbSymbolTableRecord
100
AcDbLayerTableRecord
  2
画層234
 70
    0
 62
250
  6
CONTINUOUS
  0
LAYER
  5
124
100
AcDbSymbolTableRecord
100
AcDbLayerTableRecord
  2
画層235
 70
    0
 62
250
  6
CONTINUOUS
  0
LAYER
  5
125
100
AcDbSymbolTableRecord
100
AcDbLayerTableRecord
  2
画層236
 70
    0
 62
250
  6
CONTINUOUS
  0
LAYER
  5
126
100
AcDbSymbolTableRecord
100
AcDbLayerTableRecord
  2
画層237
 70
    0
 62
250
  6
CONTINUOUS
  0
LAYER
  5
127
100
AcDbSymbolTableRecord
100
AcDbLayerTableRecord
  2
画層238
 70
    0
 62
250
  6
CONTINUOUS
  0
LAYER
  5
128
100
AcDbSymbolTableRecord
100
AcDbLayerTableRecord
  2
画層239
 70
    0
 62
250
  6
CONTINUOUS
  0
LAYER
  5
129
100
AcDbSymbolTableRecord
100
AcDbLayerTableRecord
  2
画層240
 70
    0
 62
250
  6
CONTINUOUS
  0
LAYER
  5
12A
100
AcDbSymbolTableRecord
100
AcDbLayerTableRecord
  2
画層241
 70
    0
 62
250
  6
CONTINUOUS
  0
LAYER
  5
12B
100
AcDbSymbolTableRecord
100
AcDbLayerTableRecord
  2
画層242
 70
    0
 62
250
  6
CONTINUOUS
  0
LAYER
  5
12C
100
AcDbSymbolTableRecord
100
AcDbLayerTableRecord
  2
画層243
 70
    0
 62
250
  6
CONTINUOUS
  0
LAYER
  5
12D
100
AcDbSymbolTableRecord
100
AcDbLayerTableRecord
  2
画層244
 70
    0
 62
250
  6
CONTINUOUS
  0
LAYER
  5
12E
100
AcDbSymbolTableRecord
100
AcDbLayerTableRecord
  2
画層245
 70
    0
 62
250
  6
CONTINUOUS
  0
LAYER
  5
12F
100
AcDbSymbolTableRecord
100
AcDbLayerTableRecord
  2
画層246
 70
    0
 62
250
  6
CONTINUOUS
  0
LAYER
  5
130
100
AcDbSymbolTableRecord
100
AcDbLayerTableRecord
  2
画層247
 70
    0
 62
250
  6
CONTINUOUS
  0
LAYER
  5
131
100
AcDbSymbolTableRecord
100
AcDbLayerTableRecord
  2
画層248
 70
    0
 62
250
  6
CONTINUOUS
  0
LAYER
  5
132
100
AcDbSymbolTableRecord
100
AcDbLayerTableRecord
  2
画層249
 70
    0
 62
250
  6
CONTINUOUS
  0
LAYER
  5
133
100
AcDbSymbolTableRecord
100
AcDbLayerTableRecord
  2
画層250
 70
    0
 62
250
  6
CONTINUOUS
  0
LAYER
  5
134
100
AcDbSymbolTableRecord
100
AcDbLayerTableRecord
  2
画層251
 70
    0
 62
250
  6
CONTINUOUS
  0
LAYER
  5
135
100
AcDbSymbolTableRecord
100
AcDbLayerTableRecord
  2
画層252
 70
    0
 62
250
  6
CONTINUOUS
  0
LAYER
  5
136
100
AcDbSymbolTableRecord
100
AcDbLayerTableRecord
  2
画層253
 70
    0
 62
250
  6
CONTINUOUS
  0
LAYER
  5
137
100
AcDbSymbolTableRecord
100
AcDbLayerTableRecord
  2
画層254
 70
    0
 62
250
  6
CONTINUOUS
  0
LAYER
  5
138
100
AcDbSymbolTableRecord
100
AcDbLayerTableRecord
  2
画層255
 70
    0
 62
250
  6
CONTINUOUS
  0
LAYER
  5
139
100
AcDbSymbolTableRecord
100
AcDbLayerTableRecord
  2
0
 70
   64
 62
    7
  6
CONTINUOUS
  0
ENDTAB
  0
TABLE
  2
STYLE
  5
4
100
AcDbSymbolTable
 70
     1
  0
STYLE
  5
13A
100
AcDbSymbolTableRecord
100
AcDbTextStyleTableRecord
  2
Standard
 70
     0
 40
0.0
 41
1.0
 50
0.0
 71
     0
 42
3.2
  3
TXT
  4
BIGFONT
  0
STYLE
  5
13B
100
AcDbSymbolTableRecord
100
AcDbTextStyleTableRecord
  2
Font_0
 70
     0
 40
0.0
 41
1.0
 50
0.0
 71
     0
 42
3.2
  3
MS Gothic.ttf
  4

1001
ACAD
1000
MS Gothic
1071
  32817
  0
STYLE
  5
13C
100
AcDbSymbolTableRecord
100
AcDbTextStyleTableRecord
  2
Font_1
 70
     0
 40
0.0
 41
1.0
 50
0.0
 71
     0
 42
3.2
  3
MS PGothic.ttf
  4

1001
ACAD
1000
MS PGothic
1071
  32818
  0
ENDTAB
  0
TABLE
  2
VIEW
  5
5
100
AcDbSymbolTable
 70
     0
  0
ENDTAB
  0
TABLE
  2
UCS
  5
6
100
AcDbSymbolTable
 70
     0
  0
ENDTAB
  0
TABLE
  2
APPID
  5
7
100
AcDbSymbolTable
 70
     1
  0
APPID
  5
13D
100
AcDbSymbolTableRecord
100
AcDbRegAppTableRecord
  2
ACAD
 70
     0
  0
ENDTAB
  0
TABLE
  2
DIMSTYLE
  5
8
100
AcDbSymbolTable
 70
     1
  0
DIMSTYLE
105
2A
100
AcDbSymbolTableRecord
100
AcDbDimStyleTableRecord
  2
STANDARD
 70
     0
  3

  4

  5

  6

  7

 40
1.0
 41
2.5
 42
2.0
 43
7.0
 44
1.25
 45
0.0
 46
0.0
 47
0.0
 48
0.0
 71
     0
 72
     0
 73
     0
 74
     0
 75
     0
 76
     0
 77
     1
 78
     0
140
2.5
141
2.5
142
0.0
143
0.0394
144
1.0
145
0.0
146
1.0
147
1.0
170
     0
171
     2
172
     0
173
     0
174
     1
175
     0
176
     0
177
     0
178
     0
270
     2
271
     2
272
     4
273
     2
274
     2
275
     0
280
     0
281
     0
282
     0
283
     1
284
     0
285
     0
286
     0
287
     3
288
     0
  0
ENDTAB
  0
TABLE
  2
BLOCK_RECORD
  5
9
100
AcDbSymbolTable
 70
     0
  0
BLOCK_RECORD
  5
13E
100
AcDbSymbolTableRecord
100
AcDbBlockTableRecord
  2
*MODEL_SPACE
  0
BLOCK_RECORD
  5
13F
100
AcDbSymbolTableRecord
100
AcDbBlockTableRecord
  2
*PAPER_SPACE
  0
ENDTAB
  0
ENDSEC
  0
SECTION
  2
BLOCKS
  0
BLOCK
  5
141
100
AcDbEntity
  8
0
100
AcDbBlockBegin
2
*MODEL_SPACE
 70
     0
 10
0.0
 20
0.0
 30
0.0
  3
*MODEL_SPACE
  1

  0
ENDBLK
  5
142
100
AcDbEntity
  8
画層0
100
AcDbBlockEnd
  0
BLOCK
  5
143
100
AcDbEntity
 67
     1
  8
画層0
100
AcDbBlockBegin
  2
*PAPER_SPACE
 70
     0
 10
0.0
 20
0.0
 30
0.0
  3
*PAPER_SPACE
  1

  0
ENDBLK
  5
144
100
AcDbEntity
 67
     1
  8
画層0
100
AcDbBlockEnd
  0
ENDSEC
  0
SECTION
  2
ENTITIES
  0
ARC
  5
145
100
AcDbEntity
  8
画層0
100
AcDbCircle
  6
CONTINUOUS
370
13
 10
484.13403957277
 20
218.260624992095
 40
1.5
100
AcDbArc
 50
0
 51
180
  0
ARC
  5
146
100
AcDbEntity
  8
画層0
100
AcDbCircle
  6
CONTINUOUS
370
13
 10
484.13403957277
 20
191.260624992095
 40
1.5
100
AcDbArc
 50
180
 51
0
  0
LINE
  5
147
100
AcDbEntity
  8
画層0
100
AcDbLine
  6
CONTINUOUS
370
13
 10
482.63403957277
 20
218.260624992095
 11
482.63403957277
 21
191.260624992095
  0
LINE
  5
148
100
AcDbEntity
  8
画層0
100
AcDbLine
  6
CONTINUOUS
370
13
 10
485.63403957277
 20
218.260624992095
 11
485.63403957277
 21
191.260624992095
  0
ARC
  5
149
100
AcDbEntity
  8
画層0
100
AcDbCircle
  6
CONTINUOUS
370
13
 10
490.13403957277
 20
217.760624992095
 40
1.5
100
AcDbArc
 50
0
 51
180
  0
ARC
  5
14A
100
AcDbEntity
  8
画層0
100
AcDbCircle
  6
CONTINUOUS
370
13
 10
490.13403957277
 20
190.760624992095
 40
1.5
100
AcDbArc
 50
180
 51
0
  0
LINE
  5
14B
100
AcDbEntity
  8
画層0
100
AcDbLine
  6
CONTINUOUS
370
13
 10
488.63403957277
 20
217.760624992095
 11
488.63403957277
 21
190.760624992095
  0
LINE
  5
14C
100
AcDbEntity
  8
画層0
100
AcDbLine
  6
CONTINUOUS
370
13
 10
491.63403957277
 20
217.760624992095
 11
491.63403957277
 21
190.760624992095
  0
ARC
  5
14D
100
AcDbEntity
  8
画層0
100
AcDbCircle
  6
CONTINUOUS
370
13
 10
496.13403957277
 20
217.760624992095
 40
1.5
100
AcDbArc
 50
0
 51
180
  0
ARC
  5
14E
100
AcDbEntity
  8
画層0
100
AcDbCircle
  6
CONTINUOUS
370
13
 10
496.13403957277
 20
190.760624992095
 40
1.5
100
AcDbArc
 50
180
 51
0
  0
LINE
  5
14F
100
AcDbEntity
  8
画層0
100
AcDbLine
  6
CONTINUOUS
370
13
 10
494.63403957277
 20
217.760624992095
 11
494.63403957277
 21
190.760624992095
  0
LINE
  5
150
100
AcDbEntity
  8
画層0
100
AcDbLine
  6
CONTINUOUS
370
13
 10
497.63403957277
 20
217.760624992095
 11
497.63403957277
 21
190.760624992095
  0
ARC
  5
151
100
AcDbEntity
  8
画層0
100
AcDbCircle
  6
CONTINUOUS
370
13
 10
502.13403957277
 20
217.760624992095
 40
1.5
100
AcDbArc
 50
0
 51
180
  0
ARC
  5
152
100
AcDbEntity
  8
画層0
100
AcDbCircle
  6
CONTINUOUS
370
13
 10
502.13403957277
 20
190.760624992095
 40
1.5
100
AcDbArc
 50
180
 51
0
  0
LINE
  5
153
100
AcDbEntity
  8
画層0
100
AcDbLine
  6
CONTINUOUS
370
13
 10
500.63403957277
 20
217.760624992095
 11
500.63403957277
 21
190.760624992095
  0
LINE
  5
154
100
AcDbEntity
  8
画層0
100
AcDbLine
  6
CONTINUOUS
370
13
 10
503.63403957277
 20
217.760624992095
 11
503.63403957277
 21
190.760624992095
  0
ARC
  5
155
100
AcDbEntity
  8
画層0
100
AcDbCircle
  6
CONTINUOUS
370
13
 10
508.13403957277
 20
217.760624992095
 40
1.5
100
AcDbArc
 50
0
 51
180
  0
ARC
  5
156
100
AcDbEntity
  8
画層0
100
AcDbCircle
  6
CONTINUOUS
370
13
 10
508.13403957277
 20
190.760624992095
 40
1.5
100
AcDbArc
 50
180
 51
0
  0
LINE
  5
157
100
AcDbEntity
  8
画層0
100
AcDbLine
  6
CONTINUOUS
370
13
 10
506.63403957277
 20
217.760624992095
 11
506.63403957277
 21
190.760624992095
  0
LINE
  5
158
100
AcDbEntity
  8
画層0
100
AcDbLine
  6
CONTINUOUS
370
13
 10
509.63403957277
 20
217.760624992095
 11
509.63403957277
 21
190.760624992095
  0
ARC
  5
159
100
AcDbEntity
  8
画層0
100
AcDbCircle
  6
CONTINUOUS
370
13
 10
514.13403957277
 20
217.760624992095
 40
1.5
100
AcDbArc
 50
0
 51
180
  0
ARC
  5
15A
100
AcDbEntity
  8
画層0
100
AcDbCircle
  6
CONTINUOUS
370
13
 10
514.13403957277
 20
190.760624992095
 40
1.5
100
AcDbArc
 50
180
 51
0
  0
LINE
  5
15B
100
AcDbEntity
  8
画層0
100
AcDbLine
  6
CONTINUOUS
370
13
 10
512.63403957277
 20
217.760624992095
 11
512.63403957277
 21
190.760624992095
  0
LINE
  5
15C
100
AcDbEntity
  8
画層0
100
AcDbLine
  6
CONTINUOUS
370
13
 10
515.63403957277
 20
217.760624992095
 11
515.63403957277
 21
190.760624992095
  0
LINE
  5
15D
100
AcDbEntity
  8
画層0
100
AcDbLine
  6
CONTINUOUS
 62
7
370
30
 10
13.6337921901863
 20
11.3450316605759
 11
829.234741606487
 21
11.3450316605759
  0
MTEXT
  5
15E
100
AcDbEntity
  8
画層0
100
AcDbMText
 10
392.261254650017
 20
9.94049189745846
 40
6
 41
  0.0
  1
{\fMS Gothic|b1;MinatoConcept,Inc.}
  7
Font_0
  0
LINE
  5
15F
100
AcDbEntity
  8
画層0
100
AcDbLine
  6
CONTINUOUS
 62
7
370
30
 10
13.6337921901863
 20
575.367772729865
 11
13.6337921901863
 21
11.3450316605759
  0
LINE
  5
160
100
AcDbEntity
  8
画層0
100
AcDbLine
  6
CONTINUOUS
 62
7
370
30
 10
829.234741606487
 20
575.367772729865
 11
829.234741606487
 21
11.3450316605759
  0
LINE
  5
161
100
AcDbEntity
  8
画層0
100
AcDbLine
  6
CONTINUOUS
 62
7
370
30
 10
13.6337921901863
 20
575.367772729865
 11
829.234741606487
 21
575.367772729865
  0
LINE
  5
162
100
AcDbEntity
  8
画層0
100
AcDbLine
  6
CONTINUOUS
 62
7
370
30
 10
631.035397035602
 20
11.3475360548244
 11
829.232935907877
 21
11.3475360548244
  0
LINE
  5
163
100
AcDbEntity
  8
画層0
100
AcDbLine
  6
CONTINUOUS
 62
7
370
30
 10
631.035397035602
 20
54.3475560548244
 11
631.035397035602
 21
11.3475360548244
  0
LINE
  5
164
100
AcDbEntity
  8
画層0
100
AcDbLine
  6
CONTINUOUS
 62
7
370
30
 10
631.035397035602
 20
29.3475360548244
 11
829.232935907877
 21
29.3475360548244
  0
LINE
  5
165
100
AcDbEntity
  8
画層0
100
AcDbLine
  6
CONTINUOUS
 62
7
370
30
 10
631.035397035602
 20
34.3475360548244
 11
829.232935907877
 21
34.3475360548244
  0
LINE
  5
166
100
AcDbEntity
  8
画層0
100
AcDbLine
  6
CONTINUOUS
 62
7
370
30
 10
631.035397035602
 20
54.3475560548244
 11
829.232935907877
 21
54.3475560548244
  0
LINE
  5
167
100
AcDbEntity
  8
画層0
100
AcDbLine
  6
CONTINUOUS
 62
7
370
30
 10
640.035397035602
 20
54.3475560548244
 11
640.035397035602
 21
29.3475360548244
  0
LINE
  5
168
100
AcDbEntity
  8
画層0
100
AcDbLine
  6
CONTINUOUS
 62
7
370
30
 10
645.035397035602
 20
29.3475360548244
 11
645.035397035602
 21
11.3475360548244
  0
LINE
  5
169
100
AcDbEntity
  8
画層0
100
AcDbLine
  6
CONTINUOUS
 62
7
370
30
 10
659.035397035602
 20
29.3475360548244
 11
659.035397035602
 21
11.3475360548244
  0
LINE
  5
16A
100
AcDbEntity
  8
画層0
100
AcDbLine
  6
CONTINUOUS
 62
7
370
30
 10
673.035397035602
 20
29.3475360548244
 11
673.035397035602
 21
11.3475360548244
  0
LINE
  5
16B
100
AcDbEntity
  8
画層0
100
AcDbLine
  6
CONTINUOUS
 62
7
370
30
 10
687.035397035602
 20
29.3475360548244
 11
687.035397035602
 21
11.3475360548244
  0
LINE
  5
16C
100
AcDbEntity
  8
画層0
100
AcDbLine
  6
CONTINUOUS
 62
7
370
30
 10
701.035397035602
 20
54.3475560548244
 11
701.035397035602
 21
11.3475360548244
  0
LINE
  5
16D
100
AcDbEntity
  8
画層0
100
AcDbLine
  6
CONTINUOUS
 62
7
370
30
 10
775.035397035602
 20
29.3475360548244
 11
775.035397035602
 21
11.3475360548244
  0
LINE
  5
16E
100
AcDbEntity
  8
画層0
100
AcDbLine
  6
CONTINUOUS
 62
7
370
30
 10
769.770796035602
 20
13.3475360548244
 11
705.874296035602
 21
13.3475360548244
  0
TEXT
  5
16F
100
AcDbEntity
  8
画層0
 62
7
100
AcDbText
  6
BYLAYER
 62
7
 10
645.19507668745
 20
29.8475350548244
 40
4
  1
年月日
  7
Font_0
100
AcDbText
  0
TEXT
  5
170
100
AcDbEntity
  8
画層0
 62
7
100
AcDbText
  6
BYLAYER
 62
7
 10
675.959068496984
 20
29.8475350548244
 40
4
  1
記  事
  7
Font_0
100
AcDbText
  0
LINE
  5
171
100
AcDbEntity
  8
画層0
100
AcDbLine
  6
CONTINUOUS
 62
7
370
30
 10
633.225997035602
 20
50.0005560548243
 11
637.844796035602
 21
50.0005560548243
  0
LINE
  5
172
100
AcDbEntity
  8
画層0
100
AcDbLine
  6
CONTINUOUS
 62
7
370
30
 10
635.535397035602
 20
54.0005560548243
 11
637.844797035602
 21
50.0005560548243
  0
LINE
  5
173
100
AcDbEntity
  8
画層0
100
AcDbLine
  6
CONTINUOUS
 62
7
370
30
 10
635.535397035602
 20
54.0005550548243
 11
633.225997035602
 21
50.0005550548243
  0
LINE
  5
174
100
AcDbEntity
  8
画層0
100
AcDbLine
  6
CONTINUOUS
 62
7
370
30
 10
635.535397035602
 20
49.0005560548243
 11
633.225997035602
 21
45.0005560548243
  0
LINE
  5
175
100
AcDbEntity
  8
画層0
100
AcDbLine
  6
CONTINUOUS
 62
7
370
30
 10
633.225997035602
 20
45.0005560548243
 11
637.844796035602
 21
45.0005560548243
  0
LINE
  5
176
100
AcDbEntity
  8
画層0
100
AcDbLine
  6
CONTINUOUS
 62
7
370
30
 10
635.535397035602
 20
49.0005560548243
 11
637.844797035602
 21
45.0005560548243
  0
LINE
  5
177
100
AcDbEntity
  8
画層0
100
AcDbLine
  6
CONTINUOUS
 62
7
370
30
 10
635.535396035602
 20
44.0005560548243
 11
633.225996035602
 21
40.0005960548243
  0
LINE
  5
178
100
AcDbEntity
  8
画層0
100
AcDbLine
  6
CONTINUOUS
 62
7
370
30
 10
633.225997035602
 20
40.0005950548243
 11
637.844796035602
 21
40.0005950548243
  0
LINE
  5
179
100
AcDbEntity
  8
画層0
100
AcDbLine
  6
CONTINUOUS
 62
7
370
30
 10
635.535397035602
 20
44.0005560548243
 11
637.844796035602
 21
40.0005960548243
  0
LINE
  5
17A
100
AcDbEntity
  8
画層0
100
AcDbLine
  6
CONTINUOUS
 62
7
370
30
 10
635.535397035602
 20
39.0005960548243
 11
633.225997035602
 21
35.0005960548243
  0
LINE
  5
17B
100
AcDbEntity
  8
画層0
100
AcDbLine
  6
CONTINUOUS
 62
7
370
30
 10
633.225997035602
 20
35.0005950548243
 11
637.844796035602
 21
35.0005950548243
  0
LINE
  5
17C
100
AcDbEntity
  8
画層0
100
AcDbLine
  6
CONTINUOUS
 62
7
370
30
 10
635.535397035602
 20
39.0005960548243
 11
637.844797035602
 21
35.0005960548243
  0
TEXT
  5
17D
100
AcDbEntity
  8
画層0
 62
7
100
AcDbText
  6
BYLAYER
 62
7
 10
632.242293035602
 20
30.2958110548243
 40
3.103449
  1
来歴
  7
Font_0
100
AcDbText
  0
TEXT
  5
17E
100
AcDbEntity
  8
画層0
 62
7
100
AcDbText
  6
BYLAYER
 62
7
 10
691.017970691113
 20
25.3475360548244
 40
3
  1
製図
  7
Font_0
100
AcDbText
  0
TEXT
  5
17F
100
AcDbEntity
  8
画層0
 62
7
100
AcDbText
  6
BYLAYER
 62
7
 10
663.134345827836
 20
25.3475360548244
 40
3
  1
検図
  7
Font_0
100
AcDbText
  0
TEXT
  5
180
100
AcDbEntity
  8
画層0
 62
7
100
AcDbText
  6
BYLAYER
 62
7
 10
649.27757410706
 20
25.3475360548244
 40
3
  1
承認
  7
Font_0
100
AcDbText
  0
TEXT
  5
181
100
AcDbEntity
  8
画層0
 62
7
100
AcDbText
  6
BYLAYER
 62
7
 10
706.035397035602
 20
24.3475360548244
 40
3
  1
品名
  7
Font_0
100
AcDbText
  0
POINT
  5
182
100
AcDbEntity
  8
画層0
100
AcDbPoint
 62
7
 10
716.035397035602
 20
24.0610960548243
  0
POINT
  5
183
100
AcDbEntity
  8
画層0
100
AcDbPoint
 62
7
 10
716.035397035602
 20
15.6124260548243
  0
TEXT
  5
184
100
AcDbEntity
  8
画層0
 62
7
100
AcDbText
  6
BYLAYER
 62
7
 10
634.427497035602
 20
25.1153660548244
 40
3
  1
尺度
  7
Font_0
100
AcDbText
  0
LINE
  5
185
100
AcDbEntity
  8
画層0
100
AcDbLine
  6
CONTINUOUS
 62
7
370
30
 10
634.923301035602
 20
14.0630459818163
 11
641.570896035602
 21
20.7106979818163
  0
POINT
  5
186
100
AcDbEntity
  8
画層0
100
AcDbPoint
 62
7
 10
652.035397035602
 20
18.3475360548244
  0
POINT
  5
187
100
AcDbEntity
  8
画層0
100
AcDbPoint
 62
7
 10
680.035397035602
 20
18.3475360548244
  0
POINT
  5
188
100
AcDbEntity
  8
画層0
100
AcDbPoint
 62
7
 10
694.035397035602
 20
18.3475360548244
  0
LINE
  5
189
100
AcDbEntity
  8
画層0
100
AcDbLine
  6
CONTINUOUS
 62
7
370
30
 10
631.035397035602
 20
39.3475360548244
 11
829.232935907877
 21
39.3475360548244
  0
LINE
  5
18A
100
AcDbEntity
  8
画層0
100
AcDbLine
  6
CONTINUOUS
 62
7
370
30
 10
631.035397035602
 20
44.3475360548244
 11
829.232935907877
 21
44.3475360548244
  0
LINE
  5
18B
100
AcDbEntity
  8
画層0
100
AcDbLine
  6
CONTINUOUS
 62
7
370
30
 10
631.035397035602
 20
49.3475360548244
 11
829.232935907877
 21
49.3475360548244
  0
POINT
  5
18C
100
AcDbEntity
  8
画層0
100
AcDbPoint
 62
7
 10
666.035397035602
 20
18.3475360548244
  0
TEXT
  5
18D
100
AcDbEntity
  8
画層0
 62
7
100
AcDbText
  6
BYLAYER
 62
7
 10
703.223463905368
 20
30.2975350548243
 40
3.1
  1
品番
  7
Font_0
 11
703.223463905368
 21
33.3975350548243
100
AcDbText
 73
3
  0
TEXT
  5
18E
100
AcDbEntity
  8
画層0
 62
7
100
AcDbText
  6
BYLAYER
 62
7
 10
726.613783599881
 20
30.2975350548243
 40
3.1
  1
部品名
  7
Font_0
 11
726.613783599881
 21
33.3975350548243
100
AcDbText
 73
3
  0
TEXT
  5
18F
100
AcDbEntity
  8
画層0
 62
7
100
AcDbText
  6
BYLAYER
 62
7
 10
760.384516791567
 20
30.2975350548243
 40
3.1
  1
材　質
  7
Font_0
 11
760.384516791567
 21
33.3975350548243
100
AcDbText
 73
3
  0
TEXT
  5
190
100
AcDbEntity
  8
画層0
 62
7
100
AcDbText
  6
BYLAYER
 62
7
 10
782.140173719696
 20
30.2975350548243
 40
3.1
  1
数量
  7
Font_0
 11
782.140173719696
 21
33.3975350548243
100
AcDbText
 73
3
  0
TEXT
  5
191
100
AcDbEntity
  8
画層0
 62
7
100
AcDbText
  6
BYLAYER
 62
7
 10
805.362315263528
 20
30.2975350548243
 40
3.1
  1
備　考
  7
Font_0
 11
805.362315263528
 21
33.3975350548243
100
AcDbText
 73
3
  0
TEXT
  5
192
100
AcDbEntity
  8
画層0
 62
7
100
AcDbText
  6
BYLAYER
 62
7
 10
676.968399973011
 20
25.3475360548244
 40
3
  1
検図
  7
Font_0
100
AcDbText
  0
TEXT
  5
193
100
AcDbEntity
  8
画層0
 62
5
100
AcDbText
  6
CONTINUOUS
 62
5
 10
705.228283540273
 20
34.8475360548244
 40
4
  1
1
  7
Font_0
 11
705.228283540273
 21
38.8475360548244
100
AcDbText
 73
3
  0
TEXT
  5
194
100
AcDbEntity
  8
画層0
100
AcDbText
  6
CONTINUOUS
 10
632.241133421448
 20
16.04407532141
 40
5
  1
１
  7
Font_0
 11
632.241133421448
 21
21.04407532141
100
AcDbText
 73
3
  0
TEXT
  5
195
100
AcDbEntity
  8
画層0
100
AcDbText
  6
CONTINUOUS
 10
638.893780196822
 20
14.0402660517191
 40
5
  1
１
  7
Font_0
 11
638.893780196822
 21
19.0402660517191
100
AcDbText
 73
3
  0
LINE
  5
196
100
AcDbEntity
  8
画層0
100
AcDbLine
  6
CONTINUOUS
 62
7
370
30
 10
662.034507440437
 20
54.3475560548244
 11
662.034507440437
 21
29.3475360548244
  0
LINE
  5
197
100
AcDbEntity
  8
画層0
100
AcDbLine
  6
DOT
 62
7
370
30
 10
631.035397035602
 20
24.3475360548244
 11
701.035397035602
 21
24.3475360548244
  0
LINE
  5
198
100
AcDbEntity
  8
画層0
100
AcDbLine
  6
CONTINUOUS
 62
7
370
30
 10
711.034942699217
 20
54.3475560548244
 11
711.034942699217
 21
29.3475360548244
  0
LINE
  5
199
100
AcDbEntity
  8
画層0
100
AcDbLine
  6
CONTINUOUS
 62
7
370
30
 10
750.03810407791
 20
54.3475560548244
 11
750.03810407791
 21
29.3475360548244
  0
LINE
  5
19A
100
AcDbEntity
  8
画層0
100
AcDbLine
  6
CONTINUOUS
 62
7
370
30
 10
780.038735949291
 20
54.3475560548244
 11
780.038735949291
 21
29.3475360548244
  0
LINE
  5
19B
100
AcDbEntity
  8
画層0
100
AcDbLine
  6
CONTINUOUS
 62
7
370
30
 10
790.037153158133
 20
54.3475560548244
 11
790.037153158133
 21
29.3475360548244
  0
LINE
  5
19C
100
AcDbEntity
  8
画層0
100
AcDbLine
  6
CONTINUOUS
370
13
 10
156.250859282962
 20
81.3606249920954
 11
256.250859282962
 21
81.3606249920953
  0
LINE
  5
19D
100
AcDbEntity
  8
画層0
100
AcDbLine
  6
CONTINUOUS
370
13
 10
257.650859282962
 20
362.690023078913
 11
154.850859282962
 21
362.690023078913
  0
LINE
  5
19E
100
AcDbEntity
  8
画層0
100
AcDbLine
  6
CONTINUOUS
370
13
 10
387.13403957277
 20
81.2606249920953
 11
387.13403957277
 21
234.760624992095
  0
LINE
  5
19F
100
AcDbEntity
  8
画層0
100
AcDbLine
  6
CONTINUOUS
370
13
 10
538.63403957277
 20
80.7606249920953
 11
387.63403957277
 21
80.7606249920953
  0
LINE
  5
1A0
100
AcDbEntity
  8
画層0
100
AcDbLine
  6
CONTINUOUS
370
13
 10
154.850859282962
 20
80.7606249920954
 11
156.050859282962
 21
80.7606249920954
  0
LINE
  5
1A1
100
AcDbEntity
  8
画層0
100
AcDbLine
  6
CONTINUOUS
370
13
 10
256.450859282962
 20
80.7606249920953
 11
257.650859282962
 21
80.7606249920953
  0
LINE
  5
1A2
100
AcDbEntity
  8
画層0
100
AcDbLine
  6
CONTINUOUS
370
13
 10
539.13403957277
 20
81.2606249920953
 11
539.13403957277
 21
234.760624992095
  0
LINE
  5
1A3
100
AcDbEntity
  8
画層0
100
AcDbLine
  6
CONTINUOUS
370
13
 10
257.650859282962
 20
514.690023078913
 11
154.850859282962
 21
514.690023078913
  0
CIRCLE
  5
1A4
100
AcDbEntity
  8
画層0
100
AcDbCircle
  6
CONTINUOUS
370
13
 10
413.13403957277
 20
88.3606249920953
 40
3
  0
CIRCLE
  5
1A5
100
AcDbEntity
  8
画層0
100
AcDbCircle
  6
CONTINUOUS
370
13
 10
513.13403957277
 20
88.3606249920953
 40
3
  0
CIRCLE
  5
1A6
100
AcDbEntity
  8
画層0
100
AcDbCircle
  6
CONTINUOUS
370
13
 10
531.13403957277
 20
220.860624992095
 40
3
  0
CIRCLE
  5
1A7
100
AcDbEntity
  8
画層0
100
AcDbCircle
  6
CONTINUOUS
370
13
 10
395.13403957277
 20
220.860624992095
 40
3
  0
LINE
  5
1A8
100
AcDbEntity
  8
画層0
100
AcDbLine
  6
CONTINUOUS
370
13
 10
387.63403957277
 20
80.7606249920953
 11
387.13403957277
 21
81.2606249920953
  0
LINE
  5
1A9
100
AcDbEntity
  8
画層0
100
AcDbLine
  6
CONTINUOUS
370
13
 10
538.63403957277
 20
80.7606249920953
 11
539.13403957277
 21
81.2606249920953
  0
LINE
  5
1AA
100
AcDbEntity
  8
画層0
100
AcDbLine
  6
CONTINUOUS
370
13
 10
418.63517743587
 20
335.617051579701
 11
518.63517743587
 21
335.617051579701
  0
LINE
  5
1AB
100
AcDbEntity
  8
画層0
100
AcDbLine
  6
CONTINUOUS
370
13
 10
417.23517743587
 20
335.017051579701
 11
418.43517743587
 21
335.017051579701
  0
LINE
  5
1AC
100
AcDbEntity
  8
画層0
100
AcDbLine
  6
CONTINUOUS
370
13
 10
518.83517743587
 20
335.017051579701
 11
520.03517743587
 21
335.017051579701
  0
LINE
  5
1AD
100
AcDbEntity
  8
画層0
100
AcDbLine
  6
BYLAYER
370
13
 10
386.63403957277
 20
87.3606249920954
 11
386.63403957277
 21
93.3692351289109
  0
LINE
  5
1AE
100
AcDbEntity
  8
画層0
100
AcDbLine
  6
BYLAYER
370
13
 10
385.23403957277
 20
88.3606249920954
 11
385.23403957277
 21
93.3469631095
  0
LINE
  5
1AF
100
AcDbEntity
  8
画層0
100
AcDbLine
  6
BYLAYER
370
13
 10
385.23403957277
 20
88.5606249920953
 11
386.63403957277
 21
88.5606249920954
  0
LINE
  5
1B0
100
AcDbEntity
  8
画層0
100
AcDbLine
  6
BYLAYER
370
13
 10
385.23403957277
 20
88.3606249920953
 11
386.63403957277
 21
88.3606249920953
  0
LINE
  5
1B1
100
AcDbEntity
  8
画層0
100
AcDbLine
  6
BYLAYER
370
13
 10
387.13403957277
 20
87.3606249920954
 11
386.63403957277
 21
87.3606249920954
  0
LINE
  5
1B2
100
AcDbEntity
  8
画層0
100
AcDbLine
  6
BYLAYER
370
13
 10
157.250859282962
 20
362.190023078913
 11
161.250859282962
 21
362.190023078913
  0
LINE
  5
1B3
100
AcDbEntity
  8
画層0
100
AcDbLine
  6
BYLAYER
370
13
 10
158.250859282962
 20
360.790023078913
 11
161.250859282962
 21
360.790023078913
  0
LINE
  5
1B4
100
AcDbEntity
  8
画層0
100
AcDbLine
  6
BYLAYER
370
13
 10
158.450859282962
 20
360.790023078913
 11
158.450859282962
 21
362.190023078913
  0
LINE
  5
1B5
100
AcDbEntity
  8
画層0
100
AcDbLine
  6
BYLAYER
370
13
 10
158.250859282962
 20
360.790023078913
 11
158.250859282962
 21
362.190023078913
  0
LINE
  5
1B6
100
AcDbEntity
  8
画層0
100
AcDbLine
  6
BYLAYER
370
13
 10
157.250859282962
 20
362.690023078913
 11
157.250859282962
 21
362.190023078913
  0
CIRCLE
  5
1B7
100
AcDbEntity
  8
画層0
100
AcDbCircle
  6
CONTINUOUS
370
13
 10
436.63517743587
 20
353.617051579701
 40
7
  0
CIRCLE
  5
1B8
100
AcDbEntity
  8
画層0
100
AcDbCircle
  6
CONTINUOUS
370
13
 10
436.63517743587
 20
351.617051579701
 40
3.1
  0
CIRCLE
  5
1B9
100
AcDbEntity
  8
画層0
100
AcDbCircle
  6
CONTINUOUS
370
13
 10
436.63517743587
 20
351.617051579701
 40
0.75
  0
LINE
  5
1BA
100
AcDbEntity
  8
画層0
100
AcDbLine
  6
CONTINUOUS
370
13
 10
389.38403957277
 20
72.8606249920954
 11
402.88403957277
 21
72.8606249920954
  0
LINE
  5
1BB
100
AcDbEntity
  8
画層0
100
AcDbLine
  6
CONTINUOUS
370
13
 10
389.058745455123
 20
80.7606249920953
 11
389.38403957277
 21
72.8606249920954
  0
LINE
  5
1BC
100
AcDbEntity
  8
画層0
100
AcDbLine
  6
CONTINUOUS
370
13
 10
403.209333690417
 20
80.7606249920953
 11
402.88403957277
 21
72.8606249920954
  0
LINE
  5
1BD
100
AcDbEntity
  8
画層0
100
AcDbLine
  6
CONTINUOUS
370
13
 10
521.38403957277
 20
72.8606249920954
 11
534.88403957277
 21
72.8606249920954
  0
LINE
  5
1BE
100
AcDbEntity
  8
画層0
100
AcDbLine
  6
CONTINUOUS
370
13
 10
521.058745455123
 20
80.7606249920953
 11
521.38403957277
 21
72.8606249920954
  0
LINE
  5
1BF
100
AcDbEntity
  8
画層0
100
AcDbLine
  6
CONTINUOUS
370
13
 10
535.209333690417
 20
80.7606249920953
 11
534.88403957277
 21
72.8606249920954
  0
LINE
  5
1C0
100
AcDbEntity
  8
画層0
100
AcDbLine
  6
CONTINUOUS
370
13
 10
539.13403957277
 20
81.2606249920953
 11
539.13403957277
 21
232.760624992095
  0
LINE
  5
1C1
100
AcDbEntity
  8
画層0
100
AcDbLine
  6
BYLAYER
370
13
 10
427.13403957277
 20
261.760624992095
 11
487.13403957277
 21
261.760624992095
  0
LINE
  5
1C2
100
AcDbEntity
  8
画層0
100
AcDbLine
  6
BYLAYER
370
13
 10
487.13403957277
 20
271.760624992095
 11
427.13403957277
 21
271.760624992095
  0
ARC
  5
1C3
100
AcDbEntity
  8
画層0
100
AcDbCircle
  6
BYLAYER
370
13
 10
427.13403957277
 20
256.760624992095
 40
15
100
AcDbArc
 50
90
 51
180
  0
ARC
  5
1C4
100
AcDbEntity
  8
画層0
100
AcDbCircle
  6
BYLAYER
370
13
 10
427.13403957277
 20
256.760624992095
 40
5
100
AcDbArc
 50
90
 51
180
  0
ARC
  5
1C5
100
AcDbEntity
  8
画層0
100
AcDbCircle
  6
BYLAYER
370
13
 10
487.13403957277
 20
256.760624992095
 40
15
100
AcDbArc
 50
0
 51
90
  0
ARC
  5
1C6
100
AcDbEntity
  8
画層0
100
AcDbCircle
  6
BYLAYER
370
13
 10
487.13403957277
 20
256.760624992095
 40
5
100
AcDbArc
 50
-2.44266599536398E-13
 51
89.9999999999998
  0
LINE
  5
1C7
100
AcDbEntity
  8
画層0
100
AcDbLine
  6
BYLAYER
370
13
 10
412.13403957277
 20
256.760624992095
 11
412.13403957277
 21
234.760624992095
  0
LINE
  5
1C8
100
AcDbEntity
  8
画層0
100
AcDbLine
  6
BYLAYER
370
13
 10
422.13403957277
 20
234.760624992095
 11
422.13403957277
 21
256.760624992095
  0
LINE
  5
1C9
100
AcDbEntity
  8
画層0
100
AcDbLine
  6
BYLAYER
370
13
 10
492.13403957277
 20
256.760624992095
 11
492.13403957277
 21
234.760624992095
  0
LINE
  5
1CA
100
AcDbEntity
  8
画層0
100
AcDbLine
  6
BYLAYER
370
13
 10
502.13403957277
 20
234.760624992095
 11
502.13403957277
 21
256.760624992095
  0
ARC
  5
1CB
100
AcDbEntity
  8
画層0
100
AcDbCircle
  6
BYLAYER
370
13
 10
206.250859282962
 20
266.760624992095
 40
5.00000000000398
100
AcDbArc
 50
0
 51
180
  0
LINE
  5
1CC
100
AcDbEntity
  8
画層0
100
AcDbLine
  6
BYLAYER
370
13
 10
211.250859282962
 20
234.760624992095
 11
211.250859282962
 21
266.760624992095
  0
ARC
  5
1CD
100
AcDbEntity
  8
画層0
100
AcDbCircle
  6
BYLAYER
370
13
 10
206.250859282962
 20
472.690023078913
 40
5.00000000006776
100
AcDbArc
 50
360
 51
180
  0
LINE
  5
1CE
100
AcDbEntity
  8
画層0
100
AcDbLine
  6
BYLAYER
370
13
 10
201.250859282962
 20
472.690023078913
 11
201.250859282962
 21
392.690023078912
  0
LINE
  5
1CF
100
AcDbEntity
  8
画層0
100
AcDbLine
  6
BYLAYER
370
13
 10
211.250859282962
 20
392.690023078912
 11
211.250859282962
 21
472.690023078913
  0
ARC
  5
1D0
100
AcDbEntity
  8
画層0
100
AcDbCircle
  6
BYLAYER
370
13
 10
206.250859282962
 20
392.690023078912
 40
5.00000000006821
100
AcDbArc
 50
180
 51
360
  0
LINE
  5
1D1
100
AcDbEntity
  8
画層0
100
AcDbLine
  6
CONTINUOUS
 62
7
370
30
 10
497.794963719233
 20
351.585248975529
 11
497.616052469524
 21
351.887006934309
  0
CIRCLE
  5
1D2
100
AcDbEntity
  8
画層0
100
AcDbCircle
  6
CONTINUOUS
 62
7
370
30
 10
498.160303701717
 20
351.142177845548
 40
0.922485650408191
  0
CIRCLE
  5
1D3
100
AcDbEntity
  8
画層0
100
AcDbCircle
  6
CONTINUOUS
 62
7
370
30
 10
498.160303701717
 20
351.142177845548
 40
1.225
  0
LINE
  5
1D4
100
AcDbEntity
  8
画層0
100
AcDbLine
  6
CONTINUOUS
 62
7
370
30
 10
498.905132790479
 20
350.597926613355
 11
498.623977628948
 21
350.803368432706
  0
CIRCLE
  5
1D5
100
AcDbEntity
  8
画層0
100
AcDbCircle
  6
CONTINUOUS
 62
7
370
30
 10
498.160303701717
 20
351.142177845548
 40
0.574269387155141
  0
LINE
  5
1D6
100
AcDbEntity
  8
画層0
100
AcDbLine
  6
CONTINUOUS
 62
7
370
30
 10
498.603374831698
 20
356.457265296338
 11
498.905132790479
 21
356.636176546048
  0
CIRCLE
  5
1D7
100
AcDbEntity
  8
画層0
100
AcDbCircle
  6
CONTINUOUS
 62
7
370
30
 10
498.160303701717
 20
356.091925313854
 40
0.922485650408191
  0
CIRCLE
  5
1D8
100
AcDbEntity
  8
画層0
100
AcDbCircle
  6
CONTINUOUS
 62
7
370
30
 10
498.160303701717
 20
356.091925313854
 40
1.225
  0
LINE
  5
1D9
100
AcDbEntity
  8
画層0
100
AcDbLine
  6
CONTINUOUS
 62
7
370
30
 10
497.616052469524
 20
355.347096225093
 11
497.821494288875
 21
355.628251386624
  0
CIRCLE
  5
1DA
100
AcDbEntity
  8
画層0
100
AcDbCircle
  6
CONTINUOUS
 62
7
370
30
 10
498.160303701717
 20
356.091925313854
 40
0.574269387155141
  0
LINE
  5
1DB
100
AcDbEntity
  8
画層0
100
AcDbLine
  6
CONTINUOUS
 62
7
370
30
 10
503.475391152507
 20
355.648854183874
 11
503.654302402217
 21
355.347096225093
  0
CIRCLE
  5
1DC
100
AcDbEntity
  8
画層0
100
AcDbCircle
  6
CONTINUOUS
 62
7
370
30
 10
503.110051170023
 20
356.091925313854
 40
0.922485650408191
  0
CIRCLE
  5
1DD
100
AcDbEntity
  8
画層0
100
AcDbCircle
  6
CONTINUOUS
 62
7
370
30
 10
503.110051170023
 20
356.091925313854
 40
1.225
  0
LINE
  5
1DE
100
AcDbEntity
  8
画層0
100
AcDbLine
  6
CONTINUOUS
 62
7
370
30
 10
502.365222081262
 20
356.636176546048
 11
502.646377242793
 21
356.430734726696
  0
CIRCLE
  5
1DF
100
AcDbEntity
  8
画層0
100
AcDbCircle
  6
CONTINUOUS
 62
7
370
30
 10
503.110051170023
 20
356.091925313854
 40
0.574269387155141
  0
LINE
  5
1E0
100
AcDbEntity
  8
画層0
100
AcDbLine
  6
CONTINUOUS
 62
7
370
30
 10
183.750859282962
 20
515.390023078913
 11
183.450859282962
 21
515.690023078913
  0
LINE
  5
1E1
100
AcDbEntity
  8
画層0
100
AcDbLine
  6
CONTINUOUS
 62
7
370
30
 10
183.750859282962
 20
515.390023078913
 11
183.750859282962
 21
514.690023078913
  0
LINE
  5
1E2
100
AcDbEntity
  8
画層0
100
AcDbLine
  6
CONTINUOUS
 62
7
370
30
 10
182.250859282962
 20
519.643531607411
 11
182.250859282962
 21
516.471221798137
  0
ARC
  5
1E3
100
AcDbEntity
  8
画層0
100
AcDbCircle
  6
CONTINUOUS
 62
7
370
30
 10
507.67261962657
 20
353.617051579701
 40
0.965298976209738
100
AcDbArc
 50
93.9326082997683
 51
266.067391700232
  0
LINE
  5
1E4
100
AcDbEntity
  8
画層0
100
AcDbLine
  6
CONTINUOUS
 62
7
370
30
 10
503.654302402217
 20
351.887006934309
 11
503.448860582866
 21
351.605851772778
  0
LINE
  5
1E5
100
AcDbEntity
  8
画層0
100
AcDbLine
  6
CONTINUOUS
 62
7
370
30
 10
502.666980040043
 20
350.776837863064
 11
502.365222081262
 21
350.597926613355
  0
LINE
  5
1E6
100
AcDbEntity
  8
画層0
100
AcDbLine
  6
CONTINUOUS
 62
7
370
30
 10
504.122296590703
 20
360.817051579701
 11
497.148058281038
 21
360.817051579701
  0
LINE
  5
1E7
100
AcDbEntity
  8
画層0
100
AcDbLine
  6
CONTINUOUS
 62
7
370
30
 10
503.009294854541
 20
360.241940942536
 11
498.261060017199
 21
360.241940942536
  0
ARC
  5
1E8
100
AcDbEntity
  8
画層0
100
AcDbCircle
  6
CONTINUOUS
 62
7
370
30
 10
493.59773524517
 20
353.617051579701
 40
0.965298976209738
100
AcDbArc
 50
273.932608299768
 51
446.067391700232
  0
LINE
  5
1E9
100
AcDbEntity
  8
画層0
100
AcDbLine
  6
CONTINUOUS
 62
7
370
30
 10
181.382220500718
 20
516.471221798137
 11
181.382220500718
 21
515.690023078913
  0
LINE
  5
1EA
100
AcDbEntity
  8
画層0
100
AcDbLine
  6
CONTINUOUS
 62
3
370
50
 10
181.769580378312
 20
520.216777343162
 11
181.769580378312
 21
516.471221798137
  0
LINE
  5
1EB
100
AcDbEntity
  8
画層0
100
AcDbLine
  6
CONTINUOUS
 62
7
370
30
 10
164.750859282962
 20
515.390023078913
 11
165.050859282962
 21
515.690023078913
  0
LINE
  5
1EC
100
AcDbEntity
  8
画層0
100
AcDbLine
  6
CONTINUOUS
 62
7
370
30
 10
167.119498065205
 20
516.471221798137
 11
167.119498065205
 21
515.690023078913
  0
LINE
  5
1ED
100
AcDbEntity
  8
画層0
100
AcDbLine
  6
CONTINUOUS
 62
7
370
30
 10
164.750859282962
 20
515.390023078913
 11
164.750859282962
 21
514.690023078913
  0
LINE
  5
1EE
100
AcDbEntity
  8
画層0
100
AcDbLine
  6
CONTINUOUS
 62
7
370
30
 10
167.213417092261
 20
520.790023078913
 11
166.250859282962
 21
519.643531607411
  0
LINE
  5
1EF
100
AcDbEntity
  8
画層0
100
AcDbLine
  6
CONTINUOUS
 62
3
370
50
 10
166.732138187612
 20
520.216777343162
 11
166.732138187612
 21
516.471221798137
  0
LINE
  5
1F0
100
AcDbEntity
  8
画層0
100
AcDbLine
  6
CONTINUOUS
 62
7
370
30
 10
166.250859282962
 20
519.643531607411
 11
166.250859282962
 21
516.471221798137
  0
LINE
  5
1F1
100
AcDbEntity
  8
画層0
100
AcDbLine
  6
CONTINUOUS
 62
7
370
30
 10
181.288301473662
 20
520.790023078913
 11
167.213417092262
 21
520.790023078913
  0
LINE
  5
1F2
100
AcDbEntity
  8
画層0
100
AcDbLine
  6
CONTINUOUS
 62
7
370
30
 10
165.050859282962
 20
515.690023078913
 11
183.450859282962
 21
515.690023078913
  0
LINE
  5
1F3
100
AcDbEntity
  8
画層0
100
AcDbLine
  6
CONTINUOUS
 62
7
370
30
 10
183.750859282962
 20
515.390023078913
 11
164.750859282962
 21
515.390023078913
  0
LINE
  5
1F4
100
AcDbEntity
  8
画層0
100
AcDbLine
  6
CONTINUOUS
 62
7
370
30
 10
181.288301473662
 20
520.790023078913
 11
182.250859282962
 21
519.643531607411
  0
LINE
  5
1F5
100
AcDbEntity
  8
画層0
100
AcDbLine
  6
CONTINUOUS
 62
7
370
30
 10
182.250859282962
 20
516.471221798137
 11
166.250859282962
 21
516.471221798137
  0
LINE
  5
1F6
100
AcDbEntity
  8
画層0
100
AcDbLine
  6
CONTINUOUS
 62
7
370
30
 10
182.250859282962
 20
519.643531607411
 11
166.250859282962
 21
519.643531607411
  0
CIRCLE
  5
1F7
100
AcDbEntity
  8
画層0
100
AcDbCircle
  6
CONTINUOUS
 62
7
370
30
 10
500.63517743587
 20
353.617051579701
 40
9.5
  0
ARC
  5
1F8
100
AcDbEntity
  8
画層0
100
AcDbCircle
  6
CONTINUOUS
 62
7
370
30
 10
500.63517743587
 20
353.617051579701
 40
8
100
AcDbArc
 50
115.841932763168
 51
424.158067236832
  0
ARC
  5
1F9
100
AcDbEntity
  8
画層0
100
AcDbCircle
  6
CONTINUOUS
 62
3
370
50
 10
500.63517743587
 20
353.617051579701
 40
7.51872109535009
100
AcDbArc
 50
106.742382848081
 51
360
  0
ARC
  5
1FA
100
AcDbEntity
  8
画層0
100
AcDbCircle
  6
CONTINUOUS
 62
7
370
30
 10
500.63517743587
 20
353.617051579701
 40
7.03744219070006
100
AcDbArc
 50
109.715817655403
 51
430.284182344597
  0
CIRCLE
  5
1FB
100
AcDbEntity
  8
画層0
100
AcDbCircle
  6
CONTINUOUS
 62
7
370
30
 10
503.110051170023
 20
351.142177845548
 40
1.225
  0
CIRCLE
  5
1FC
100
AcDbEntity
  8
画層0
100
AcDbCircle
  6
CONTINUOUS
 62
7
370
30
 10
503.110051170023
 20
351.142177845548
 40
0.574269387155141
  0
CIRCLE
  5
1FD
100
AcDbEntity
  8
画層0
100
AcDbCircle
  6
CONTINUOUS
 62
7
370
30
 10
503.110051170023
 20
351.142177845548
 40
0.922485650408191
  0
LINE
  5
1FE
100
AcDbEntity
  8
画層0
100
AcDbLine
  6
CONTINUOUS
 62
7
370
30
 10
539.83403957277
 20
89.8606249920953
 11
540.13403957277
 21
90.1606249920954
  0
LINE
  5
1FF
100
AcDbEntity
  8
画層0
100
AcDbLine
  6
CONTINUOUS
 62
7
370
30
 10
539.83403957277
 20
89.8606249920953
 11
539.13403957277
 21
89.8606249920953
  0
LINE
  5
200
100
AcDbEntity
  8
画層0
100
AcDbLine
  6
CONTINUOUS
 62
7
370
30
 10
544.087548101269
 20
91.3606249920953
 11
540.915238291995
 21
91.3606249920953
  0
LINE
  5
201
100
AcDbEntity
  8
画層0
100
AcDbLine
  6
CONTINUOUS
 62
7
370
30
 10
540.915238291995
 20
92.229263774339
 11
540.13403957277
 21
92.229263774339
  0
LINE
  5
202
100
AcDbEntity
  8
画層0
100
AcDbLine
  6
CONTINUOUS
 62
3
370
50
 10
544.66079383702
 20
91.8419038967453
 11
540.915238291995
 21
91.8419038967453
  0
LINE
  5
203
100
AcDbEntity
  8
画層0
100
AcDbLine
  6
CONTINUOUS
 62
7
370
30
 10
539.83403957277
 20
108.860624992095
 11
540.13403957277
 21
108.560624992095
  0
LINE
  5
204
100
AcDbEntity
  8
画層0
100
AcDbLine
  6
CONTINUOUS
 62
7
370
30
 10
540.915238291995
 20
106.491986209852
 11
540.13403957277
 21
106.491986209852
  0
LINE
  5
205
100
AcDbEntity
  8
画層0
100
AcDbLine
  6
CONTINUOUS
 62
7
370
30
 10
539.83403957277
 20
108.860624992095
 11
539.13403957277
 21
108.860624992095
  0
LINE
  5
206
100
AcDbEntity
  8
画層0
100
AcDbLine
  6
CONTINUOUS
 62
7
370
30
 10
545.23403957277
 20
106.398067182796
 11
544.087548101269
 21
107.360624992095
  0
LINE
  5
207
100
AcDbEntity
  8
画層0
100
AcDbLine
  6
CONTINUOUS
 62
3
370
50
 10
544.660793837019
 20
106.879346087446
 11
540.915238291995
 21
106.879346087445
  0
LINE
  5
208
100
AcDbEntity
  8
画層0
100
AcDbLine
  6
CONTINUOUS
 62
7
370
30
 10
544.087548101269
 20
107.360624992095
 11
540.915238291995
 21
107.360624992095
  0
LINE
  5
209
100
AcDbEntity
  8
画層0
100
AcDbLine
  6
CONTINUOUS
 62
7
370
30
 10
545.23403957277
 20
92.3231828013952
 11
545.23403957277
 21
106.398067182796
  0
LINE
  5
20A
100
AcDbEntity
  8
画層0
100
AcDbLine
  6
CONTINUOUS
 62
7
370
30
 10
540.13403957277
 20
108.560624992095
 11
540.13403957277
 21
90.1606249920954
  0
LINE
  5
20B
100
AcDbEntity
  8
画層0
100
AcDbLine
  6
CONTINUOUS
 62
7
370
30
 10
539.83403957277
 20
89.8606249920953
 11
539.83403957277
 21
108.860624992095
  0
LINE
  5
20C
100
AcDbEntity
  8
画層0
100
AcDbLine
  6
CONTINUOUS
 62
7
370
30
 10
545.23403957277
 20
92.3231828013952
 11
544.087548101269
 21
91.3606249920953
  0
LINE
  5
20D
100
AcDbEntity
  8
画層0
100
AcDbLine
  6
CONTINUOUS
 62
7
370
30
 10
540.915238291995
 20
91.3606249920953
 11
540.915238291995
 21
107.360624992095
  0
LINE
  5
20E
100
AcDbEntity
  8
画層0
100
AcDbLine
  6
CONTINUOUS
 62
7
370
30
 10
544.087548101269
 20
91.3606249920953
 11
544.087548101269
 21
107.360624992095
  0
LINE
  5
20F
100
AcDbEntity
  8
画層0
100
AcDbLine
  6
CONTINUOUS
370
13
 10
231.250859282962
 20
515.390023078913
 11
231.250859282962
 21
514.690023078913
  0
LINE
  5
210
100
AcDbEntity
  8
画層0
100
AcDbLine
  6
CONTINUOUS
370
13
 10
245.250859282962
 20
515.390023078913
 11
245.250859282962
 21
514.690023078913
  0
LINE
  5
211
100
AcDbEntity
  8
画層0
100
AcDbLine
  6
CONTINUOUS
370
13
 10
231.550859282962
 20
515.690023078913
 11
244.950859282962
 21
515.690023078913
  0
ARC
  5
212
100
AcDbEntity
  8
画層0
100
AcDbCircle
  6
CONTINUOUS
370
13
 10
244.950859282962
 20
515.390023078913
 40
0.3
100
AcDbArc
 50
360
 51
450
  0
ARC
  5
213
100
AcDbEntity
  8
画層0
100
AcDbCircle
  6
CONTINUOUS
370
13
 10
231.550859282962
 20
515.390023078913
 40
0.3
100
AcDbArc
 50
90
 51
180
  0
LINE
  5
214
100
AcDbEntity
  8
画層0
100
AcDbLine
  6
CONTINUOUS
370
13
 10
539.83403957277
 20
106.360624992095
 11
539.13403957277
 21
106.360624992095
  0
LINE
  5
215
100
AcDbEntity
  8
画層0
100
AcDbLine
  6
CONTINUOUS
370
13
 10
539.83403957277
 20
92.3606249920953
 11
539.13403957277
 21
92.3606249920953
  0
LINE
  5
216
100
AcDbEntity
  8
画層0
100
AcDbLine
  6
CONTINUOUS
370
13
 10
540.13403957277
 20
106.060624992095
 11
540.13403957277
 21
92.6606249920953
  0
ARC
  5
217
100
AcDbEntity
  8
画層0
100
AcDbCircle
  6
CONTINUOUS
370
13
 10
539.83403957277
 20
92.6606249920953
 40
0.3
100
AcDbArc
 50
270
 51
360
  0
ARC
  5
218
100
AcDbEntity
  8
画層0
100
AcDbCircle
  6
CONTINUOUS
370
13
 10
539.83403957277
 20
106.060624992095
 40
0.3
100
AcDbArc
 50
0
 51
90
  0
ARC
  5
219
100
AcDbEntity
  8
画層0
100
AcDbCircle
  6
BYLAYER
370
13
 10
468.63517743587
 20
519.017051579701
 40
5.00000000000398
100
AcDbArc
 50
0
 51
180
  0
LINE
  5
21A
100
AcDbEntity
  8
画層0
100
AcDbLine
  6
BYLAYER
370
13
 10
463.63517743587
 20
519.017051579701
 11
463.63517743587
 21
489.017051579701
  0
LINE
  5
21B
100
AcDbEntity
  8
画層0
100
AcDbLine
  6
BYLAYER
370
13
 10
473.63517743587
 20
489.017051579701
 11
473.63517743587
 21
519.017051579701
  0
LINE
  5
21C
100
AcDbEntity
  8
画層0
100
AcDbLine
  6
BYLAYER
370
13
 10
382.23403957277
 20
128.855417345838
 11
384.93403957277
 21
128.855417345838
  0
LINE
  5
21D
100
AcDbEntity
  8
画層0
100
AcDbLine
  6
BYLAYER
370
13
 10
382.23403957277
 20
130.855417345838
 11
385.148398926719
 21
130.855417345838
  0
LINE
  5
21E
100
AcDbEntity
  8
画層0
100
AcDbLine
  6
BYLAYER
370
13
 10
382.23403957277
 20
130.855417345838
 11
382.23403957277
 21
128.855417345838
  0
LINE
  5
21F
100
AcDbEntity
  8
画層0
100
AcDbLine
  6
BYLAYER
370
13
 10
382.23403957277
 20
119.255417345838
 11
384.93403957277
 21
119.255417345838
  0
LINE
  5
220
100
AcDbEntity
  8
画層0
100
AcDbLine
  6
BYLAYER
370
13
 10
382.23403957277
 20
117.255417345838
 11
385.29403957277
 21
117.255417345838
  0
LINE
  5
221
100
AcDbEntity
  8
画層0
100
AcDbLine
  6
BYLAYER
370
13
 10
382.23403957277
 20
117.255417345838
 11
382.23403957277
 21
119.255417345838
  0
LINE
  5
222
100
AcDbEntity
  8
画層0
100
AcDbLine
  6
BYLAYER
370
13
 10
387.13403957277
 20
117.360624992096
 11
387.13403957277
 21
135.360624992096
  0
LINE
  5
223
100
AcDbEntity
  8
画層0
100
AcDbLine
  6
BYLAYER
370
13
 10
387.13403957277
 20
133.055417345838
 11
385.63403957277
 21
132.555417345838
  0
LINE
  5
224
100
AcDbEntity
  8
画層0
100
AcDbLine
  6
BYLAYER
370
13
 10
384.93403957277
 20
119.055417345838
 11
385.63403957277
 21
115.555417345838
  0
LINE
  5
225
100
AcDbEntity
  8
画層0
100
AcDbLine
  6
BYLAYER
370
13
 10
385.63403957277
 20
115.555417345838
 11
387.13403957277
 21
115.055417345838
  0
LINE
  5
226
100
AcDbEntity
  8
画層0
100
AcDbLine
  6
CONTINUOUS
370
13
 10
156.250859282962
 20
81.3606249920954
 11
156.250859282962
 21
233.360624992095
  0
LINE
  5
227
100
AcDbEntity
  8
画層0
100
AcDbLine
  6
CONTINUOUS
370
13
 10
418.63517743587
 20
335.617051579701
 11
418.63517743587
 21
487.617051579701
  0
LINE
  5
228
100
AcDbEntity
  8
画層0
100
AcDbLine
  6
CONTINUOUS
370
13
 10
518.63517743587
 20
335.617051579701
 11
518.63517743587
 21
487.617051579701
  0
LINE
  5
229
100
AcDbEntity
  8
画層0
100
AcDbLine
  6
CONTINUOUS
370
13
 10
418.63517743587
 20
487.617051579701
 11
518.63517743587
 21
487.617051579701
  0
LINE
  5
22A
100
AcDbEntity
  8
画層0
100
AcDbLine
  6
CONTINUOUS
370
13
 10
387.13403957277
 20
234.760624992095
 11
539.13403957277
 21
234.760624992095
  0
LINE
  5
22B
100
AcDbEntity
  8
画層0
100
AcDbLine
  6
CONTINUOUS
370
13
 10
417.23517743587
 20
489.017051579701
 11
520.03517743587
 21
489.017051579701
  0
LINE
  5
22C
100
AcDbEntity
  8
画層0
100
AcDbLine
  6
CONTINUOUS
370
13
 10
418.43517743587
 20
487.817051579701
 11
518.83517743587
 21
487.817051579701
  0
LINE
  5
22D
100
AcDbEntity
  8
画層0
100
AcDbLine
  6
CONTINUOUS
370
13
 10
156.050859282962
 20
233.560624992095
 11
156.050859282962
 21
80.7606249920954
  0
LINE
  5
22E
100
AcDbEntity
  8
画層0
100
AcDbLine
  6
CONTINUOUS
370
13
 10
154.850859282962
 20
234.760624992095
 11
154.850859282962
 21
80.7606249920954
  0
LINE
  5
22F
100
AcDbEntity
  8
画層0
100
AcDbLine
  6
CONTINUOUS
370
13
 10
418.43517743587
 20
487.817051579701
 11
418.43517743587
 21
335.017051579701
  0
LINE
  5
230
100
AcDbEntity
  8
画層0
100
AcDbLine
  6
CONTINUOUS
370
13
 10
417.23517743587
 20
489.017051579701
 11
417.23517743587
 21
335.017051579701
  0
LINE
  5
231
100
AcDbEntity
  8
画層0
100
AcDbLine
  6
CONTINUOUS
370
13
 10
518.83517743587
 20
335.017051579701
 11
518.83517743587
 21
487.817051579701
  0
LINE
  5
232
100
AcDbEntity
  8
画層0
100
AcDbLine
  6
CONTINUOUS
370
13
 10
520.03517743587
 20
335.017051579701
 11
520.03517743587
 21
489.017051579701
  0
LINE
  5
233
100
AcDbEntity
  8
画層0
100
AcDbLine
  6
CONTINUOUS
370
13
 10
257.650859282962
 20
362.690023078913
 11
257.650859282962
 21
514.690023078913
  0
LINE
  5
234
100
AcDbEntity
  8
画層0
100
AcDbLine
  6
CONTINUOUS
370
13
 10
154.850859282962
 20
514.690023078913
 11
154.850859282962
 21
362.690023078913
  0
ARC
  5
235
100
AcDbEntity
  8
画層0
100
AcDbCircle
  6
CONTINUOUS
370
13
 10
206.252170681414
 20
189.360796053839
 40
25.0000311523997
100
AcDbArc
 50
305.63754353354
 51
414.36245646646
  0
CIRCLE
  5
236
100
AcDbEntity
  8
画層0
100
AcDbCircle
  6
CONTINUOUS
370
13
 10
227.252170681999
 20
155.360796053839
 40
4.5
  0
LINE
  5
237
100
AcDbEntity
  8
画層0
100
AcDbLine
  6
CONTINUOUS
370
13
 10
232.752071841921
 20
148.360624992096
 11
244.252170681414
 21
168.279380474161
  0
LINE
  5
238
100
AcDbEntity
  8
画層0
100
AcDbLine
  6
CONTINUOUS
370
13
 10
233.329520950604
 20
229.360796187119
 11
244.252170681414
 21
210.442211900077
  0
LINE
  5
239
100
AcDbEntity
  8
画層0
100
AcDbLine
  6
CONTINUOUS
370
13
 10
224.252170681414
 20
148.360796187119
 11
232.752170681414
 21
148.360796187119
  0
LINE
  5
23A
100
AcDbEntity
  8
画層0
100
AcDbLine
  6
CONTINUOUS
370
13
 10
231.597470143035
 20
230.360796187119
 11
224.252170681414
 21
230.360796187119
  0
CIRCLE
  5
23B
100
AcDbEntity
  8
画層0
100
AcDbCircle
  6
CONTINUOUS
370
13
 10
227.252170681999
 20
155.360796053839
 40
4.5
  0
LINE
  5
23C
100
AcDbEntity
  8
画層0
100
AcDbLine
  6
CONTINUOUS
370
13
 10
220.252170681414
 20
164.959723098887
 11
220.252170681414
 21
152.360796187119
  0
LINE
  5
23D
100
AcDbEntity
  8
画層0
100
AcDbLine
  6
CONTINUOUS
370
13
 10
220.252170681414
 20
213.761869008791
 11
220.252170681414
 21
226.360796187119
  0
LINE
  5
23E
100
AcDbEntity
  8
画層0
100
AcDbLine
  6
CONTINUOUS
370
13
 10
224.252170681414
 20
148.360796187119
 11
220.252170681414
 21
152.360796187119
  0
LINE
  5
23F
100
AcDbEntity
  8
画層0
100
AcDbLine
  6
CONTINUOUS
370
13
 10
220.252170681414
 20
226.360796187119
 11
224.252170681414
 21
230.360796187119
  0
ARC
  5
240
100
AcDbEntity
  8
画層0
100
AcDbCircle
  6
CONTINUOUS
370
13
 10
231.597470143035
 20
228.360796187119
 40
2
100
AcDbArc
 50
29.9999999999997
 51
90.0000000000017
  0
LINE
  5
241
100
AcDbEntity
  8
画層0
100
AcDbLine
  6
CONTINUOUS
370
13
 10
244.252170681414
 20
210.442211900077
 11
244.252170681414
 21
168.279380474161
  0
ARC
  5
242
100
AcDbEntity
  8
画層0
100
AcDbCircle
  6
CONTINUOUS
370
13
 10
224.152092150906
 20
224.360796053839
 40
6
100
AcDbArc
 50
89.0521189901416
 51
-130.540615070196
  0
LINE
  5
243
100
AcDbEntity
  8
画層0
100
AcDbLine
  6
CONTINUOUS
370
13
 10
341.53403957277
 20
214.360624992096
 11
337.53403957277
 21
214.360624992096
  0
LINE
  5
244
100
AcDbEntity
  8
画層0
100
AcDbLine
  6
CONTINUOUS
370
13
 10
335.53403957277
 20
166.360624992096
 11
335.53403957277
 21
212.360624992096
  0
LINE
  5
245
100
AcDbEntity
  8
画層0
100
AcDbLine
  6
CONTINUOUS
370
13
 10
341.53403957277
 20
164.360624992096
 11
337.53403957277
 21
164.360624992096
  0
LINE
  5
246
100
AcDbEntity
  8
画層0
100
AcDbLine
  6
CONTINUOUS
370
13
 10
343.53403957277
 20
166.360624992096
 11
343.53403957277
 21
212.360624992096
  0
LINE
  5
247
100
AcDbEntity
  8
画層0
100
AcDbLine
  6
CONTINUOUS
370
13
 10
337.53403957277
 20
214.360624992096
 11
335.53403957277
 21
212.360624992096
  0
LINE
  5
248
100
AcDbEntity
  8
画層0
100
AcDbLine
  6
CONTINUOUS
370
13
 10
343.53403957277
 20
212.360624992096
 11
341.53403957277
 21
214.360624992096
  0
LINE
  5
249
100
AcDbEntity
  8
画層0
100
AcDbLine
  6
CONTINUOUS
370
13
 10
337.53403957277
 20
164.360624992096
 11
335.53403957277
 21
166.360624992096
  0
LINE
  5
24A
100
AcDbEntity
  8
画層0
100
AcDbLine
  6
CONTINUOUS
370
13
 10
341.53403957277
 20
164.360624992096
 11
343.53403957277
 21
166.360624992096
  0
LINE
  5
24B
100
AcDbEntity
  8
画層0
100
AcDbLine
  6
CONTINUOUS
370
13
 10
355.13403957277
 20
148.360624992096
 11
355.13403957277
 21
230.360796187118
  0
LINE
  5
24C
100
AcDbEntity
  8
画層0
100
AcDbLine
  6
CONTINUOUS
370
13
 10
354.63403957277
 20
159.860796053839
 11
354.63403957277
 21
150.860796053839
  0
LINE
  5
24D
100
AcDbEntity
  8
画層0
100
AcDbLine
  6
CONTINUOUS
370
13
 10
354.63403957277
 20
150.860796053839
 11
355.13403957277
 21
150.860796053839
  0
LINE
  5
24E
100
AcDbEntity
  8
画層0
100
AcDbLine
  6
CONTINUOUS
370
13
 10
355.13403957277
 20
159.860796053839
 11
354.63403957277
 21
159.860796053839
  0
LINE
  5
24F
100
AcDbEntity
  8
画層0
100
AcDbLine
  6
CONTINUOUS
370
13
 10
373.13403957277
 20
148.360624992096
 11
355.13403957277
 21
148.360624992096
  0
LINE
  5
250
100
AcDbEntity
  8
画層0
100
AcDbLine
  6
CONTINUOUS
370
13
 10
231.597470143035
 20
230.360796187119
 11
225.246655189366
 21
230.360796187119
  0
LINE
  5
251
100
AcDbEntity
  8
画層0
100
AcDbLine
  6
CONTINUOUS
370
13
 10
360.492537101765
 20
230.360796187118
 11
355.13403957277
 21
230.360796187118
  0
LINE
  5
252
100
AcDbEntity
  8
画層0
100
AcDbLine
  6
CONTINUOUS
370
13
 10
246.252092151491
 20
149.860624992096
 11
246.252092151491
 21
218.860796053839
  0
LINE
  5
253
100
AcDbEntity
  8
画層0
100
AcDbLine
  6
CONTINUOUS
370
13
 10
161.252092151491
 20
146.860624992096
 11
161.252092151491
 21
231.860624992096
  0
LINE
  5
254
100
AcDbEntity
  8
画層0
100
AcDbLine
  6
CONTINUOUS
370
13
 10
245.251921089748
 20
229.860796053839
 11
243.252092151491
 21
231.860624992096
  0
LINE
  5
255
100
AcDbEntity
  8
画層0
100
AcDbLine
  6
CONTINUOUS
370
13
 10
243.252092151491
 20
146.860624992096
 11
246.252092151491
 21
149.860624992096
  0
LINE
  5
256
100
AcDbEntity
  8
画層0
100
AcDbLine
  6
CONTINUOUS
370
13
 10
203.252170680829
 20
214.180003663226
 11
203.252170680829
 21
215.341387105629
  0
LINE
  5
257
100
AcDbEntity
  8
画層0
100
AcDbLine
  6
CONTINUOUS
370
13
 10
203.252170680829
 20
164.541246320965
 11
203.252170680829
 21
163.379862878562
  0
ARC
  5
258
100
AcDbEntity
  8
画層0
100
AcDbCircle
  6
CONTINUOUS
370
13
 10
206.252170680829
 20
189.360624992096
 40
25.0000311523998
100
AcDbArc
 50
96.8920939494718
 51
263.107906050528
  0
LINE
  5
259
100
AcDbEntity
  8
画層0
100
AcDbLine
  6
CONTINUOUS
370
13
 10
188.252170680829
 20
219.360624992096
 11
203.252170680829
 21
215.341387105629
  0
LINE
  5
25A
100
AcDbEntity
  8
画層0
100
AcDbLine
  6
CONTINUOUS
370
13
 10
188.252170680829
 20
159.360624992096
 11
203.252170680829
 21
163.379862878562
  0
LINE
  5
25B
100
AcDbEntity
  8
画層0
100
AcDbLine
  6
CONTINUOUS
370
13
 10
373.13403957277
 20
231.860624992099
 11
387.13403957277
 21
231.860624992099
  0
LINE
  5
25C
100
AcDbEntity
  8
画層0
100
AcDbLine
  6
CONTINUOUS
370
13
 10
373.13403957277
 20
146.860624992095
 11
387.13403957277
 21
146.860624992095
  0
LINE
  5
25D
100
AcDbEntity
  8
画層0
100
AcDbLine
  6
CONTINUOUS
370
13
 10
373.13403957277
 20
159.360624992096
 11
373.13403957277
 21
219.360624992096
  0
LINE
  5
25E
100
AcDbEntity
  8
画層0
100
AcDbLine
  6
CONTINUOUS
370
13
 10
353.13403957277
 20
214.360624992096
 11
355.13403957277
 21
214.360624992096
  0
LINE
  5
25F
100
AcDbEntity
  8
画層0
100
AcDbLine
  6
CONTINUOUS
370
13
 10
353.13403957277
 20
215.341387105629
 11
355.13403957277
 21
215.341387105629
  0
LINE
  5
260
100
AcDbEntity
  8
画層0
100
AcDbLine
  6
CONTINUOUS
370
13
 10
353.13403957277
 20
163.379862878563
 11
355.13403957277
 21
163.379862878563
  0
LINE
  5
261
100
AcDbEntity
  8
画層0
100
AcDbLine
  6
CONTINUOUS
370
13
 10
210.252462666595
 20
319.090023078913
 11
210.252462666595
 21
319.690023078913
  0
LINE
  5
262
100
AcDbEntity
  8
画層0
100
AcDbLine
  6
CONTINUOUS
370
13
 10
202.252462666595
 20
319.090023078913
 11
202.252462666595
 21
319.690023078913
  0
LINE
  5
263
100
AcDbEntity
  8
画層0
100
AcDbLine
  6
CONTINUOUS
370
13
 10
246.252384137258
 20
348.690023078913
 11
161.252384137258
 21
348.690023078913
  0
LINE
  5
264
100
AcDbEntity
  8
画層0
100
AcDbLine
  6
CONTINUOUS
370
13
 10
231.252462666595
 20
317.090023078913
 11
231.252462666595
 21
313.090023078913
  0
LINE
  5
265
100
AcDbEntity
  8
画層0
100
AcDbLine
  6
CONTINUOUS
370
13
 10
183.252462666595
 20
311.090023078913
 11
229.252462666595
 21
311.090023078913
  0
LINE
  5
266
100
AcDbEntity
  8
画層0
100
AcDbLine
  6
CONTINUOUS
370
13
 10
181.252462666595
 20
317.090023078913
 11
181.252462666595
 21
313.090023078913
  0
LINE
  5
267
100
AcDbEntity
  8
画層0
100
AcDbLine
  6
CONTINUOUS
370
13
 10
183.252462666595
 20
319.090023078913
 11
229.252462666595
 21
319.090023078913
  0
LINE
  5
268
100
AcDbEntity
  8
画層0
100
AcDbLine
  6
CONTINUOUS
370
13
 10
231.252462666595
 20
313.090023078913
 11
229.252462666595
 21
311.090023078913
  0
LINE
  5
269
100
AcDbEntity
  8
画層0
100
AcDbLine
  6
CONTINUOUS
370
13
 10
229.252462666595
 20
319.090023078913
 11
231.252462666595
 21
317.090023078913
  0
LINE
  5
26A
100
AcDbEntity
  8
画層0
100
AcDbLine
  6
CONTINUOUS
370
13
 10
181.252462666595
 20
313.090023078913
 11
183.252462666595
 21
311.090023078913
  0
LINE
  5
26B
100
AcDbEntity
  8
画層0
100
AcDbLine
  6
CONTINUOUS
370
13
 10
181.252462666595
 20
317.090023078913
 11
183.252462666595
 21
319.090023078913
  0
LINE
  5
26C
100
AcDbEntity
  8
画層0
100
AcDbLine
  6
CONTINUOUS
370
13
 10
231.252462666595
 20
317.090023078913
 11
181.252462666595
 21
317.090023078913
  0
LINE
  5
26D
100
AcDbEntity
  8
画層0
100
AcDbLine
  6
CONTINUOUS
370
13
 10
181.252462666595
 20
313.090023078913
 11
231.252462666595
 21
313.090023078913
  0
LINE
  5
26E
100
AcDbEntity
  8
画層0
100
AcDbLine
  6
CONTINUOUS
370
13
 10
220.252462667181
 20
348.690023078913
 11
244.252462667178
 21
348.690023078913
  0
LINE
  5
26F
100
AcDbEntity
  8
画層0
100
AcDbLine
  6
CONTINUOUS
370
13
 10
220.252462667181
 20
330.690023078913
 11
244.252462667179
 21
330.690023078913
  0
LINE
  5
270
100
AcDbEntity
  8
画層0
100
AcDbLine
  6
CONTINUOUS
370
13
 10
246.252384137258
 20
348.690023078913
 11
246.252384137258
 21
362.690023078913
  0
LINE
  5
271
100
AcDbEntity
  8
画層0
100
AcDbLine
  6
CONTINUOUS
370
13
 10
161.252384137258
 20
348.690023078913
 11
161.252384137258
 21
362.690023078913
  0
LINE
  5
272
100
AcDbEntity
  8
画層0
100
AcDbLine
  6
CONTINUOUS
370
13
 10
220.252462667181
 20
334.190023078913
 11
220.252462667181
 21
330.690023078913
  0
LINE
  5
273
100
AcDbEntity
  8
画層0
100
AcDbLine
  6
CONTINUOUS
370
13
 10
203.252462666596
 20
328.690023078913
 11
203.252462666596
 21
348.690023078913
  0
LINE
  5
274
100
AcDbEntity
  8
画層0
100
AcDbLine
  6
CONTINUOUS
370
13
 10
161.252384137258
 20
348.690023078913
 11
203.252462666596
 21
348.690023078913
  0
LINE
  5
275
100
AcDbEntity
  8
画層0
100
AcDbLine
  6
CONTINUOUS
370
13
 10
203.252462666596
 20
341.820023078913
 11
188.32425943632
 21
345.840023078913
  0
LINE
  5
276
100
AcDbEntity
  8
画層0
100
AcDbLine
  6
CONTINUOUS
370
13
 10
203.252462666596
 20
340.860023078913
 11
188.32425943632
 21
336.840023078913
  0
LINE
  5
277
100
AcDbEntity
  8
画層0
100
AcDbLine
  6
CONTINUOUS
370
13
 10
188.32425943632
 20
328.690023078913
 11
188.32425943632
 21
336.840023078913
  0
LINE
  5
278
100
AcDbEntity
  8
画層0
100
AcDbLine
  6
CONTINUOUS
370
13
 10
188.32425943632
 20
345.840023078913
 11
188.32425943632
 21
348.690023078913
  0
LINE
  5
279
100
AcDbEntity
  8
画層0
100
AcDbLine
  6
CONTINUOUS
370
13
 10
358.634039572762
 20
227.949319427022
 11
358.634039572762
 21
230.360796187118
  0
LINE
  5
27A
100
AcDbEntity
  8
画層0
100
AcDbLine
  6
CONTINUOUS
370
13
 10
220.252462667181
 20
334.190023078913
 11
230.252462667181
 21
334.190023078913
  0
LINE
  5
27B
100
AcDbEntity
  8
画層0
100
AcDbLine
  6
CONTINUOUS
370
13
 10
232.752462667181
 20
334.190023078913
 11
244.252462667179
 21
334.190023078913
  0
LINE
  5
27C
100
AcDbEntity
  8
画層0
100
AcDbLine
  6
CONTINUOUS
370
13
 10
230.152384136673
 20
335.490023078913
 11
230.152384136673
 21
348.690023078913
  0
LINE
  5
27D
100
AcDbEntity
  8
画層0
100
AcDbLine
  6
CONTINUOUS
370
13
 10
230.152384136673
 20
348.690023078913
 11
218.152384136673
 21
348.690023078913
  0
LINE
  5
27E
100
AcDbEntity
  8
画層0
100
AcDbLine
  6
CONTINUOUS
370
13
 10
218.152384136673
 20
348.690023078913
 11
218.152384136673
 21
335.490023078913
  0
LINE
  5
27F
100
AcDbEntity
  8
画層0
100
AcDbLine
  6
CONTINUOUS
370
13
 10
218.152384136673
 20
335.490023078913
 11
230.152384136673
 21
335.490023078913
  0
CIRCLE
  5
280
100
AcDbEntity
  8
画層0
100
AcDbCircle
  6
CONTINUOUS
370
13
 10
206.252170680828
 20
189.360624992096
 40
19.2499999999999
  0
ARC
  5
281
100
AcDbEntity
  8
画層0
100
AcDbCircle
  6
CONTINUOUS
370
13
 10
206.252170680828
 20
189.360624992096
 40
25.0000000000001
100
AcDbArc
 50
54.362195735907
 51
-54.362538095
  0
CIRCLE
  5
282
100
AcDbEntity
  8
画層0
100
AcDbCircle
  6
CONTINUOUS
370
13
 10
206.252170680828
 20
189.360624992096
 40
23
  0
LINE
  5
283
100
AcDbEntity
  8
画層0
100
AcDbLine
  6
DASHED
370
13
 10
341.53403957277
 20
185.967118810001
 11
341.53403957277
 21
176.431220425138
  0
LINE
  5
284
100
AcDbEntity
  8
画層0
100
AcDbLine
  6
DASHED
370
13
 10
337.53403957277
 20
185.967118810001
 11
337.53403957277
 21
176.431220425138
  0
LINE
  5
285
100
AcDbEntity
  8
画層0
100
AcDbLine
  6
DASHED
370
13
 10
228.752462667182
 20
334.190023078921
 11
230.252462667181
 21
334.190023078913
  0
LINE
  5
286
100
AcDbEntity
  8
画層0
100
AcDbLine
  6
CONTINUOUS
370
13
 10
224.252462667181
 20
330.690023078913
 11
224.252462667181
 21
334.190023078913
  0
LINE
  5
287
100
AcDbEntity
  8
画層0
100
AcDbLine
  6
CONTINUOUS
370
13
 10
232.752462667183
 20
334.190023078913
 11
232.752462667183
 21
348.690023078913
  0
LINE
  5
288
100
AcDbEntity
  8
画層0
100
AcDbLine
  6
CONTINUOUS
370
13
 10
232.752462667181
 20
346.840023078913
 11
232.752462667181
 21
335.840023078913
  0
LINE
  5
289
100
AcDbEntity
  8
画層0
100
AcDbLine
  6
CONTINUOUS
370
13
 10
369.657023159871
 20
217.360796187121
 11
373.13403957277
 21
217.360796187121
  0
LINE
  5
28A
100
AcDbEntity
  8
画層0
100
AcDbLine
  6
CONTINUOUS
370
13
 10
252.752462667181
 20
347.149498098224
 11
252.752462667181
 21
335.530548059602
  0
LINE
  5
28B
100
AcDbEntity
  8
画層0
100
AcDbLine
  6
CONTINUOUS
370
13
 10
252.752462667181
 20
335.840023078913
 11
252.752462667181
 21
346.840023078913
  0
LINE
  5
28C
100
AcDbEntity
  8
画層0
100
AcDbLine
  6
CONTINUOUS
370
13
 10
252.752462667181
 20
346.840023078913
 11
252.752462667181
 21
335.530548059602
  0
LINE
  5
28D
100
AcDbEntity
  8
画層0
100
AcDbLine
  6
CONTINUOUS
370
13
 10
252.752462667181
 20
346.840023078913
 11
232.752462667181
 21
346.840023078913
  0
LINE
  5
28E
100
AcDbEntity
  8
画層0
100
AcDbLine
  6
CONTINUOUS
370
13
 10
252.752462667181
 20
335.840023078913
 11
232.752462667181
 21
335.840023078913
  0
ARC
  5
28F
100
AcDbEntity
  8
画層0
100
AcDbCircle
  6
CONTINUOUS
370
13
 10
258.252462667181
 20
341.340023078913
 40
8
100
AcDbArc
 50
226.56746344221
 51
493.43253655779
  0
LINE
  5
290
100
AcDbEntity
  8
画層0
100
AcDbLine
  6
CONTINUOUS
370
13
 10
252.752170681414
 20
230.17027107315
 11
252.752170681414
 21
218.551321034528
  0
LINE
  5
291
100
AcDbEntity
  8
画層0
100
AcDbLine
  6
CONTINUOUS
370
13
 10
252.752170681414
 20
218.860796053839
 11
252.752170681414
 21
229.860796053839
  0
LINE
  5
292
100
AcDbEntity
  8
画層0
100
AcDbLine
  6
CONTINUOUS
370
13
 10
252.752170681414
 20
229.860796053839
 11
252.752170681414
 21
218.551321034528
  0
LINE
  5
293
100
AcDbEntity
  8
画層0
100
AcDbLine
  6
CONTINUOUS
370
13
 10
252.752170681414
 20
229.860796053839
 11
232.920345949693
 21
229.860796053839
  0
LINE
  5
294
100
AcDbEntity
  8
画層0
100
AcDbLine
  6
CONTINUOUS
370
13
 10
252.752170681414
 20
218.860796053839
 11
239.391698854044
 21
218.860796053839
  0
ARC
  5
295
100
AcDbEntity
  8
画層0
100
AcDbCircle
  6
CONTINUOUS
370
13
 10
258.252170681414
 20
224.360796053839
 40
8
100
AcDbArc
 50
226.56746344221
 51
493.43253655779
  0
LINE
  5
296
100
AcDbEntity
  8
画層0
100
AcDbLine
  6
CONTINUOUS
370
13
 10
232.752462667183
 20
343.590023078913
 11
230.270117231383
 21
343.590023078913
  0
LINE
  5
297
100
AcDbEntity
  8
画層0
100
AcDbLine
  6
CONTINUOUS
370
13
 10
232.752462667183
 20
339.090023078913
 11
230.270117231383
 21
339.090023078913
  0
CIRCLE
  5
298
100
AcDbEntity
  8
画層0
100
AcDbCircle
  6
CONTINUOUS
370
13
 10
365.78403957277
 20
224.360796053839
 40
8
  0
CIRCLE
  5
299
100
AcDbEntity
  8
画層0
100
AcDbCircle
  6
DIVIDE
370
13
 10
227.252170681999
 20
155.360796053839
 40
4.5
  0
CIRCLE
  5
29A
100
AcDbEntity
  8
画層0
100
AcDbCircle
  6
DIVIDE
370
13
 10
227.252170681999
 20
155.360796053839
 40
4.5
  0
CIRCLE
  5
29B
100
AcDbEntity
  8
画層0
100
AcDbCircle
  6
DIVIDE
370
13
 10
227.252170681999
 20
155.360796053839
 40
4.5
  0
CIRCLE
  5
29C
100
AcDbEntity
  8
画層0
100
AcDbCircle
  6
DIVIDE
370
13
 10
227.252170681999
 20
155.360796053839
 40
4.5
  0
CIRCLE
  5
29D
100
AcDbEntity
  8
画層0
100
AcDbCircle
  6
DIVIDE
370
13
 10
227.252170681999
 20
155.360796053839
 40
4.5
  0
ARC
  5
29E
100
AcDbEntity
  8
画層0
100
AcDbCircle
  6
DIVIDE
370
13
 10
261.252170681999
 20
176.360796054424
 40
25.0000311523997
100
AcDbArc
 50
226.468800861527
 51
313.531199138473
  0
CIRCLE
  5
29F
100
AcDbEntity
  8
画層0
100
AcDbCircle
  6
DIVIDE
370
13
 10
227.252170681999
 20
155.360796053839
 40
4.5
  0
LINE
  5
2A0
100
AcDbEntity
  8
画層0
100
AcDbLine
  6
DIVIDE
370
13
 10
220.251999620256
 20
149.860894893917
 11
240.170755102321
 21
138.360796054424
  0
LINE
  5
2A1
100
AcDbEntity
  8
画層0
100
AcDbLine
  6
DIVIDE
370
13
 10
301.252170815279
 20
149.283445785235
 11
282.333586528237
 21
138.360796054424
  0
LINE
  5
2A2
100
AcDbEntity
  8
画層0
100
AcDbLine
  6
DIVIDE
370
13
 10
220.252170815279
 20
158.360796054424
 11
220.252170815279
 21
149.860796054424
  0
LINE
  5
2A3
100
AcDbEntity
  8
画層0
100
AcDbLine
  6
DIVIDE
370
13
 10
302.252170815279
 20
151.015496592804
 11
302.252170815279
 21
158.360796054424
  0
LINE
  5
2A4
100
AcDbEntity
  8
画層0
100
AcDbLine
  6
DIVIDE
370
13
 10
233.702170823688
 20
162.360796054424
 11
224.252170815279
 21
162.360796054424
  0
LINE
  5
2A5
100
AcDbEntity
  8
画層0
100
AcDbLine
  6
DIVIDE
370
13
 10
288.802170540311
 20
162.360796054424
 11
298.252170815279
 21
162.360796054424
  0
LINE
  5
2A6
100
AcDbEntity
  8
画層0
100
AcDbLine
  6
DIVIDE
370
13
 10
220.252170815279
 20
158.360796054424
 11
224.252170815279
 21
162.360796054424
  0
LINE
  5
2A7
100
AcDbEntity
  8
画層0
100
AcDbLine
  6
DIVIDE
370
13
 10
298.252170815279
 20
162.360796054424
 11
302.252170815279
 21
158.360796054424
  0
ARC
  5
2A8
100
AcDbEntity
  8
画層0
100
AcDbCircle
  6
DIVIDE
370
13
 10
300.252170815279
 20
151.015496592804
 40
2
100
AcDbArc
 50
300
 51
360.000000000002
  0
ARC
  5
2A9
100
AcDbEntity
  8
画層0
100
AcDbCircle
  6
DIVIDE
370
13
 10
288.802170540311
 20
147.360796054424
 40
15
100
AcDbArc
 50
90
 51
133.531199138473
  0
ARC
  5
2AA
100
AcDbEntity
  8
画層0
100
AcDbCircle
  6
DIVIDE
370
13
 10
233.702170823688
 20
147.360796054424
 40
15
100
AcDbArc
 50
46.4688008615272
 51
90
  0
LINE
  5
2AB
100
AcDbEntity
  8
画層0
100
AcDbLine
  6
DIVIDE
370
13
 10
282.333586528237
 20
138.360796054424
 11
240.170755102321
 21
138.360796054424
  0
LINE
  5
2AC
100
AcDbEntity
  8
画層0
100
AcDbLine
  6
DIVIDE
370
13
 10
302.252170815279
 20
151.015496592804
 11
302.252170815279
 21
157.366311546472
  0
LINE
  5
2AD
100
AcDbEntity
  8
画層0
100
AcDbLine
  6
CONTINUOUS
370
13
 10
243.252384137258
 20
348.690023078913
 11
243.252384137258
 21
362.690023078913
  0
LINE
  5
2AE
100
AcDbEntity
  8
画層0
100
AcDbLine
  6
CONTINUOUS
370
13
 10
373.13403957277
 20
228.860624992099
 11
387.13403957277
 21
228.860624992099
  0
LINE
  5
2AF
100
AcDbEntity
  8
画層0
100
AcDbLine
  6
CONTINUOUS
370
13
 10
373.13403957277
 20
149.860624992095
 11
387.13403957277
 21
149.860624992095
  0
CIRCLE
  5
2B0
100
AcDbEntity
  8
画層0
100
AcDbCircle
  6
CONTINUOUS
370
13
 10
227.252170681999
 20
155.360796053839
 40
6
  0
CIRCLE
  5
2B1
100
AcDbEntity
  8
画層0
100
AcDbCircle
  6
CONTINUOUS
370
13
 10
227.252170681999
 20
155.360796053839
 40
4
  0
LINE
  5
2B2
100
AcDbEntity
  8
画層0
100
AcDbLine
  6
CONTINUOUS
 62
7
370
30
 10
228.152384136673
 20
334.790023078913
 11
228.152384136673
 21
335.290023078913
  0
LINE
  5
2B3
100
AcDbEntity
  8
画層0
100
AcDbLine
  6
CONTINUOUS
 62
7
370
30
 10
220.152384136673
 20
335.290023078913
 11
220.152384136673
 21
334.790023078913
  0
LINE
  5
2B4
100
AcDbEntity
  8
画層0
100
AcDbLine
  6
CONTINUOUS
 62
7
370
30
 10
220.152384136673
 20
334.790023078913
 11
220.8452044597
 21
334.390023078913
  0
LINE
  5
2B5
100
AcDbEntity
  8
画層0
100
AcDbLine
  6
CONTINUOUS
 62
7
370
30
 10
227.459563813645
 20
334.390023078913
 11
228.152384136673
 21
334.790023078913
  0
LINE
  5
2B6
100
AcDbEntity
  8
画層0
100
AcDbLine
  6
CONTINUOUS
 62
7
370
30
 10
220.152384136673
 20
334.790023078913
 11
228.152384136673
 21
334.790023078913
  0
LINE
  5
2B7
100
AcDbEntity
  8
画層0
100
AcDbLine
  6
CONTINUOUS
 62
7
370
30
 10
224.152384136673
 20
335.290023078913
 11
220.152384136673
 21
335.290023078913
  0
LINE
  5
2B8
100
AcDbEntity
  8
画層0
100
AcDbLine
  6
CONTINUOUS
 62
7
370
30
 10
228.152384136673
 20
335.290023078913
 11
224.152384136673
 21
335.290023078913
  0
LINE
  5
2B9
100
AcDbEntity
  8
画層0
100
AcDbLine
  6
CONTINUOUS
 62
7
370
30
 10
227.459563813645
 20
334.390023078913
 11
220.8452044597
 21
334.390023078913
  0
LINE
  5
2BA
100
AcDbEntity
  8
画層0
100
AcDbLine
  6
DASHED
370
13
 10
161.252092151491
 20
163.860624992096
 11
168.252092151491
 21
163.860624992096
  0
LINE
  5
2BB
100
AcDbEntity
  8
画層0
100
AcDbLine
  6
DASHED
370
13
 10
179.252092151491
 20
163.860624992096
 11
203.252170680829
 21
163.860624992096
  0
LINE
  5
2BC
100
AcDbEntity
  8
画層0
100
AcDbLine
  6
CONTINUOUS
370
13
 10
188.252170680829
 20
159.360624992096
 11
179.252092151491
 21
159.360624992096
  0
LINE
  5
2BD
100
AcDbEntity
  8
画層0
100
AcDbLine
  6
CONTINUOUS
370
13
 10
168.252092151491
 20
159.360624992096
 11
161.252092151491
 21
159.360624992096
  0
LINE
  5
2BE
100
AcDbEntity
  8
画層0
100
AcDbLine
  6
CONTINUOUS
370
13
 10
188.252170680829
 20
219.360624992096
 11
179.252092151491
 21
219.360624992096
  0
LINE
  5
2BF
100
AcDbEntity
  8
画層0
100
AcDbLine
  6
CONTINUOUS
370
13
 10
168.252092151491
 20
219.360624992096
 11
161.252092151491
 21
219.360624992096
  0
LINE
  5
2C0
100
AcDbEntity
  8
画層0
100
AcDbLine
  6
DASHED
370
13
 10
161.252092151491
 20
214.860624992096
 11
168.252092151491
 21
214.860624992096
  0
LINE
  5
2C1
100
AcDbEntity
  8
画層0
100
AcDbLine
  6
DASHED
370
13
 10
179.252092151491
 20
214.860624992096
 11
203.252170680829
 21
214.860624992096
  0
LINE
  5
2C2
100
AcDbEntity
  8
画層0
100
AcDbLine
  6
CONTINUOUS
370
13
 10
181.252092151491
 20
159.360624992096
 11
181.252092151491
 21
143.360624992096
  0
LINE
  5
2C3
100
AcDbEntity
  8
画層0
100
AcDbLine
  6
CONTINUOUS
370
13
 10
166.252092151491
 20
159.360624992096
 11
166.252092151491
 21
143.360624992096
  0
LINE
  5
2C4
100
AcDbEntity
  8
画層0
100
AcDbLine
  6
CONTINUOUS
370
13
 10
179.252092151491
 20
163.360624992096
 11
168.252092151491
 21
163.360624992096
  0
LINE
  5
2C5
100
AcDbEntity
  8
画層0
100
AcDbLine
  6
CONTINUOUS
370
13
 10
181.252092151491
 20
143.360624992096
 11
166.252092151491
 21
143.360624992096
  0
LINE
  5
2C6
100
AcDbEntity
  8
画層0
100
AcDbLine
  6
CONTINUOUS
370
13
 10
181.252092151491
 20
219.360624992096
 11
181.252092151491
 21
235.360624992096
  0
LINE
  5
2C7
100
AcDbEntity
  8
画層0
100
AcDbLine
  6
CONTINUOUS
370
13
 10
166.252092151491
 20
219.360624992096
 11
166.252092151491
 21
235.360624992096
  0
LINE
  5
2C8
100
AcDbEntity
  8
画層0
100
AcDbLine
  6
CONTINUOUS
370
13
 10
179.252092151491
 20
215.360624992096
 11
168.252092151491
 21
215.360624992096
  0
LINE
  5
2C9
100
AcDbEntity
  8
画層0
100
AcDbLine
  6
CONTINUOUS
370
13
 10
181.252092151491
 20
235.360624992096
 11
166.252092151491
 21
235.360624992096
  0
LINE
  5
2CA
100
AcDbEntity
  8
画層0
100
AcDbLine
  6
CONTINUOUS
370
13
 10
181.252384137258
 20
319.190023078913
 11
181.252384137258
 21
345.190023078913
  0
LINE
  5
2CB
100
AcDbEntity
  8
画層0
100
AcDbLine
  6
CONTINUOUS
370
13
 10
166.252384137258
 20
319.190023078913
 11
166.252384137258
 21
345.190023078913
  0
LINE
  5
2CC
100
AcDbEntity
  8
画層0
100
AcDbLine
  6
CONTINUOUS
370
13
 10
168.252384137258
 20
347.190023078913
 11
179.252384137258
 21
347.190023078913
  0
LINE
  5
2CD
100
AcDbEntity
  8
画層0
100
AcDbLine
  6
CONTINUOUS
370
13
 10
179.252384137258
 20
317.190023078913
 11
168.252384137258
 21
317.190023078913
  0
CIRCLE
  5
2CE
100
AcDbEntity
  8
画層0
100
AcDbCircle
  6
CONTINUOUS
370
13
 10
173.752384137258
 20
333.190023078913
 40
3
  0
LINE
  5
2CF
100
AcDbEntity
  8
画層0
100
AcDbLine
  6
CONTINUOUS
370
13
 10
179.252384137258
 20
347.190023078913
 11
181.252384137258
 21
345.190023078913
  0
LINE
  5
2D0
100
AcDbEntity
  8
画層0
100
AcDbLine
  6
CONTINUOUS
370
13
 10
166.252384137258
 20
345.190023078913
 11
168.252384137258
 21
347.190023078913
  0
LINE
  5
2D1
100
AcDbEntity
  8
画層0
100
AcDbLine
  6
CONTINUOUS
370
13
 10
166.252384137258
 20
319.190023078913
 11
168.252384137258
 21
317.190023078913
  0
LINE
  5
2D2
100
AcDbEntity
  8
画層0
100
AcDbLine
  6
CONTINUOUS
370
13
 10
181.252384137258
 20
319.190023078913
 11
179.252384137258
 21
317.190023078913
  0
LINE
  5
2D3
100
AcDbEntity
  8
画層0
100
AcDbLine
  6
CONTINUOUS
370
13
 10
161.252384137258
 20
345.840023078913
 11
166.902384137258
 21
345.840023078913
  0
LINE
  5
2D4
100
AcDbEntity
  8
画層0
100
AcDbLine
  6
CONTINUOUS
370
13
 10
180.602384137258
 20
345.840023078913
 11
188.32425943632
 21
345.840023078913
  0
LINE
  5
2D5
100
AcDbEntity
  8
画層0
100
AcDbLine
  6
CONTINUOUS
370
13
 10
161.252384137258
 20
341.340023078913
 11
166.252384137258
 21
341.340023078913
  0
LINE
  5
2D6
100
AcDbEntity
  8
画層0
100
AcDbLine
  6
CONTINUOUS
370
13
 10
181.252384137258
 20
341.340023078913
 11
203.252462666596
 21
341.340023078913
  0
LINE
  5
2D7
100
AcDbEntity
  8
画層0
100
AcDbLine
  6
CONTINUOUS
370
13
 10
161.252384137258
 20
336.840023078913
 11
166.252384137258
 21
336.840023078913
  0
LINE
  5
2D8
100
AcDbEntity
  8
画層0
100
AcDbLine
  6
CONTINUOUS
370
13
 10
181.252384137258
 20
336.840023078913
 11
188.32425943632
 21
336.840023078913
  0
LINE
  5
2D9
100
AcDbEntity
  8
画層0
100
AcDbLine
  6
DIVIDE
370
13
 10
178.752092151491
 20
152.360624992096
 11
178.752092151491
 21
148.360624992096
  0
LINE
  5
2DA
100
AcDbEntity
  8
画層0
100
AcDbLine
  6
DIVIDE
370
13
 10
168.752092151491
 20
152.360624992096
 11
168.752092151491
 21
148.360624992096
  0
LINE
  5
2DB
100
AcDbEntity
  8
画層0
100
AcDbLine
  6
DIVIDE
370
13
 10
181.252092151491
 20
148.360624992096
 11
181.252092151491
 21
132.360624992096
  0
LINE
  5
2DC
100
AcDbEntity
  8
画層0
100
AcDbLine
  6
DIVIDE
370
13
 10
166.252092151491
 20
148.360624992096
 11
166.252092151491
 21
132.360624992096
  0
LINE
  5
2DD
100
AcDbEntity
  8
画層0
100
AcDbLine
  6
DIVIDE
370
13
 10
181.252092151491
 20
132.360624992096
 11
166.252092151491
 21
132.360624992096
  0
LINE
  5
2DE
100
AcDbEntity
  8
画層0
100
AcDbLine
  6
CONTINUOUS
370
13
 10
179.252092151491
 20
219.360624992096
 11
179.252092151491
 21
235.360624992096
  0
LINE
  5
2DF
100
AcDbEntity
  8
画層0
100
AcDbLine
  6
CONTINUOUS
370
13
 10
168.252092151491
 20
219.360624992096
 11
168.252092151491
 21
235.360624992096
  0
LINE
  5
2E0
100
AcDbEntity
  8
画層0
100
AcDbLine
  6
CONTINUOUS
370
13
 10
179.252092151491
 20
159.360624992096
 11
179.252092151491
 21
143.360624992096
  0
LINE
  5
2E1
100
AcDbEntity
  8
画層0
100
AcDbLine
  6
CONTINUOUS
370
13
 10
168.252092151491
 20
159.360624992096
 11
168.252092151491
 21
143.360624992096
  0
ARC
  5
2E2
100
AcDbEntity
  8
画層0
100
AcDbCircle
  6
CONTINUOUS
370
13
 10
235.252170681414
 20
213.761869008791
 40
15
100
AcDbArc
 50
180
 51
-164.203461722771
  0
ARC
  5
2E3
100
AcDbEntity
  8
画層0
100
AcDbCircle
  6
CONTINUOUS
370
13
 10
235.252170681414
 20
164.959723098887
 40
15
100
AcDbArc
 50
164.204504408071
 51
180
  0
LINE
  5
2E4
100
AcDbEntity
  8
画層0
100
AcDbLine
  6
CONTINUOUS
370
13
 10
237.752462666595
 20
348.690023078913
 11
174.752462666595
 21
348.690023078913
  0
LINE
  5
2E5
100
AcDbEntity
  8
画層0
100
AcDbLine
  6
CONTINUOUS
370
13
 10
204.252462666595
 20
333.990023078913
 11
220.252462667181
 21
333.990023078913
  0
LINE
  5
2E6
100
AcDbEntity
  8
画層0
100
AcDbLine
  6
CONTINUOUS
370
13
 10
231.252754652362
 20
321.690023078913
 11
231.252754652362
 21
330.690023078913
  0
LINE
  5
2E7
100
AcDbEntity
  8
画層0
100
AcDbLine
  6
CONTINUOUS
370
13
 10
183.252754652362
 20
319.690023078913
 11
229.252754652362
 21
319.690023078913
  0
LINE
  5
2E8
100
AcDbEntity
  8
画層0
100
AcDbLine
  6
CONTINUOUS
370
13
 10
231.252754652362
 20
321.690023078913
 11
229.252754652362
 21
319.690023078913
  0
LINE
  5
2E9
100
AcDbEntity
  8
画層0
100
AcDbLine
  6
CONTINUOUS
370
13
 10
181.252754652362
 20
321.690023078913
 11
183.252754652362
 21
319.690023078913
  0
LINE
  5
2EA
100
AcDbEntity
  8
画層0
100
AcDbLine
  6
CONTINUOUS
370
13
 10
373.13403957277
 20
220.860624992096
 11
373.13403957277
 21
157.860624992096
  0
LINE
  5
2EB
100
AcDbEntity
  8
画層0
100
AcDbLine
  6
CONTINUOUS
370
13
 10
346.13403957277
 20
164.360916977862
 11
355.13403957277
 21
164.360916977862
  0
LINE
  5
2EC
100
AcDbEntity
  8
画層0
100
AcDbLine
  6
CONTINUOUS
370
13
 10
346.13403957277
 20
214.360916977862
 11
355.13403957277
 21
214.360916977862
  0
LINE
  5
2ED
100
AcDbEntity
  8
画層0
100
AcDbLine
  6
CONTINUOUS
370
13
 10
344.13403957277
 20
166.360916977862
 11
344.13403957277
 21
212.360916977862
  0
LINE
  5
2EE
100
AcDbEntity
  8
画層0
100
AcDbLine
  6
CONTINUOUS
370
13
 10
346.13403957277
 20
214.360916977862
 11
344.13403957277
 21
212.360916977862
  0
LINE
  5
2EF
100
AcDbEntity
  8
画層0
100
AcDbLine
  6
CONTINUOUS
370
13
 10
346.13403957277
 20
164.360916977862
 11
344.13403957277
 21
166.360916977862
  0
LINE
  5
2F0
100
AcDbEntity
  8
画層0
100
AcDbLine
  6
CONTINUOUS
370
13
 10
343.53403957277
 20
185.360624992096
 11
344.13403957277
 21
185.360624992096
  0
LINE
  5
2F1
100
AcDbEntity
  8
画層0
100
AcDbLine
  6
CONTINUOUS
370
13
 10
343.53403957277
 20
193.360624992096
 11
344.13403957277
 21
193.360624992096
  0
CIRCLE
  5
2F2
100
AcDbEntity
  8
画層0
100
AcDbCircle
  6
CONTINUOUS
370
13
 10
166.252092151491
 20
174.360624992096
 40
3
  0
CIRCLE
  5
2F3
100
AcDbEntity
  8
画層0
100
AcDbCircle
  6
CONTINUOUS
370
13
 10
166.252092151491
 20
204.360624992096
 40
3
  0
LINE
  5
2F4
100
AcDbEntity
  8
画層0
100
AcDbLine
  6
CONTINUOUS
370
13
 10
161.252092151491
 20
159.360624992096
 11
161.252092151491
 21
219.360624992096
  0
LINE
  5
2F5
100
AcDbEntity
  8
画層0
100
AcDbLine
  6
CONTINUOUS
370
13
 10
161.252384137258
 20
348.690023078913
 11
161.252384137258
 21
328.690023078913
  0
CIRCLE
  5
2F6
100
AcDbEntity
  8
画層0
100
AcDbCircle
  6
CONTINUOUS
370
13
 10
227.252170681999
 20
155.360796053839
 40
4.5
  0
CIRCLE
  5
2F7
100
AcDbEntity
  8
画層0
100
AcDbCircle
  6
CONTINUOUS
370
13
 10
227.252170681999
 20
155.360796053839
 40
5.5
  0
ARC
  5
2F8
100
AcDbEntity
  8
画層0
100
AcDbCircle
  6
DASHED
370
13
 10
224.152092150906
 20
224.360796053839
 40
4
100
AcDbArc
 50
167.156370544385
 51
-167.156370544385
  0
ARC
  5
2F9
100
AcDbEntity
  8
画層0
100
AcDbCircle
  6
CONTINUOUS
370
13
 10
224.152092150906
 20
224.360796053839
 40
4
100
AcDbArc
 50
170.784846472842
 51
-167.156370544392
  0
LINE
  5
2FA
100
AcDbEntity
  8
画層0
100
AcDbLine
  6
CONTINUOUS
370
13
 10
204.252462666595
 20
333.990023078913
 11
204.252462666595
 21
348.690023078913
  0
LINE
  5
2FB
100
AcDbEntity
  8
画層0
100
AcDbLine
  6
CONTINUOUS
370
13
 10
179.252092151491
 20
215.360624992096
 11
179.252092151491
 21
219.360624992096
  0
LINE
  5
2FC
100
AcDbEntity
  8
画層0
100
AcDbLine
  6
CONTINUOUS
370
13
 10
179.252092151491
 20
213.360624992096
 11
179.252092151491
 21
219.360624992096
  0
LINE
  5
2FD
100
AcDbEntity
  8
画層0
100
AcDbLine
  6
CONTINUOUS
370
13
 10
168.252092151491
 20
213.360624992096
 11
168.252092151491
 21
219.360624992096
  0
LINE
  5
2FE
100
AcDbEntity
  8
画層0
100
AcDbLine
  6
CONTINUOUS
370
13
 10
168.252092151491
 20
215.360624992096
 11
168.252092151491
 21
219.360624992096
  0
LINE
  5
2FF
100
AcDbEntity
  8
画層0
100
AcDbLine
  6
CONTINUOUS
370
13
 10
179.252092151491
 20
159.360624992096
 11
179.252092151491
 21
165.360624992095
  0
LINE
  5
300
100
AcDbEntity
  8
画層0
100
AcDbLine
  6
CONTINUOUS
370
13
 10
179.252092151491
 20
163.360624992096
 11
179.252092151491
 21
159.360624992096
  0
LINE
  5
301
100
AcDbEntity
  8
画層0
100
AcDbLine
  6
CONTINUOUS
370
13
 10
168.252092151491
 20
159.360624992096
 11
168.252092151491
 21
165.360624992095
  0
LINE
  5
302
100
AcDbEntity
  8
画層0
100
AcDbLine
  6
CONTINUOUS
370
13
 10
168.252092151491
 20
163.360624992096
 11
168.252092151491
 21
159.360624992096
  0
LINE
  5
303
100
AcDbEntity
  8
画層0
100
AcDbLine
  6
CONTINUOUS
370
13
 10
179.252384137258
 20
347.190023078913
 11
179.252384137258
 21
348.690023078913
  0
LINE
  5
304
100
AcDbEntity
  8
画層0
100
AcDbLine
  6
CONTINUOUS
370
13
 10
168.252384137258
 20
347.190023078913
 11
168.252384137258
 21
348.690023078913
  0
ARC
  5
305
100
AcDbEntity
  8
画層0
100
AcDbCircle
  6
CONTINUOUS
370
13
 10
356.13403957277
 20
216.360624992096
 40
3
100
AcDbArc
 50
109.471220634491
 51
180
  0
ARC
  5
306
100
AcDbEntity
  8
画層0
100
AcDbCircle
  6
CONTINUOUS
370
13
 10
356.13403957277
 20
162.360624992096
 40
3
100
AcDbArc
 50
180
 51
-120
  0
LINE
  5
307
100
AcDbEntity
  8
画層0
100
AcDbLine
  6
CONTINUOUS
370
13
 10
181.252092151491
 20
219.360624992096
 11
179.252092151491
 21
219.360624992096
  0
LINE
  5
308
100
AcDbEntity
  8
画層0
100
AcDbLine
  6
CONTINUOUS
370
13
 10
168.252092151491
 20
219.360624992096
 11
166.252092151491
 21
219.360624992096
  0
LINE
  5
309
100
AcDbEntity
  8
画層0
100
AcDbLine
  6
CONTINUOUS
370
13
 10
181.252092151491
 20
159.360624992096
 11
179.252092151491
 21
159.360624992096
  0
LINE
  5
30A
100
AcDbEntity
  8
画層0
100
AcDbLine
  6
CONTINUOUS
370
13
 10
168.252092151491
 20
159.360624992096
 11
166.252092151491
 21
159.360624992096
  0
LINE
  5
30B
100
AcDbEntity
  8
画層0
100
AcDbLine
  6
CONTINUOUS
370
13
 10
355.13403957277
 20
210.442211900077
 11
373.13403957277
 21
210.442211900077
  0
LINE
  5
30C
100
AcDbEntity
  8
画層0
100
AcDbLine
  6
CONTINUOUS
370
13
 10
355.13403957277
 20
168.279380474161
 11
373.13403957277
 21
168.279380474161
  0
LINE
  5
30D
100
AcDbEntity
  8
画層0
100
AcDbLine
  6
CONTINUOUS
370
13
 10
179.252092151491
 20
213.360624992096
 11
168.252092151491
 21
213.360624992096
  0
LINE
  5
30E
100
AcDbEntity
  8
画層0
100
AcDbLine
  6
CONTINUOUS
370
13
 10
179.252092151491
 20
165.360624992095
 11
168.252092151491
 21
165.360624992095
  0
ARC
  5
30F
100
AcDbEntity
  8
画層0
100
AcDbCircle
  6
BYLAYER
370
13
 10
386.38403957277
 20
124.360624992095
 40
1.5499999523163
100
AcDbArc
 50
106.877269973394
 51
253.122730026606
  0
LINE
  5
310
100
AcDbEntity
  8
画層0
100
AcDbLine
  6
BYLAYER
370
13
 10
387.13403957277
 20
127.669460225054
 11
385.93403957277
 21
126.010631310188
  0
LINE
  5
311
100
AcDbEntity
  8
画層0
100
AcDbLine
  6
BYLAYER
370
13
 10
385.93403957277
 20
126.010631310188
 11
385.93403957277
 21
122.710631310188
  0
LINE
  5
312
100
AcDbEntity
  8
画層0
100
AcDbLine
  6
BYLAYER
370
13
 10
385.93403957277
 20
122.710631310188
 11
387.13403957277
 21
121.051807780776
  0
MTEXT
  5
313
100
AcDbEntity
  8
画層0
100
AcDbMText
 10
453.095435843308
 20
421.140567941678
 40
4.125
 41
  0.0
  1
{\fMS Gothic|b1;Manufactured by}
  7
Font_0
  0
MTEXT
  5
314
100
AcDbEntity
  8
画層0
100
AcDbMText
 10
445.066299838776
 20
414.143977566453
 40
4.95
 41
  0.0
  1
{\fMS Gothic|b1;Minato Concept,Inc.}
  7
Font_0
  0
MTEXT
  5
315
100
AcDbEntity
  8
画層0
100
AcDbMText
 10
459.474706481773
 20
405.634610893882
 40
3.3
 41
  0.0
  1
{\fMS Gothic|b1;Tokyo Japan}
  7
Font_0
  0
MTEXT
  5
316
100
AcDbEntity
  8
画層0
100
AcDbMText
 10
455.372549917355
 20
400.339893853171
 40
3.3
 41
  0.0
  1
{\fMS Gothic|b1;TEL:03-5637-2882}
  7
Font_0
  0
MTEXT
  5
317
100
AcDbEntity
  8
画層0
100
AcDbMText
 10
453.65074087253
 20
395.423370886796
 40
3.3
 41
  0.0
  1
{\fMS Gothic|b1;www.minato-c.co.jp}
  7
Font_0
  0
LINE
  5
318
100
AcDbEntity
  8
画層0
100
AcDbLine
  6
CONTINUOUS
370
13
 10
483.248253896022
 20
390.059543160125
 11
454.022100975719
 21
390.059543160125
  0
LINE
  5
319
100
AcDbEntity
  8
画層0
100
AcDbLine
  6
CONTINUOUS
370
13
 10
483.248253896022
 20
385.934543160125
 11
454.022100975719
 21
385.934543160125
  0
LINE
  5
31A
100
AcDbEntity
  8
画層0
100
AcDbLine
  6
CONTINUOUS
370
13
 10
463.207046780715
 20
390.079371126314
 11
463.207046780715
 21
385.954371126314
  0
LINE
  5
31B
100
AcDbEntity
  8
画層0
100
AcDbLine
  6
CONTINUOUS
370
13
 10
454.022100975719
 20
390.059543160125
 11
454.022100975719
 21
385.934543160125
  0
LINE
  5
31C
100
AcDbEntity
  8
画層0
100
AcDbLine
  6
CONTINUOUS
370
13
 10
483.248253896022
 20
390.059543160125
 11
483.248253896022
 21
385.934543160125
  0
MTEXT
  5
31D
100
AcDbEntity
  8
画層0
100
AcDbMText
 10
454.232967643844
 20
388.951493747387
 40
2.475
 41
  0.0
  1
{\fMS Gothic|b1;SER.NO.}
  7
Font_0
  0
TEXT
  5
31E
100
AcDbEntity
  8
画層0
100
AcDbText
  6
CONTINUOUS
 10
193.805659282962
 20
140.472921193012
 40
6
  1
MCRP326
  7
Font_0
 11
193.805659282962
 21
146.472921193012
100
AcDbText
 73
3
  0
TEXT
  5
31F
100
AcDbEntity
  8
画層0
100
AcDbText
  6
BYLAYER
 10
444.599697240489
 20
460.009492098841
 40
2.5
 41
0.9
  1
R.C
  7
Font_0
100
AcDbText
  0
TEXT
  5
320
100
AcDbEntity
  8
画層0
100
AcDbText
  6
BYLAYER
 10
444.257726716809
 20
449.392779121537
 40
2.5
 41
0.9
  1
TIM
  7
Font_0
100
AcDbText
  0
TEXT
  5
321
100
AcDbEntity
  8
画層0
100
AcDbText
  6
BYLAYER
 10
444.257726716809
 20
454.771879586935
 40
2.5
 41
0.9
  1
OFF
  7
Font_0
100
AcDbText
  0
TEXT
  5
322
100
AcDbEntity
  8
画層0
100
AcDbText
  6
CONTINUOUS
 10
496.63517743587
 20
365.036896929448
 40
4
  1
R．C
  7
Font_0
 50
360
 11
496.63517743587
 21
369.036896929448
100
AcDbText
 73
3
  0
TEXT
  5
323
100
AcDbEntity
  8
画層0
100
AcDbText
  6
CONTINUOUS
 10
426.664135693728
 20
365.779937333603
 40
4
  1
□DC12V IN
  7
Font_0
 11
426.664135693728
 21
369.779937333603
100
AcDbText
 73
3
  0
MTEXT
  5
324
100
AcDbEntity
  8
画層0
100
AcDbMText
 10
441.52337743587
 20
467.372064937342
 40
3
 41
  0.0
  1
{\fMS PGothic|b1;POWER}
 71
3
  7
Font_1
 11
1
 21
1.16304860122984E-14
  0
LINE
  5
325
100
AcDbEntity
  8
画層0
100
AcDbLine
  6
CONTINUOUS
370
13
 10
373.13403957277
 20
148.360624992096
 11
373.13403957277
 21
221.202077959421
  0
LINE
  5
326
100
AcDbEntity
  8
画層0
100
AcDbLine
  6
CONTINUOUS
370
13
 10
373.13403957277
 20
227.519514148257
 11
373.13403957277
 21
230.360796187118
  0
LINE
  5
327
100
AcDbEntity
  8
画層0
100
AcDbLine
  6
CONTINUOUS
370
13
 10
373.13403957277
 20
231.860624992099
 11
373.13403957277
 21
227.519514148257
  0
LINE
  5
328
100
AcDbEntity
  8
画層0
100
AcDbLine
  6
CONTINUOUS
370
13
 10
373.13403957277
 20
221.202077959421
 11
373.13403957277
 21
146.860624992095
  0
LINE
  5
329
100
AcDbEntity
  8
画層0
100
AcDbLine
  6
CONTINUOUS
370
13
 10
353.13403957277
 20
162.360624992096
 11
353.13403957277
 21
164.360916977862
  0
LINE
  5
32A
100
AcDbEntity
  8
画層0
100
AcDbLine
  6
CONTINUOUS
370
13
 10
353.13403957277
 20
214.360624992096
 11
353.13403957277
 21
216.360624992096
  0
LINE
  5
32B
100
AcDbEntity
  8
画層0
100
AcDbLine
  6
CONTINUOUS
370
13
 10
346.13403957277
 20
214.360916977862
 11
346.13403957277
 21
164.360916977862
  0
LINE
  5
32C
100
AcDbEntity
  8
画層0
100
AcDbLine
  6
BYLAYER
370
13
 10
385.63403957277
 20
132.555417345838
 11
385.528955569739
 21
132.029997330682
  0
LINE
  5
32D
100
AcDbEntity
  8
画層0
100
AcDbLine
  6
BYLAYER
370
13
 10
385.581497571255
 20
132.29270733826
 11
384.93403957277
 21
129.055417345838
  0
LINE
  5
32E
100
AcDbEntity
  8
画層0
100
AcDbLine
  6
CONTINUOUS
370
13
 10
257.650859282962
 20
80.7606249920953
 11
257.650859282962
 21
216.383426524847
  0
LINE
  5
32F
100
AcDbEntity
  8
画層0
100
AcDbLine
  6
CONTINUOUS
370
13
 10
257.650859282962
 20
232.338165582831
 11
257.650859282962
 21
234.760624992095
  0
LINE
  5
330
100
AcDbEntity
  8
画層0
100
AcDbLine
  6
CONTINUOUS
370
13
 10
256.450859282962
 20
80.7606249920953
 11
256.450859282962
 21
216.566228891654
  0
LINE
  5
331
100
AcDbEntity
  8
画層0
100
AcDbLine
  6
CONTINUOUS
370
13
 10
256.450859282962
 20
232.155363216023
 11
256.450859282962
 21
233.560624992095
  0
LINE
  5
332
100
AcDbEntity
  8
画層0
100
AcDbLine
  6
CONTINUOUS
370
13
 10
256.250859282962
 20
81.3606249920953
 11
256.250859282962
 21
216.615168081465
  0
LINE
  5
333
100
AcDbEntity
  8
画層0
100
AcDbLine
  6
CONTINUOUS
370
13
 10
256.250859282962
 20
232.106424026213
 11
256.250859282962
 21
233.360624992095
  0
LINE
  5
334
100
AcDbEntity
  8
画層0
100
AcDbLine
  6
CONTINUOUS
370
13
 10
154.850859282962
 20
234.760624992095
 11
166.252092151491
 21
234.760624992095
  0
LINE
  5
335
100
AcDbEntity
  8
画層0
100
AcDbLine
  6
CONTINUOUS
370
13
 10
181.252092151491
 20
234.760624992095
 11
257.650859282962
 21
234.760624992095
  0
LINE
  5
336
100
AcDbEntity
  8
画層0
100
AcDbLine
  6
CONTINUOUS
370
13
 10
156.050859282962
 20
233.560624992095
 11
166.252092151491
 21
233.560624992095
  0
LINE
  5
337
100
AcDbEntity
  8
画層0
100
AcDbLine
  6
CONTINUOUS
370
13
 10
181.252092151491
 20
233.560624992095
 11
256.450859282962
 21
233.560624992095
  0
LINE
  5
338
100
AcDbEntity
  8
画層0
100
AcDbLine
  6
CONTINUOUS
370
13
 10
156.250859282962
 20
233.360624992095
 11
166.252092151491
 21
233.360624992095
  0
LINE
  5
339
100
AcDbEntity
  8
画層0
100
AcDbLine
  6
CONTINUOUS
370
13
 10
181.252092151491
 20
233.360624992095
 11
256.250859282962
 21
233.360624992095
  0
LINE
  5
33A
100
AcDbEntity
  8
画層0
100
AcDbLine
  6
CONTINUOUS
370
13
 10
161.252092151491
 20
231.860624992096
 11
166.252092151491
 21
231.860624992096
  0
LINE
  5
33B
100
AcDbEntity
  8
画層0
100
AcDbLine
  6
CONTINUOUS
370
13
 10
181.252092151491
 20
231.860624992096
 11
243.252092151491
 21
231.860624992096
  0
LINE
  5
33C
100
AcDbEntity
  8
画層0
100
AcDbLine
  6
CONTINUOUS
370
13
 10
161.252092151491
 20
146.860624992096
 11
166.252092151491
 21
146.860624992096
  0
LINE
  5
33D
100
AcDbEntity
  8
画層0
100
AcDbLine
  6
CONTINUOUS
370
13
 10
181.252092151491
 20
146.860624992096
 11
243.252092151491
 21
146.860624992096
  0
ARC
  5
33E
100
AcDbEntity
  8
画層0
100
AcDbCircle
  6
CONTINUOUS
370
13
 10
206.252170680829
 20
189.360624992096
 40
31.5
100
AcDbArc
 50
63.6122000375686
 51
114.463218398386
  0
ARC
  5
33F
100
AcDbEntity
  8
画層0
100
AcDbCircle
  6
CONTINUOUS
370
13
 10
206.252170680829
 20
189.360624992096
 40
31.5
100
AcDbArc
 50
-114.463218398386
 51
-63.6122000375686
  0
ARC
  5
340
100
AcDbEntity
  8
画層0
100
AcDbCircle
  6
CONTINUOUS
370
13
 10
206.252170680829
 20
189.360624992096
 40
31.5
100
AcDbArc
 50
63.6122000375686
 51
114.463218398386
  0
ARC
  5
341
100
AcDbEntity
  8
画層0
100
AcDbCircle
  6
CONTINUOUS
370
13
 10
206.252170680829
 20
189.360624992096
 40
31.5
100
AcDbArc
 50
-114.463218398386
 51
-63.6122000375686
  0
LINE
  5
342
100
AcDbEntity
  8
画層0
100
AcDbLine
  6
DIVIDE
370
13
 10
181.252092151491
 20
148.360624992096
 11
178.752092151491
 21
148.360624992096
  0
LINE
  5
343
100
AcDbEntity
  8
画層0
100
AcDbLine
  6
DIVIDE
370
13
 10
168.752092151491
 20
148.360624992096
 11
166.252092151491
 21
148.360624992096
  0
LINE
  5
344
100
AcDbEntity
  8
画層0
100
AcDbLine
  6
DIVIDE
370
13
 10
178.752092151491
 20
152.360624992096
 11
170.752092151491
 21
152.360624992096
  0
LINE
  5
345
100
AcDbEntity
  8
画層0
100
AcDbLine
  6
DIVIDE
370
13
 10
170.752092151491
 20
152.360624992096
 11
168.752092151491
 21
152.360624992096
  0
LINE
  5
346
100
AcDbEntity
  8
画層0
100
AcDbLine
  6
CONTINUOUS
370
13
 10
244.252462667178
 20
348.690023078913
 11
244.252462667178
 21
346.840023078913
  0
LINE
  5
347
100
AcDbEntity
  8
画層0
100
AcDbLine
  6
CONTINUOUS
370
13
 10
244.252462667178
 20
335.840023078913
 11
244.252462667179
 21
330.690023078913
  0
LINE
  5
348
100
AcDbEntity
  8
画層0
100
AcDbLine
  6
CONTINUOUS
370
13
 10
161.252384137258
 20
328.690023078913
 11
166.252384137258
 21
328.690023078913
  0
LINE
  5
349
100
AcDbEntity
  8
画層0
100
AcDbLine
  6
CONTINUOUS
370
13
 10
181.252384137258
 20
328.690023078913
 11
203.252462666596
 21
328.690023078913
  0
LINE
  5
34A
100
AcDbEntity
  8
画層0
100
AcDbLine
  6
CONTINUOUS
370
13
 10
222.8234578507
 20
189.719653758298
 11
219.849827222661
 21
189.322764746115
  0
LINE
  5
34B
100
AcDbEntity
  8
画層0
100
AcDbLine
  6
CONTINUOUS
370
13
 10
222.8234578507
 20
189.719653758298
 11
221.044715041492
 21
193.319629414201
  0
LINE
  5
34C
100
AcDbEntity
  8
画層0
100
AcDbLine
  6
CONTINUOUS
370
13
 10
219.849827222661
 20
189.322764746115
 11
221.044715041492
 21
193.319629414201
  0
LINE
  5
34D
100
AcDbEntity
  8
画層0
100
AcDbLine
  6
CONTINUOUS
370
13
 10
222.833577454861
 20
188.087050243699
 11
219.859946826822
 21
188.483939255881
  0
LINE
  5
34E
100
AcDbEntity
  8
画層0
100
AcDbLine
  6
CONTINUOUS
370
13
 10
222.833577454861
 20
188.087050243699
 11
221.054834645652
 21
184.487074587795
  0
LINE
  5
34F
100
AcDbEntity
  8
画層0
100
AcDbLine
  6
CONTINUOUS
370
13
 10
219.859946826822
 20
188.483939255881
 11
221.054834645652
 21
184.487074587795
  0
LINE
  5
350
100
AcDbEntity
  8
画層0
100
AcDbLine
  6
CONTINUOUS
370
13
 10
337.53403957277
 20
214.360624992096
 11
341.53403957277
 21
214.360624992096
  0
LINE
  5
351
100
AcDbEntity
  8
画層0
100
AcDbLine
  6
CONTINUOUS
370
13
 10
337.53403957277
 20
164.360624992096
 11
341.53403957277
 21
164.360624992096
  0
CIRCLE
  5
352
100
AcDbEntity
  8
画層0
100
AcDbCircle
  6
CONTINUOUS
370
13
 10
339.53403957277
 20
189.360624992096
 40
1.65
  0
CIRCLE
  5
353
100
AcDbEntity
  8
画層0
100
AcDbCircle
  6
CONTINUOUS
370
13
 10
339.53403957277
 20
189.360624992096
 40
2
  0
CIRCLE
  5
354
100
AcDbEntity
  8
画層0
100
AcDbCircle
  6
CONTINUOUS
370
13
 10
339.53403957277
 20
189.360624992096
 40
2.25
  0
LINE
  5
355
100
AcDbEntity
  8
画層0
100
AcDbLine
  6
CONTINUOUS
370
13
 10
338.412873150891
 20
214.360624992096
 11
337.53403957277
 21
213.481791413974
  0
LINE
  5
356
100
AcDbEntity
  8
画層0
100
AcDbLine
  6
CONTINUOUS
370
13
 10
339.827086713265
 20
214.360624992096
 11
337.53403957277
 21
212.067577851601
  0
LINE
  5
357
100
AcDbEntity
  8
画層0
100
AcDbLine
  6
CONTINUOUS
370
13
 10
341.241300275638
 20
214.360624992096
 11
337.53403957277
 21
210.653364289228
  0
LINE
  5
358
100
AcDbEntity
  8
画層0
100
AcDbLine
  6
CONTINUOUS
370
13
 10
341.53403957277
 20
213.239150726855
 11
337.53403957277
 21
209.239150726855
  0
LINE
  5
359
100
AcDbEntity
  8
画層0
100
AcDbLine
  6
CONTINUOUS
370
13
 10
341.53403957277
 20
211.824937164482
 11
337.53403957277
 21
207.824937164482
  0
LINE
  5
35A
100
AcDbEntity
  8
画層0
100
AcDbLine
  6
CONTINUOUS
370
13
 10
341.53403957277
 20
210.410723602109
 11
337.53403957277
 21
206.410723602109
  0
LINE
  5
35B
100
AcDbEntity
  8
画層0
100
AcDbLine
  6
CONTINUOUS
370
13
 10
341.53403957277
 20
208.996510039736
 11
337.53403957277
 21
204.996510039736
  0
LINE
  5
35C
100
AcDbEntity
  8
画層0
100
AcDbLine
  6
CONTINUOUS
370
13
 10
341.53403957277
 20
207.582296477363
 11
337.53403957277
 21
203.582296477363
  0
LINE
  5
35D
100
AcDbEntity
  8
画層0
100
AcDbLine
  6
CONTINUOUS
370
13
 10
341.53403957277
 20
206.16808291499
 11
337.53403957277
 21
202.16808291499
  0
LINE
  5
35E
100
AcDbEntity
  8
画層0
100
AcDbLine
  6
CONTINUOUS
370
13
 10
341.53403957277
 20
204.753869352617
 11
337.53403957277
 21
200.753869352617
  0
LINE
  5
35F
100
AcDbEntity
  8
画層0
100
AcDbLine
  6
CONTINUOUS
370
13
 10
341.53403957277
 20
203.339655790243
 11
337.53403957277
 21
199.339655790243
  0
LINE
  5
360
100
AcDbEntity
  8
画層0
100
AcDbLine
  6
CONTINUOUS
370
13
 10
341.53403957277
 20
201.92544222787
 11
337.53403957277
 21
197.92544222787
  0
LINE
  5
361
100
AcDbEntity
  8
画層0
100
AcDbLine
  6
CONTINUOUS
370
13
 10
341.53403957277
 20
200.511228665497
 11
337.53403957277
 21
196.511228665497
  0
LINE
  5
362
100
AcDbEntity
  8
画層0
100
AcDbLine
  6
CONTINUOUS
370
13
 10
341.53403957277
 20
199.097015103124
 11
337.53403957277
 21
195.097015103124
  0
LINE
  5
363
100
AcDbEntity
  8
画層0
100
AcDbLine
  6
CONTINUOUS
370
13
 10
341.53403957277
 20
197.682801540751
 11
337.53403957277
 21
193.682801540751
  0
LINE
  5
364
100
AcDbEntity
  8
画層0
100
AcDbLine
  6
CONTINUOUS
370
13
 10
341.53403957277
 20
196.268587978378
 11
337.53403957277
 21
192.268587978378
  0
LINE
  5
365
100
AcDbEntity
  8
画層0
100
AcDbLine
  6
CONTINUOUS
370
13
 10
341.53403957277
 20
194.854374416005
 11
337.53403957277
 21
190.854374416005
  0
LINE
  5
366
100
AcDbEntity
  8
画層0
100
AcDbLine
  6
CONTINUOUS
370
13
 10
341.53403957277
 20
193.440160853632
 11
339.698486178597
 21
191.604607459458
  0
LINE
  5
367
100
AcDbEntity
  8
画層0
100
AcDbLine
  6
CONTINUOUS
370
13
 10
339.448761073053
 20
187.112241666796
 11
337.53403957277
 21
185.197520166512
  0
LINE
  5
368
100
AcDbEntity
  8
画層0
100
AcDbLine
  6
CONTINUOUS
370
13
 10
341.53403957277
 20
187.783306604139
 11
337.53403957277
 21
183.783306604139
  0
LINE
  5
369
100
AcDbEntity
  8
画層0
100
AcDbLine
  6
CONTINUOUS
370
13
 10
341.53403957277
 20
186.369093041766
 11
337.53403957277
 21
182.369093041766
  0
LINE
  5
36A
100
AcDbEntity
  8
画層0
100
AcDbLine
  6
CONTINUOUS
370
13
 10
341.53403957277
 20
184.954879479393
 11
337.53403957277
 21
180.954879479393
  0
LINE
  5
36B
100
AcDbEntity
  8
画層0
100
AcDbLine
  6
CONTINUOUS
370
13
 10
341.53403957277
 20
183.54066591702
 11
337.53403957277
 21
179.54066591702
  0
LINE
  5
36C
100
AcDbEntity
  8
画層0
100
AcDbLine
  6
CONTINUOUS
370
13
 10
341.53403957277
 20
182.126452354647
 11
337.53403957277
 21
178.126452354647
  0
LINE
  5
36D
100
AcDbEntity
  8
画層0
100
AcDbLine
  6
CONTINUOUS
370
13
 10
341.53403957277
 20
180.712238792274
 11
337.53403957277
 21
176.712238792274
  0
LINE
  5
36E
100
AcDbEntity
  8
画層0
100
AcDbLine
  6
CONTINUOUS
370
13
 10
341.53403957277
 20
179.298025229901
 11
337.53403957277
 21
175.298025229901
  0
LINE
  5
36F
100
AcDbEntity
  8
画層0
100
AcDbLine
  6
CONTINUOUS
370
13
 10
341.53403957277
 20
177.883811667528
 11
337.53403957277
 21
173.883811667528
  0
LINE
  5
370
100
AcDbEntity
  8
画層0
100
AcDbLine
  6
CONTINUOUS
370
13
 10
341.53403957277
 20
176.469598105155
 11
337.53403957277
 21
172.469598105155
  0
LINE
  5
371
100
AcDbEntity
  8
画層0
100
AcDbLine
  6
CONTINUOUS
370
13
 10
341.53403957277
 20
175.055384542782
 11
337.53403957277
 21
171.055384542782
  0
LINE
  5
372
100
AcDbEntity
  8
画層0
100
AcDbLine
  6
CONTINUOUS
370
13
 10
341.53403957277
 20
173.641170980408
 11
337.53403957277
 21
169.641170980409
  0
LINE
  5
373
100
AcDbEntity
  8
画層0
100
AcDbLine
  6
CONTINUOUS
370
13
 10
341.53403957277
 20
172.226957418035
 11
337.53403957277
 21
168.226957418035
  0
LINE
  5
374
100
AcDbEntity
  8
画層0
100
AcDbLine
  6
CONTINUOUS
370
13
 10
341.53403957277
 20
170.812743855662
 11
337.53403957277
 21
166.812743855662
  0
LINE
  5
375
100
AcDbEntity
  8
画層0
100
AcDbLine
  6
CONTINUOUS
370
13
 10
341.53403957277
 20
169.398530293289
 11
337.53403957277
 21
165.398530293289
  0
LINE
  5
376
100
AcDbEntity
  8
画層0
100
AcDbLine
  6
CONTINUOUS
370
13
 10
341.53403957277
 20
167.984316730916
 11
337.91034783395
 21
164.360624992096
  0
LINE
  5
377
100
AcDbEntity
  8
画層0
100
AcDbLine
  6
CONTINUOUS
370
13
 10
341.53403957277
 20
166.570103168543
 11
339.324561396323
 21
164.360624992096
  0
LINE
  5
378
100
AcDbEntity
  8
画層0
100
AcDbLine
  6
CONTINUOUS
370
13
 10
341.53403957277
 20
165.15588960617
 11
340.738774958696
 21
164.360624992096
  0
LINE
  5
379
100
AcDbEntity
  8
画層0
100
AcDbLine
  6
CONTINUOUS
370
13
 10
341.53403957277
 20
213.666497143691
 11
340.839911724365
 21
214.360624992096
  0
LINE
  5
37A
100
AcDbEntity
  8
画層0
100
AcDbLine
  6
CONTINUOUS
370
13
 10
341.53403957277
 20
212.252283581318
 11
339.425698161992
 21
214.360624992096
  0
LINE
  5
37B
100
AcDbEntity
  8
画層0
100
AcDbLine
  6
CONTINUOUS
370
13
 10
341.53403957277
 20
210.838070018945
 11
338.011484599619
 21
214.360624992096
  0
LINE
  5
37C
100
AcDbEntity
  8
画層0
100
AcDbLine
  6
CONTINUOUS
370
13
 10
341.53403957277
 20
209.423856456572
 11
337.53403957277
 21
213.423856456572
  0
LINE
  5
37D
100
AcDbEntity
  8
画層0
100
AcDbLine
  6
CONTINUOUS
370
13
 10
341.53403957277
 20
208.009642894199
 11
337.53403957277
 21
212.009642894199
  0
LINE
  5
37E
100
AcDbEntity
  8
画層0
100
AcDbLine
  6
CONTINUOUS
370
13
 10
341.53403957277
 20
206.595429331826
 11
337.53403957277
 21
210.595429331826
  0
LINE
  5
37F
100
AcDbEntity
  8
画層0
100
AcDbLine
  6
CONTINUOUS
370
13
 10
341.53403957277
 20
205.181215769452
 11
337.53403957277
 21
209.181215769452
  0
LINE
  5
380
100
AcDbEntity
  8
画層0
100
AcDbLine
  6
CONTINUOUS
370
13
 10
341.53403957277
 20
203.767002207079
 11
337.53403957277
 21
207.767002207079
  0
LINE
  5
381
100
AcDbEntity
  8
画層0
100
AcDbLine
  6
CONTINUOUS
370
13
 10
341.53403957277
 20
202.352788644706
 11
337.53403957277
 21
206.352788644706
  0
LINE
  5
382
100
AcDbEntity
  8
画層0
100
AcDbLine
  6
CONTINUOUS
370
13
 10
341.53403957277
 20
200.938575082333
 11
337.53403957277
 21
204.938575082333
  0
LINE
  5
383
100
AcDbEntity
  8
画層0
100
AcDbLine
  6
CONTINUOUS
370
13
 10
341.53403957277
 20
199.52436151996
 11
337.53403957277
 21
203.52436151996
  0
LINE
  5
384
100
AcDbEntity
  8
画層0
100
AcDbLine
  6
CONTINUOUS
370
13
 10
341.53403957277
 20
198.110147957587
 11
337.53403957277
 21
202.110147957587
  0
LINE
  5
385
100
AcDbEntity
  8
画層0
100
AcDbLine
  6
CONTINUOUS
370
13
 10
341.53403957277
 20
196.695934395214
 11
337.53403957277
 21
200.695934395214
  0
LINE
  5
386
100
AcDbEntity
  8
画層0
100
AcDbLine
  6
CONTINUOUS
370
13
 10
341.53403957277
 20
195.281720832841
 11
337.53403957277
 21
199.281720832841
  0
LINE
  5
387
100
AcDbEntity
  8
画層0
100
AcDbLine
  6
CONTINUOUS
370
13
 10
341.53403957277
 20
193.867507270468
 11
337.53403957277
 21
197.867507270468
  0
LINE
  5
388
100
AcDbEntity
  8
画層0
100
AcDbLine
  6
CONTINUOUS
370
13
 10
341.53403957277
 20
192.453293708095
 11
337.53403957277
 21
196.453293708094
  0
LINE
  5
389
100
AcDbEntity
  8
画層0
100
AcDbLine
  6
CONTINUOUS
370
13
 10
341.53403957277
 20
191.039080145721
 11
337.53403957277
 21
195.039080145721
  0
LINE
  5
38A
100
AcDbEntity
  8
画層0
100
AcDbLine
  6
CONTINUOUS
370
13
 10
339.53403957277
 20
191.624866583348
 11
337.53403957277
 21
193.624866583348
  0
LINE
  5
38B
100
AcDbEntity
  8
画層0
100
AcDbLine
  6
CONTINUOUS
370
13
 10
341.53403957277
 20
185.382225896229
 11
339.790927603769
 21
187.12533786523
  0
LINE
  5
38C
100
AcDbEntity
  8
画層0
100
AcDbLine
  6
CONTINUOUS
370
13
 10
341.53403957277
 20
183.968012333856
 11
337.53403957277
 21
187.968012333856
  0
LINE
  5
38D
100
AcDbEntity
  8
画層0
100
AcDbLine
  6
CONTINUOUS
370
13
 10
341.53403957277
 20
182.553798771483
 11
337.53403957277
 21
186.553798771483
  0
LINE
  5
38E
100
AcDbEntity
  8
画層0
100
AcDbLine
  6
CONTINUOUS
370
13
 10
341.53403957277
 20
181.13958520911
 11
337.53403957277
 21
185.13958520911
  0
LINE
  5
38F
100
AcDbEntity
  8
画層0
100
AcDbLine
  6
CONTINUOUS
370
13
 10
341.53403957277
 20
179.725371646737
 11
337.53403957277
 21
183.725371646737
  0
LINE
  5
390
100
AcDbEntity
  8
画層0
100
AcDbLine
  6
CONTINUOUS
370
13
 10
341.53403957277
 20
178.311158084364
 11
337.53403957277
 21
182.311158084364
  0
LINE
  5
391
100
AcDbEntity
  8
画層0
100
AcDbLine
  6
CONTINUOUS
370
13
 10
341.53403957277
 20
176.896944521991
 11
337.53403957277
 21
180.89694452199
  0
LINE
  5
392
100
AcDbEntity
  8
画層0
100
AcDbLine
  6
CONTINUOUS
370
13
 10
341.53403957277
 20
175.482730959617
 11
337.53403957277
 21
179.482730959617
  0
LINE
  5
393
100
AcDbEntity
  8
画層0
100
AcDbLine
  6
CONTINUOUS
370
13
 10
341.53403957277
 20
174.068517397244
 11
337.53403957277
 21
178.068517397244
  0
LINE
  5
394
100
AcDbEntity
  8
画層0
100
AcDbLine
  6
CONTINUOUS
370
13
 10
341.53403957277
 20
172.654303834871
 11
337.53403957277
 21
176.654303834871
  0
LINE
  5
395
100
AcDbEntity
  8
画層0
100
AcDbLine
  6
CONTINUOUS
370
13
 10
341.53403957277
 20
171.240090272498
 11
337.53403957277
 21
175.240090272498
  0
LINE
  5
396
100
AcDbEntity
  8
画層0
100
AcDbLine
  6
CONTINUOUS
370
13
 10
341.53403957277
 20
169.825876710125
 11
337.53403957277
 21
173.825876710125
  0
LINE
  5
397
100
AcDbEntity
  8
画層0
100
AcDbLine
  6
CONTINUOUS
370
13
 10
341.53403957277
 20
168.411663147752
 11
337.53403957277
 21
172.411663147752
  0
LINE
  5
398
100
AcDbEntity
  8
画層0
100
AcDbLine
  6
CONTINUOUS
370
13
 10
341.53403957277
 20
166.997449585379
 11
337.53403957277
 21
170.997449585379
  0
LINE
  5
399
100
AcDbEntity
  8
画層0
100
AcDbLine
  6
CONTINUOUS
370
13
 10
341.53403957277
 20
165.583236023006
 11
337.53403957277
 21
169.583236023006
  0
LINE
  5
39A
100
AcDbEntity
  8
画層0
100
AcDbLine
  6
CONTINUOUS
370
13
 10
341.342437041307
 20
164.360624992096
 11
337.53403957277
 21
168.169022460633
  0
LINE
  5
39B
100
AcDbEntity
  8
画層0
100
AcDbLine
  6
CONTINUOUS
370
13
 10
339.928223478934
 20
164.360624992096
 11
337.53403957277
 21
166.754808898259
  0
LINE
  5
39C
100
AcDbEntity
  8
画層0
100
AcDbLine
  6
CONTINUOUS
370
13
 10
338.514009916561
 20
164.360624992096
 11
337.53403957277
 21
165.340595335886
  0
LINE
  5
39D
100
AcDbEntity
  8
画層0
100
AcDbLine
  6
CONTINUOUS
370
13
 10
341.53403957277
 20
186.796439458602
 11
340.817728933572
 21
187.512750097801
  0
LINE
  5
39E
100
AcDbEntity
  8
画層0
100
AcDbLine
  6
CONTINUOUS
370
13
 10
337.686164678475
 20
190.644314352897
 11
337.53403957277
 21
190.796439458602
  0
LINE
  5
39F
100
AcDbEntity
  8
画層0
100
AcDbLine
  6
CONTINUOUS
370
13
 10
341.53403957277
 20
188.210653020975
 11
341.492224512948
 21
188.252468080797
  0
LINE
  5
3A0
100
AcDbEntity
  8
画層0
100
AcDbLine
  6
CONTINUOUS
370
13
 10
338.425882661471
 20
191.318809932274
 11
337.53403957277
 21
192.210653020975
  0
LINE
  5
3A1
100
AcDbEntity
  8
画層0
100
AcDbLine
  6
CONTINUOUS
370
13
 10
341.53403957277
 20
192.025947291259
 11
340.757201857759
 21
191.249109576248
  0
LINE
  5
3A2
100
AcDbEntity
  8
画層0
100
AcDbLine
  6
CONTINUOUS
370
13
 10
337.645554988618
 20
188.137462707106
 11
337.53403957277
 21
188.025947291259
  0
LINE
  5
3A3
100
AcDbEntity
  8
画層0
100
AcDbLine
  6
CONTINUOUS
370
13
 10
341.53403957277
 20
190.611733728886
 11
341.454784162847
 21
190.532478318963
  0
LINE
  5
3A4
100
AcDbEntity
  8
画層0
100
AcDbLine
  6
CONTINUOUS
370
13
 10
338.362186245903
 20
187.439880402018
 11
337.53403957277
 21
186.611733728886
  0
LINE
  5
3A5
100
AcDbEntity
  8
画層0
100
AcDbLine
  6
CONTINUOUS
370
13
 10
341.53403957277
 20
164.360624992096
 11
341.53403957277
 21
188.329848585691
  0
LINE
  5
3A6
100
AcDbEntity
  8
画層0
100
AcDbLine
  6
CONTINUOUS
370
13
 10
341.53403957277
 20
190.3914013985
 11
341.53403957277
 21
214.360624992096
  0
LINE
  5
3A7
100
AcDbEntity
  8
画層0
100
AcDbLine
  6
CONTINUOUS
370
13
 10
337.53403957277
 20
214.360624992096
 11
337.53403957277
 21
190.3914013985
  0
LINE
  5
3A8
100
AcDbEntity
  8
画層0
100
AcDbLine
  6
CONTINUOUS
370
13
 10
337.53403957277
 20
188.329848585691
 11
337.53403957277
 21
164.360624992096
  0
LINE
  5
3A9
100
AcDbEntity
  8
画層0
100
AcDbLine
  6
CONTINUOUS
370
13
 10
337.53403957277
 20
164.431220425138
 11
337.53403957277
 21
188.329848585691
  0
LINE
  5
3AA
100
AcDbEntity
  8
画層0
100
AcDbLine
  6
CONTINUOUS
370
13
 10
337.53403957277
 20
190.3914013985
 11
337.53403957277
 21
214.360624992096
  0
LINE
  5
3AB
100
AcDbEntity
  8
画層0
100
AcDbLine
  6
CONTINUOUS
370
13
 10
341.53403957277
 20
214.360624992096
 11
341.53403957277
 21
190.3914013985
  0
LINE
  5
3AC
100
AcDbEntity
  8
画層0
100
AcDbLine
  6
CONTINUOUS
370
13
 10
341.53403957277
 20
188.329848585691
 11
341.53403957277
 21
164.431220425138
  0
LINE
  5
3AD
100
AcDbEntity
  8
画層0
100
AcDbLine
  6
CONTINUOUS
370
13
 10
418.63517743587
 20
335.617051579701
 11
518.63517743587
 21
335.617051579701
  0
LINE
  5
3AE
100
AcDbEntity
  8
画層0
100
AcDbLine
  6
CONTINUOUS
370
13
 10
434.73517743587
 20
335.617051579701
 11
420.53517743587
 21
335.617051579701
  0
LINE
  5
3AF
100
AcDbEntity
  8
画層0
100
AcDbLine
  6
CONTINUOUS
370
13
 10
420.88517743587
 20
327.117051579701
 11
434.38517743587
 21
327.117051579701
  0
LINE
  5
3B0
100
AcDbEntity
  8
画層0
100
AcDbLine
  6
CONTINUOUS
370
13
 10
420.53517743587
 20
335.617051579701
 11
420.88517743587
 21
327.117051579701
  0
LINE
  5
3B1
100
AcDbEntity
  8
画層0
100
AcDbLine
  6
CONTINUOUS
370
13
 10
434.73517743587
 20
335.617051579701
 11
434.38517743587
 21
327.117051579701
  0
LINE
  5
3B2
100
AcDbEntity
  8
画層0
100
AcDbLine
  6
CONTINUOUS
370
13
 10
516.73517743587
 20
335.617051579701
 11
502.53517743587
 21
335.617051579701
  0
LINE
  5
3B3
100
AcDbEntity
  8
画層0
100
AcDbLine
  6
CONTINUOUS
370
13
 10
502.88517743587
 20
327.117051579701
 11
516.38517743587
 21
327.117051579701
  0
LINE
  5
3B4
100
AcDbEntity
  8
画層0
100
AcDbLine
  6
CONTINUOUS
370
13
 10
502.53517743587
 20
335.617051579701
 11
502.88517743587
 21
327.117051579701
  0
LINE
  5
3B5
100
AcDbEntity
  8
画層0
100
AcDbLine
  6
CONTINUOUS
370
13
 10
516.73517743587
 20
335.617051579701
 11
516.38517743587
 21
327.117051579701
  0
CIRCLE
  5
3B6
100
AcDbEntity
  8
画層0
100
AcDbCircle
  6
BYLAYER
370
13
 10
413.13403957277
 20
88.3606249920953
 40
3
  0
ARC
  5
3B7
100
AcDbEntity
  8
画層0
100
AcDbCircle
  6
BYLAYER
370
13
 10
414.97453957277
 20
86.5201249920953
 40
1.653
100
AcDbArc
 50
90.0009086878458
 51
179.999091312156
  0
ARC
  5
3B8
100
AcDbEntity
  8
画層0
100
AcDbCircle
  6
BYLAYER
370
13
 10
414.97453957277
 20
90.2011249920953
 40
1.653
100
AcDbArc
 50
180.000908687844
 51
269.999091312154
  0
ARC
  5
3B9
100
AcDbEntity
  8
画層0
100
AcDbCircle
  6
BYLAYER
370
13
 10
413.13403957277
 20
88.3606249920953
 40
1.85
100
AcDbArc
 50
264.183007389975
 51
270
  0
ARC
  5
3BA
100
AcDbEntity
  8
画層0
100
AcDbCircle
  6
BYLAYER
370
13
 10
413.13403957277
 20
88.3606249920953
 40
1.85
100
AcDbArc
 50
270
 51
275.816992610025
  0
ARC
  5
3BB
100
AcDbEntity
  8
画層0
100
AcDbCircle
  6
BYLAYER
370
13
 10
413.13403957277
 20
88.3606249920953
 40
1.85
100
AcDbArc
 50
90
 51
95.8169926100252
  0
ARC
  5
3BC
100
AcDbEntity
  8
画層0
100
AcDbCircle
  6
BYLAYER
370
13
 10
413.13403957277
 20
88.3606249920953
 40
1.85
100
AcDbArc
 50
84.1830073899748
 51
90
  0
ARC
  5
3BD
100
AcDbEntity
  8
画層0
100
AcDbCircle
  6
BYLAYER
370
13
 10
413.13403957277
 20
88.3606249920953
 40
1.85
100
AcDbArc
 50
180
 51
185.816992610024
  0
ARC
  5
3BE
100
AcDbEntity
  8
画層0
100
AcDbCircle
  6
BYLAYER
370
13
 10
413.13403957277
 20
88.3606249920953
 40
1.85
100
AcDbArc
 50
174.183007389976
 51
180
  0
ARC
  5
3BF
100
AcDbEntity
  8
画層0
100
AcDbCircle
  6
BYLAYER
370
13
 10
411.29353957277
 20
86.5201249920953
 40
1.653
100
AcDbArc
 50
0.0009086878442255
 51
89.9990913121542
  0
ARC
  5
3C0
100
AcDbEntity
  8
画層0
100
AcDbCircle
  6
BYLAYER
370
13
 10
411.29353957277
 20
90.2011249920953
 40
1.653
100
AcDbArc
 50
270.000908687846
 51
359.999091312156
  0
ARC
  5
3C1
100
AcDbEntity
  8
画層0
100
AcDbCircle
  6
BYLAYER
370
13
 10
413.13403957277
 20
88.3606249920953
 40
1.85
100
AcDbArc
 50
0
 51
5.81699261002353
  0
ARC
  5
3C2
100
AcDbEntity
  8
画層0
100
AcDbCircle
  6
BYLAYER
370
13
 10
413.13403957277
 20
88.3606249920953
 40
1.85
100
AcDbArc
 50
354.183007389976
 51
0
  0
CIRCLE
  5
3C3
100
AcDbEntity
  8
画層0
100
AcDbCircle
  6
BYLAYER
370
13
 10
513.13403957277
 20
88.3606249920953
 40
3
  0
ARC
  5
3C4
100
AcDbEntity
  8
画層0
100
AcDbCircle
  6
BYLAYER
370
13
 10
514.97453957277
 20
86.5201249920953
 40
1.653
100
AcDbArc
 50
90.0009086878458
 51
179.999091312156
  0
ARC
  5
3C5
100
AcDbEntity
  8
画層0
100
AcDbCircle
  6
BYLAYER
370
13
 10
514.97453957277
 20
90.2011249920953
 40
1.653
100
AcDbArc
 50
180.000908687844
 51
269.999091312154
  0
ARC
  5
3C6
100
AcDbEntity
  8
画層0
100
AcDbCircle
  6
BYLAYER
370
13
 10
513.13403957277
 20
88.3606249920953
 40
1.85
100
AcDbArc
 50
264.183007389975
 51
270
  0
ARC
  5
3C7
100
AcDbEntity
  8
画層0
100
AcDbCircle
  6
BYLAYER
370
13
 10
513.13403957277
 20
88.3606249920953
 40
1.85
100
AcDbArc
 50
270
 51
275.816992610025
  0
ARC
  5
3C8
100
AcDbEntity
  8
画層0
100
AcDbCircle
  6
BYLAYER
370
13
 10
513.13403957277
 20
88.3606249920953
 40
1.85
100
AcDbArc
 50
90
 51
95.8169926100252
  0
ARC
  5
3C9
100
AcDbEntity
  8
画層0
100
AcDbCircle
  6
BYLAYER
370
13
 10
513.13403957277
 20
88.3606249920953
 40
1.85
100
AcDbArc
 50
84.1830073899748
 51
90
  0
ARC
  5
3CA
100
AcDbEntity
  8
画層0
100
AcDbCircle
  6
BYLAYER
370
13
 10
513.13403957277
 20
88.3606249920953
 40
1.85
100
AcDbArc
 50
180
 51
185.816992610024
  0
ARC
  5
3CB
100
AcDbEntity
  8
画層0
100
AcDbCircle
  6
BYLAYER
370
13
 10
513.13403957277
 20
88.3606249920953
 40
1.85
100
AcDbArc
 50
174.183007389976
 51
180
  0
ARC
  5
3CC
100
AcDbEntity
  8
画層0
100
AcDbCircle
  6
BYLAYER
370
13
 10
511.29353957277
 20
86.5201249920953
 40
1.653
100
AcDbArc
 50
0.0009086878442255
 51
89.9990913121542
  0
ARC
  5
3CD
100
AcDbEntity
  8
画層0
100
AcDbCircle
  6
BYLAYER
370
13
 10
511.29353957277
 20
90.2011249920953
 40
1.653
100
AcDbArc
 50
270.000908687846
 51
359.999091312156
  0
ARC
  5
3CE
100
AcDbEntity
  8
画層0
100
AcDbCircle
  6
BYLAYER
370
13
 10
513.13403957277
 20
88.3606249920953
 40
1.85
100
AcDbArc
 50
0
 51
5.81699261002353
  0
ARC
  5
3CF
100
AcDbEntity
  8
画層0
100
AcDbCircle
  6
BYLAYER
370
13
 10
513.13403957277
 20
88.3606249920953
 40
1.85
100
AcDbArc
 50
354.183007389976
 51
0
  0
CIRCLE
  5
3D0
100
AcDbEntity
  8
画層0
100
AcDbCircle
  6
BYLAYER
370
13
 10
531.13403957277
 20
220.860624992095
 40
3
  0
ARC
  5
3D1
100
AcDbEntity
  8
画層0
100
AcDbCircle
  6
BYLAYER
370
13
 10
532.97453957277
 20
219.020124992095
 40
1.653
100
AcDbArc
 50
90.0009086878458
 51
179.999091312156
  0
ARC
  5
3D2
100
AcDbEntity
  8
画層0
100
AcDbCircle
  6
BYLAYER
370
13
 10
532.97453957277
 20
222.701124992095
 40
1.653
100
AcDbArc
 50
180.000908687844
 51
269.999091312154
  0
ARC
  5
3D3
100
AcDbEntity
  8
画層0
100
AcDbCircle
  6
BYLAYER
370
13
 10
531.13403957277
 20
220.860624992095
 40
1.85
100
AcDbArc
 50
264.183007389975
 51
270
  0
ARC
  5
3D4
100
AcDbEntity
  8
画層0
100
AcDbCircle
  6
BYLAYER
370
13
 10
531.13403957277
 20
220.860624992095
 40
1.85
100
AcDbArc
 50
270
 51
275.816992610025
  0
ARC
  5
3D5
100
AcDbEntity
  8
画層0
100
AcDbCircle
  6
BYLAYER
370
13
 10
531.13403957277
 20
220.860624992095
 40
1.85
100
AcDbArc
 50
90
 51
95.8169926100252
  0
ARC
  5
3D6
100
AcDbEntity
  8
画層0
100
AcDbCircle
  6
BYLAYER
370
13
 10
531.13403957277
 20
220.860624992095
 40
1.85
100
AcDbArc
 50
84.1830073899748
 51
90
  0
ARC
  5
3D7
100
AcDbEntity
  8
画層0
100
AcDbCircle
  6
BYLAYER
370
13
 10
531.13403957277
 20
220.860624992095
 40
1.85
100
AcDbArc
 50
180
 51
185.816992610024
  0
ARC
  5
3D8
100
AcDbEntity
  8
画層0
100
AcDbCircle
  6
BYLAYER
370
13
 10
531.13403957277
 20
220.860624992095
 40
1.85
100
AcDbArc
 50
174.183007389976
 51
180
  0
ARC
  5
3D9
100
AcDbEntity
  8
画層0
100
AcDbCircle
  6
BYLAYER
370
13
 10
529.29353957277
 20
219.020124992095
 40
1.653
100
AcDbArc
 50
0.0009086878442255
 51
89.9990913121542
  0
ARC
  5
3DA
100
AcDbEntity
  8
画層0
100
AcDbCircle
  6
BYLAYER
370
13
 10
529.29353957277
 20
222.701124992095
 40
1.653
100
AcDbArc
 50
270.000908687846
 51
359.999091312156
  0
ARC
  5
3DB
100
AcDbEntity
  8
画層0
100
AcDbCircle
  6
BYLAYER
370
13
 10
531.13403957277
 20
220.860624992095
 40
1.85
100
AcDbArc
 50
0
 51
5.81699261002353
  0
ARC
  5
3DC
100
AcDbEntity
  8
画層0
100
AcDbCircle
  6
BYLAYER
370
13
 10
531.13403957277
 20
220.860624992095
 40
1.85
100
AcDbArc
 50
354.183007389976
 51
0
  0
CIRCLE
  5
3DD
100
AcDbEntity
  8
画層0
100
AcDbCircle
  6
BYLAYER
370
13
 10
395.13403957277
 20
220.860624992095
 40
3
  0
ARC
  5
3DE
100
AcDbEntity
  8
画層0
100
AcDbCircle
  6
BYLAYER
370
13
 10
396.97453957277
 20
219.020124992095
 40
1.653
100
AcDbArc
 50
90.0009086878458
 51
179.999091312156
  0
ARC
  5
3DF
100
AcDbEntity
  8
画層0
100
AcDbCircle
  6
BYLAYER
370
13
 10
396.97453957277
 20
222.701124992095
 40
1.653
100
AcDbArc
 50
180.000908687844
 51
269.999091312154
  0
ARC
  5
3E0
100
AcDbEntity
  8
画層0
100
AcDbCircle
  6
BYLAYER
370
13
 10
395.13403957277
 20
220.860624992095
 40
1.85
100
AcDbArc
 50
264.183007389975
 51
270
  0
ARC
  5
3E1
100
AcDbEntity
  8
画層0
100
AcDbCircle
  6
BYLAYER
370
13
 10
395.13403957277
 20
220.860624992095
 40
1.85
100
AcDbArc
 50
270
 51
275.816992610025
  0
ARC
  5
3E2
100
AcDbEntity
  8
画層0
100
AcDbCircle
  6
BYLAYER
370
13
 10
395.13403957277
 20
220.860624992095
 40
1.85
100
AcDbArc
 50
90
 51
95.8169926100252
  0
ARC
  5
3E3
100
AcDbEntity
  8
画層0
100
AcDbCircle
  6
BYLAYER
370
13
 10
395.13403957277
 20
220.860624992095
 40
1.85
100
AcDbArc
 50
84.1830073899748
 51
90
  0
ARC
  5
3E4
100
AcDbEntity
  8
画層0
100
AcDbCircle
  6
BYLAYER
370
13
 10
395.13403957277
 20
220.860624992095
 40
1.85
100
AcDbArc
 50
180
 51
185.816992610024
  0
ARC
  5
3E5
100
AcDbEntity
  8
画層0
100
AcDbCircle
  6
BYLAYER
370
13
 10
395.13403957277
 20
220.860624992095
 40
1.85
100
AcDbArc
 50
174.183007389976
 51
180
  0
ARC
  5
3E6
100
AcDbEntity
  8
画層0
100
AcDbCircle
  6
BYLAYER
370
13
 10
393.29353957277
 20
219.020124992095
 40
1.653
100
AcDbArc
 50
0.0009086878442255
 51
89.9990913121542
  0
ARC
  5
3E7
100
AcDbEntity
  8
画層0
100
AcDbCircle
  6
BYLAYER
370
13
 10
393.29353957277
 20
222.701124992095
 40
1.653
100
AcDbArc
 50
270.000908687846
 51
359.999091312156
  0
ARC
  5
3E8
100
AcDbEntity
  8
画層0
100
AcDbCircle
  6
BYLAYER
370
13
 10
395.13403957277
 20
220.860624992095
 40
1.85
100
AcDbArc
 50
0
 51
5.81699261002353
  0
ARC
  5
3E9
100
AcDbEntity
  8
画層0
100
AcDbCircle
  6
BYLAYER
370
13
 10
395.13403957277
 20
220.860624992095
 40
1.85
100
AcDbArc
 50
354.183007389976
 51
0
  0
ARC
  5
3EA
100
AcDbEntity
  8
画層0
100
AcDbCircle
  6
BYLAYER
370
13
 10
229.533670717442
 20
153.079296018396
 40
1.994
100
AcDbArc
 50
89.9867691232329
 51
180.013230876767
  0
ARC
  5
3EB
100
AcDbEntity
  8
画層0
100
AcDbCircle
  6
BYLAYER
370
13
 10
229.533670717442
 20
157.642296089282
 40
1.994
100
AcDbArc
 50
179.986769123233
 51
270.013230876767
  0
CIRCLE
  5
3EC
100
AcDbEntity
  8
画層0
100
AcDbCircle
  6
BYLAYER
370
13
 10
227.252170681999
 20
155.360796053839
 40
4
  0
ARC
  5
3ED
100
AcDbEntity
  8
画層0
100
AcDbCircle
  6
BYLAYER
370
13
 10
224.970670646557
 20
153.079296018396
 40
1.994
100
AcDbArc
 50
359.986769123233
 51
90.013230876767
  0
ARC
  5
3EE
100
AcDbEntity
  8
画層0
100
AcDbCircle
  6
BYLAYER
370
13
 10
224.970670646557
 20
157.642296089282
 40
1.994
100
AcDbArc
 50
269.986769123233
 51
0.0132308767670553
  0
ARC
  5
3EF
100
AcDbEntity
  8
画層0
100
AcDbCircle
  6
BYLAYER
370
13
 10
227.252170681999
 20
155.360796053839
 40
2.3
100
AcDbArc
 50
180
 51
187.180758006241
  0
ARC
  5
3F0
100
AcDbEntity
  8
画層0
100
AcDbCircle
  6
BYLAYER
370
13
 10
227.252170681999
 20
155.360796053839
 40
2.3
100
AcDbArc
 50
172.819241993759
 51
180
  0
ARC
  5
3F1
100
AcDbEntity
  8
画層0
100
AcDbCircle
  6
BYLAYER
370
13
 10
227.252170681999
 20
155.360796053839
 40
2.3
100
AcDbArc
 50
262.819241993759
 51
270
  0
ARC
  5
3F2
100
AcDbEntity
  8
画層0
100
AcDbCircle
  6
BYLAYER
370
13
 10
227.252170681999
 20
155.360796053839
 40
2.3
100
AcDbArc
 50
270
 51
277.180758006241
  0
ARC
  5
3F3
100
AcDbEntity
  8
画層0
100
AcDbCircle
  6
BYLAYER
370
13
 10
227.252170681999
 20
155.360796053839
 40
2.3
100
AcDbArc
 50
90
 51
97.1807580062409
  0
ARC
  5
3F4
100
AcDbEntity
  8
画層0
100
AcDbCircle
  6
BYLAYER
370
13
 10
227.252170681999
 20
155.360796053839
 40
2.3
100
AcDbArc
 50
82.8192419937591
 51
90
  0
ARC
  5
3F5
100
AcDbEntity
  8
画層0
100
AcDbCircle
  6
BYLAYER
370
13
 10
227.252170681999
 20
155.360796053839
 40
2.3
100
AcDbArc
 50
0
 51
7.1807580062409
  0
ARC
  5
3F6
100
AcDbEntity
  8
画層0
100
AcDbCircle
  6
BYLAYER
370
13
 10
227.252170681999
 20
155.360796053839
 40
2.3
100
AcDbArc
 50
352.819241993759
 51
0
  0
ARC
  5
3F7
100
AcDbEntity
  8
画層0
100
AcDbCircle
  6
BYLAYER
370
13
 10
361.772928461659
 20
155.236542748027
 40
9.33888888888887
100
AcDbArc
 50
154.639233016361
 51
205.360766983639
  0
LINE
  5
3F8
100
AcDbEntity
  8
画層0
100
AcDbLine
  6
BYLAYER
370
13
 10
353.63403957277
 20
151.236542748027
 11
353.63403957277
 21
159.236542748027
  0
LINE
  5
3F9
100
AcDbEntity
  8
画層0
100
AcDbLine
  6
BYLAYER
370
13
 10
353.33403957277
 20
151.236542748027
 11
353.33403957277
 21
159.236542748027
  0
LINE
  5
3FA
100
AcDbEntity
  8
画層0
100
AcDbLine
  6
BYLAYER
370
13
 10
353.33403957277
 20
151.236542748027
 11
353.63403957277
 21
151.236542748027
  0
LINE
  5
3FB
100
AcDbEntity
  8
画層0
100
AcDbLine
  6
BYLAYER
370
13
 10
353.33403957277
 20
159.236542748027
 11
353.63403957277
 21
159.236542748027
  0
LINE
  5
3FC
100
AcDbEntity
  8
画層0
100
AcDbLine
  6
BYLAYER
370
13
 10
165.530404651491
 20
173.110625574908
 11
166.973779651491
 21
173.110625574908
  0
LINE
  5
3FD
100
AcDbEntity
  8
画層0
100
AcDbLine
  6
BYLAYER
370
13
 10
166.973779651491
 20
175.610624409283
 11
165.530404651491
 21
175.610624409283
  0
CIRCLE
  5
3FE
100
AcDbEntity
  8
画層0
100
AcDbCircle
  6
BYLAYER
370
13
 10
166.252092151491
 20
174.360624992096
 40
2.4035896769725
  0
CIRCLE
  5
3FF
100
AcDbEntity
  8
画層0
100
AcDbCircle
  6
BYLAYER
370
13
 10
166.252092151491
 20
174.360624992096
 40
2.74999999999989
  0
LINE
  5
400
100
AcDbEntity
  8
画層0
100
AcDbLine
  6
BYLAYER
370
13
 10
164.808717151491
 20
174.360624992096
 11
165.530404651491
 21
173.110625574908
  0
LINE
  5
401
100
AcDbEntity
  8
画層0
100
AcDbLine
  6
BYLAYER
370
13
 10
165.530404651491
 20
175.610624409283
 11
164.808717151491
 21
174.360624992096
  0
LINE
  5
402
100
AcDbEntity
  8
画層0
100
AcDbLine
  6
BYLAYER
370
13
 10
166.973779651491
 20
173.110625574908
 11
167.695467151491
 21
174.360624992096
  0
LINE
  5
403
100
AcDbEntity
  8
画層0
100
AcDbLine
  6
BYLAYER
370
13
 10
167.695467151491
 20
174.360624992096
 11
166.973779651491
 21
175.610624409283
  0
LINE
  5
404
100
AcDbEntity
  8
画層0
100
AcDbLine
  6
BYLAYER
370
13
 10
165.530404651491
 20
203.110625574908
 11
166.973779651491
 21
203.110625574908
  0
LINE
  5
405
100
AcDbEntity
  8
画層0
100
AcDbLine
  6
BYLAYER
370
13
 10
166.973779651491
 20
205.610624409283
 11
165.530404651491
 21
205.610624409283
  0
CIRCLE
  5
406
100
AcDbEntity
  8
画層0
100
AcDbCircle
  6
BYLAYER
370
13
 10
166.252092151491
 20
204.360624992096
 40
2.4035896769725
  0
CIRCLE
  5
407
100
AcDbEntity
  8
画層0
100
AcDbCircle
  6
BYLAYER
370
13
 10
166.252092151491
 20
204.360624992096
 40
2.74999999999989
  0
LINE
  5
408
100
AcDbEntity
  8
画層0
100
AcDbLine
  6
BYLAYER
370
13
 10
164.808717151491
 20
204.360624992096
 11
165.530404651491
 21
203.110625574908
  0
LINE
  5
409
100
AcDbEntity
  8
画層0
100
AcDbLine
  6
BYLAYER
370
13
 10
165.530404651491
 20
205.610624409283
 11
164.808717151491
 21
204.360624992096
  0
LINE
  5
40A
100
AcDbEntity
  8
画層0
100
AcDbLine
  6
BYLAYER
370
13
 10
166.973779651491
 20
203.110625574908
 11
167.695467151491
 21
204.360624992096
  0
LINE
  5
40B
100
AcDbEntity
  8
画層0
100
AcDbLine
  6
BYLAYER
370
13
 10
167.695467151491
 20
204.360624992096
 11
166.973779651491
 21
205.610624409283
  0
LWPOLYLINE
  5
40C
100
AcDbEntity
  8
画層0
100
AcDbPolyline
  6
CONTINUOUS
370
13
 90
     4
 70
     1
 10
387.13403957277
  20
105.360624992095
 10
372.13403957277
  20
105.360624992095
 10
372.13403957277
  20
93.3606249920953
 10
387.13403957277
  20
93.3606249920953
  0
ARC
  5
40D
100
AcDbEntity
  8
画層0
100
AcDbCircle
  6
DASHDOT
370
13
 10
227.252170681999
 20
155.360796053839
 40
75.0268092909675
100
AcDbArc
 50
2.67588430632734
 51
85.0510359560674
  0
LINE
  5
40E
100
AcDbEntity
  8
画層0
100
AcDbLine
  6
DIVIDE
370
13
 10
202.403738498539
 20
238.330975113154
 11
216.029949953851
 21
224.704763657841
  0
LINE
  5
40F
100
AcDbEntity
  8
画層0
100
AcDbLine
  6
DIVIDE
370
13
 10
210.181913091591
 20
246.109149706206
 11
223.808124546903
 21
232.482938250893
  0
ARC
  5
410
100
AcDbEntity
  8
画層0
100
AcDbCircle
  6
DIVIDE
370
13
 10
202.403738498538
 20
246.109149706206
 40
8
100
AcDbArc
 50
361.56746344221
 51
628.43253655779
  0
ARC
  5
411
100
AcDbEntity
  8
画層0
100
AcDbCircle
  6
DASHDOT
370
13
 10
224.152092150906
 20
224.360796053839
 40
42.1000785305083
100
AcDbArc
 50
5.12745437227095
 51
126.099704965178
  0
ARC
  5
412
100
AcDbEntity
  8
画層0
100
AcDbCircle
  6
DIVIDE
370
13
 10
199.332588601803
 20
249.180299602942
 40
8
100
AcDbArc
 50
38.5075617039838
 51
-132.621268633131
  0
LINE
  5
413
100
AcDbEntity
  8
画層0
100
AcDbLine
  6
DIVIDE
370
13
 10
216.029949953851
 20
224.704763657841
 11
223.808124546903
 21
232.482938250893
  0
LINE
  5
414
100
AcDbEntity
  8
画層0
100
AcDbLine
  6
BYLAYER
370
13
 10
201.250859282958
 20
234.760624992095
 11
201.250859282958
 21
266.760624992095
  0
LINE
  5
415
100
AcDbEntity
  8
画層0
100
AcDbLine
  6
CONTINUOUS
370
13
 10
230.152384136673
 20
339.340023078913
 11
232.752462667181
 21
339.340023078913
  0
LINE
  5
416
100
AcDbEntity
  8
画層0
100
AcDbLine
  6
CONTINUOUS
370
13
 10
232.752462667181
 20
343.340023078913
 11
230.152384136673
 21
343.340023078913
  0
LINE
  5
417
100
AcDbEntity
  8
画層0
100
AcDbLine
  6
CONTINUOUS
370
13
 10
230.252462667181
 20
334.190023078913
 11
230.252462667181
 21
339.340023078913
  0
LINE
  5
418
100
AcDbEntity
  8
画層0
100
AcDbLine
  6
CONTINUOUS
370
13
 10
230.252462667181
 20
343.340023078913
 11
230.252462667181
 21
348.690023078913
  0
LINE
  5
419
100
AcDbEntity
  8
画層0
100
AcDbLine
  6
CONTINUOUS
370
13
 10
231.252754652362
 20
321.690023078913
 11
181.252754652362
 21
321.690023078913
  0
LINE
  5
41A
100
AcDbEntity
  8
画層0
100
AcDbLine
  6
DIVIDE
370
13
 10
187.752384137258
 20
340.690023078913
 11
161.752384137258
 21
340.690023078913
  0
LINE
  5
41B
100
AcDbEntity
  8
画層0
100
AcDbLine
  6
DIVIDE
370
13
 10
187.752384137258
 20
325.690023078913
 11
161.752384137258
 21
325.690023078913
  0
LINE
  5
41C
100
AcDbEntity
  8
画層0
100
AcDbLine
  6
DIVIDE
370
13
 10
159.752384137258
 20
327.690023078913
 11
159.752384137258
 21
338.690023078913
  0
LINE
  5
41D
100
AcDbEntity
  8
画層0
100
AcDbLine
  6
DIVIDE
370
13
 10
189.752384137258
 20
338.690023078913
 11
189.752384137258
 21
327.690023078913
  0
LINE
  5
41E
100
AcDbEntity
  8
画層0
100
AcDbLine
  6
DIVIDE
370
13
 10
159.752384137258
 20
338.690023078913
 11
161.752384137258
 21
340.690023078913
  0
LINE
  5
41F
100
AcDbEntity
  8
画層0
100
AcDbLine
  6
DIVIDE
370
13
 10
161.752384137258
 20
325.690023078913
 11
159.752384137258
 21
327.690023078913
  0
LINE
  5
420
100
AcDbEntity
  8
画層0
100
AcDbLine
  6
DIVIDE
370
13
 10
187.752384137258
 20
325.690023078913
 11
189.752384137258
 21
327.690023078913
  0
LINE
  5
421
100
AcDbEntity
  8
画層0
100
AcDbLine
  6
DIVIDE
370
13
 10
187.752384137258
 20
340.690023078913
 11
189.752384137258
 21
338.690023078913
  0
ARC
  5
422
100
AcDbEntity
  8
画層0
100
AcDbCircle
  6
DIVIDE
370
13
 10
173.752384137258
 20
333.190023078913
 40
14.1509716980848
100
AcDbArc
 50
60.2048614255238
 51
178.484692711551
  0
ARC
  5
423
100
AcDbEntity
  8
画層0
100
AcDbCircle
  6
DIVIDE
370
13
 10
173.752384137258
 20
333.190023078913
 40
16.9189243156886
100
AcDbArc
 50
-71.0295921915138
 51
-18.9704078084868
  0
LINE
  5
424
100
AcDbEntity
  8
画層0
100
AcDbLine
  6
DIVIDE
370
13
 10
178.752092151491
 20
228.360624992096
 11
178.752092151491
 21
232.360624992096
  0
LINE
  5
425
100
AcDbEntity
  8
画層0
100
AcDbLine
  6
DIVIDE
370
13
 10
168.752092151491
 20
228.360624992096
 11
168.752092151491
 21
232.360624992096
  0
LINE
  5
426
100
AcDbEntity
  8
画層0
100
AcDbLine
  6
DIVIDE
370
13
 10
181.252092151491
 20
232.360624992096
 11
181.252092151491
 21
248.360624992096
  0
LINE
  5
427
100
AcDbEntity
  8
画層0
100
AcDbLine
  6
DIVIDE
370
13
 10
181.252092151491
 20
248.360624992096
 11
166.252092151491
 21
248.360624992096
  0
LINE
  5
428
100
AcDbEntity
  8
画層0
100
AcDbLine
  6
DIVIDE
370
13
 10
181.252092151491
 20
232.360624992096
 11
178.752092151491
 21
232.360624992096
  0
LINE
  5
429
100
AcDbEntity
  8
画層0
100
AcDbLine
  6
DIVIDE
370
13
 10
168.752092151491
 20
232.360624992096
 11
166.252092151491
 21
232.360624992096
  0
LINE
  5
42A
100
AcDbEntity
  8
画層0
100
AcDbLine
  6
DIVIDE
370
13
 10
178.752092151491
 20
228.360624992096
 11
170.752092151491
 21
228.360624992096
  0
LINE
  5
42B
100
AcDbEntity
  8
画層0
100
AcDbLine
  6
DIVIDE
370
13
 10
170.752092151491
 20
228.360624992096
 11
168.752092151491
 21
228.360624992096
  0
LINE
  5
42C
100
AcDbEntity
  8
画層0
100
AcDbLine
  6
DIVIDE
370
13
 10
166.252092151491
 20
232.360624992096
 11
166.252092151491
 21
248.360624992096
  0
LINE
  5
42D
100
AcDbEntity
  8
画層0
100
AcDbLine
  6
DIVIDE
370
13
 10
168.252092151491
 20
232.360624992096
 11
168.252092151491
 21
248.360624992096
  0
LINE
  5
42E
100
AcDbEntity
  8
画層0
100
AcDbLine
  6
DIVIDE
370
13
 10
179.252092151491
 20
232.360624992096
 11
179.252092151491
 21
248.360624992096
  0
LINE
  5
42F
100
AcDbEntity
  8
画層0
100
AcDbLine
  6
DIVIDE
370
13
 10
168.252092151491
 20
148.360624992096
 11
168.252092151491
 21
132.360624992096
  0
LINE
  5
430
100
AcDbEntity
  8
画層0
100
AcDbLine
  6
DIVIDE
370
13
 10
179.252092151491
 20
148.360624992096
 11
179.252092151491
 21
132.360624992096
  0
LINE
  5
431
100
AcDbEntity
  8
画層0
100
AcDbLine
  6
CONTINUOUS
370
13
 10
354.13403957277
 20
159.860796053839
 11
354.63403957277
 21
159.860796053839
  0
LINE
  5
432
100
AcDbEntity
  8
画層0
100
AcDbLine
  6
CONTINUOUS
370
13
 10
353.63403957277
 20
151.360796053839
 11
353.63403957277
 21
159.360796053839
  0
LINE
  5
433
100
AcDbEntity
  8
画層0
100
AcDbLine
  6
CONTINUOUS
370
13
 10
354.13403957277
 20
150.860796053839
 11
354.63403957277
 21
150.860796053839
  0
LINE
  5
434
100
AcDbEntity
  8
画層0
100
AcDbLine
  6
CONTINUOUS
370
13
 10
354.63403957277
 20
150.860796053839
 11
354.63403957277
 21
159.860796053839
  0
ARC
  5
435
100
AcDbEntity
  8
画層0
100
AcDbCircle
  6
CONTINUOUS
370
13
 10
354.13403957277
 20
159.360796053839
 40
0.5
100
AcDbArc
 50
90
 51
180
  0
ARC
  5
436
100
AcDbEntity
  8
画層0
100
AcDbCircle
  6
CONTINUOUS
370
13
 10
354.13403957277
 20
151.360796053839
 40
0.5
100
AcDbArc
 50
180
 51
-90
  0
LINE
  5
437
100
AcDbEntity
  8
画層0
100
AcDbLine
  6
CONTINUOUS
370
13
 10
181.252462666595
 20
317.090023078913
 11
181.252462666595
 21
313.090023078913
  0
LINE
  5
438
100
AcDbEntity
  8
画層0
100
AcDbLine
  6
CONTINUOUS
370
13
 10
231.252462666595
 20
317.090023078913
 11
231.252462666595
 21
313.090023078913
  0
LINE
  5
439
100
AcDbEntity
  8
画層0
100
AcDbLine
  6
CONTINUOUS
370
13
 10
231.252462666595
 20
317.090023078913
 11
181.252462666595
 21
317.090023078913
  0
LINE
  5
43A
100
AcDbEntity
  8
画層0
100
AcDbLine
  6
CONTINUOUS
370
13
 10
181.252462666595
 20
313.090023078913
 11
231.252462666595
 21
313.090023078913
  0
LINE
  5
43B
100
AcDbEntity
  8
画層0
100
AcDbLine
  6
CONTINUOUS
370
13
 10
231.252462666595
 20
316.828457067222
 11
230.990896654904
 21
317.090023078913
  0
LINE
  5
43C
100
AcDbEntity
  8
画層0
100
AcDbLine
  6
CONTINUOUS
370
13
 10
231.252462666595
 20
315.414243504849
 11
229.576683092531
 21
317.090023078913
  0
LINE
  5
43D
100
AcDbEntity
  8
画層0
100
AcDbLine
  6
CONTINUOUS
370
13
 10
231.252462666595
 20
314.000029942476
 11
228.162469530158
 21
317.090023078913
  0
LINE
  5
43E
100
AcDbEntity
  8
画層0
100
AcDbLine
  6
CONTINUOUS
370
13
 10
230.748255967785
 20
313.090023078913
 11
226.748255967785
 21
317.090023078913
  0
LINE
  5
43F
100
AcDbEntity
  8
画層0
100
AcDbLine
  6
CONTINUOUS
370
13
 10
229.334042405412
 20
313.090023078913
 11
225.334042405412
 21
317.090023078913
  0
LINE
  5
440
100
AcDbEntity
  8
画層0
100
AcDbLine
  6
CONTINUOUS
370
13
 10
227.919828843039
 20
313.090023078913
 11
223.919828843039
 21
317.090023078913
  0
LINE
  5
441
100
AcDbEntity
  8
画層0
100
AcDbLine
  6
CONTINUOUS
370
13
 10
226.505615280666
 20
313.090023078913
 11
222.505615280666
 21
317.090023078913
  0
LINE
  5
442
100
AcDbEntity
  8
画層0
100
AcDbLine
  6
CONTINUOUS
370
13
 10
225.091401718293
 20
313.090023078913
 11
221.091401718293
 21
317.090023078913
  0
LINE
  5
443
100
AcDbEntity
  8
画層0
100
AcDbLine
  6
CONTINUOUS
370
13
 10
223.67718815592
 20
313.090023078913
 11
219.67718815592
 21
317.090023078913
  0
LINE
  5
444
100
AcDbEntity
  8
画層0
100
AcDbLine
  6
CONTINUOUS
370
13
 10
222.262974593546
 20
313.090023078913
 11
218.262974593547
 21
317.090023078913
  0
LINE
  5
445
100
AcDbEntity
  8
画層0
100
AcDbLine
  6
CONTINUOUS
370
13
 10
220.848761031173
 20
313.090023078913
 11
216.848761031173
 21
317.090023078913
  0
LINE
  5
446
100
AcDbEntity
  8
画層0
100
AcDbLine
  6
CONTINUOUS
370
13
 10
219.4345474688
 20
313.090023078913
 11
215.4345474688
 21
317.090023078913
  0
LINE
  5
447
100
AcDbEntity
  8
画層0
100
AcDbLine
  6
CONTINUOUS
370
13
 10
218.020333906427
 20
313.090023078913
 11
214.020333906427
 21
317.090023078913
  0
LINE
  5
448
100
AcDbEntity
  8
画層0
100
AcDbLine
  6
CONTINUOUS
370
13
 10
216.606120344054
 20
313.090023078913
 11
212.606120344054
 21
317.090023078913
  0
LINE
  5
449
100
AcDbEntity
  8
画層0
100
AcDbLine
  6
CONTINUOUS
370
13
 10
215.191906781681
 20
313.090023078913
 11
211.191906781681
 21
317.090023078913
  0
LINE
  5
44A
100
AcDbEntity
  8
画層0
100
AcDbLine
  6
CONTINUOUS
370
13
 10
213.777693219308
 20
313.090023078913
 11
209.777693219308
 21
317.090023078913
  0
LINE
  5
44B
100
AcDbEntity
  8
画層0
100
AcDbLine
  6
CONTINUOUS
370
13
 10
212.363479656935
 20
313.090023078913
 11
208.363479656935
 21
317.090023078913
  0
LINE
  5
44C
100
AcDbEntity
  8
画層0
100
AcDbLine
  6
CONTINUOUS
370
13
 10
210.949266094562
 20
313.090023078913
 11
206.949266094562
 21
317.090023078913
  0
LINE
  5
44D
100
AcDbEntity
  8
画層0
100
AcDbLine
  6
CONTINUOUS
370
13
 10
209.535052532189
 20
313.090023078913
 11
205.535052532189
 21
317.090023078913
  0
LINE
  5
44E
100
AcDbEntity
  8
画層0
100
AcDbLine
  6
CONTINUOUS
370
13
 10
208.120838969815
 20
313.090023078913
 11
204.120838969816
 21
317.090023078913
  0
LINE
  5
44F
100
AcDbEntity
  8
画層0
100
AcDbLine
  6
CONTINUOUS
370
13
 10
206.706625407442
 20
313.090023078913
 11
202.706625407442
 21
317.090023078913
  0
LINE
  5
450
100
AcDbEntity
  8
画層0
100
AcDbLine
  6
CONTINUOUS
370
13
 10
205.292411845069
 20
313.090023078913
 11
201.292411845069
 21
317.090023078913
  0
LINE
  5
451
100
AcDbEntity
  8
画層0
100
AcDbLine
  6
CONTINUOUS
370
13
 10
203.878198282696
 20
313.090023078913
 11
199.878198282696
 21
317.090023078913
  0
LINE
  5
452
100
AcDbEntity
  8
画層0
100
AcDbLine
  6
CONTINUOUS
370
13
 10
202.463984720323
 20
313.090023078913
 11
198.463984720323
 21
317.090023078913
  0
LINE
  5
453
100
AcDbEntity
  8
画層0
100
AcDbLine
  6
CONTINUOUS
370
13
 10
201.04977115795
 20
313.090023078913
 11
197.04977115795
 21
317.090023078913
  0
LINE
  5
454
100
AcDbEntity
  8
画層0
100
AcDbLine
  6
CONTINUOUS
370
13
 10
199.635557595577
 20
313.090023078913
 11
195.635557595577
 21
317.090023078913
  0
LINE
  5
455
100
AcDbEntity
  8
画層0
100
AcDbLine
  6
CONTINUOUS
370
13
 10
198.221344033204
 20
313.090023078913
 11
194.221344033204
 21
317.090023078913
  0
LINE
  5
456
100
AcDbEntity
  8
画層0
100
AcDbLine
  6
CONTINUOUS
370
13
 10
196.807130470831
 20
313.090023078913
 11
192.807130470831
 21
317.090023078913
  0
LINE
  5
457
100
AcDbEntity
  8
画層0
100
AcDbLine
  6
CONTINUOUS
370
13
 10
195.392916908458
 20
313.090023078913
 11
191.392916908458
 21
317.090023078913
  0
LINE
  5
458
100
AcDbEntity
  8
画層0
100
AcDbLine
  6
CONTINUOUS
370
13
 10
193.978703346085
 20
313.090023078913
 11
189.978703346085
 21
317.090023078913
  0
LINE
  5
459
100
AcDbEntity
  8
画層0
100
AcDbLine
  6
CONTINUOUS
370
13
 10
192.564489783711
 20
313.090023078913
 11
188.564489783712
 21
317.090023078913
  0
LINE
  5
45A
100
AcDbEntity
  8
画層0
100
AcDbLine
  6
CONTINUOUS
370
13
 10
191.150276221338
 20
313.090023078913
 11
187.150276221338
 21
317.090023078913
  0
LINE
  5
45B
100
AcDbEntity
  8
画層0
100
AcDbLine
  6
CONTINUOUS
370
13
 10
189.736062658965
 20
313.090023078913
 11
185.736062658965
 21
317.090023078913
  0
LINE
  5
45C
100
AcDbEntity
  8
画層0
100
AcDbLine
  6
CONTINUOUS
370
13
 10
188.321849096592
 20
313.090023078913
 11
184.321849096592
 21
317.090023078913
  0
LINE
  5
45D
100
AcDbEntity
  8
画層0
100
AcDbLine
  6
CONTINUOUS
370
13
 10
186.907635534219
 20
313.090023078913
 11
182.907635534219
 21
317.090023078913
  0
LINE
  5
45E
100
AcDbEntity
  8
画層0
100
AcDbLine
  6
CONTINUOUS
370
13
 10
185.493421971846
 20
313.090023078913
 11
181.493421971846
 21
317.090023078913
  0
LINE
  5
45F
100
AcDbEntity
  8
画層0
100
AcDbLine
  6
CONTINUOUS
370
13
 10
184.079208409473
 20
313.090023078913
 11
181.252462666595
 21
315.91676882179
  0
LINE
  5
460
100
AcDbEntity
  8
画層0
100
AcDbLine
  6
CONTINUOUS
370
13
 10
182.6649948471
 20
313.090023078913
 11
181.252462666595
 21
314.502555259417
  0
LINE
  5
461
100
AcDbEntity
  8
画層0
100
AcDbLine
  6
CONTINUOUS
370
13
 10
182.363246248828
 20
317.090023078913
 11
181.252462666595
 21
315.97923949668
  0
LINE
  5
462
100
AcDbEntity
  8
画層0
100
AcDbLine
  6
CONTINUOUS
370
13
 10
183.777459811201
 20
317.090023078913
 11
181.252462666595
 21
314.565025934307
  0
LINE
  5
463
100
AcDbEntity
  8
画層0
100
AcDbLine
  6
CONTINUOUS
370
13
 10
185.191673373574
 20
317.090023078913
 11
181.252462666595
 21
313.150812371934
  0
LINE
  5
464
100
AcDbEntity
  8
画層0
100
AcDbLine
  6
CONTINUOUS
370
13
 10
186.605886935947
 20
317.090023078913
 11
182.605886935947
 21
313.090023078913
  0
LINE
  5
465
100
AcDbEntity
  8
画層0
100
AcDbLine
  6
CONTINUOUS
370
13
 10
188.02010049832
 20
317.090023078913
 11
184.02010049832
 21
313.090023078913
  0
LINE
  5
466
100
AcDbEntity
  8
画層0
100
AcDbLine
  6
CONTINUOUS
370
13
 10
189.434314060693
 20
317.090023078913
 11
185.434314060693
 21
313.090023078913
  0
LINE
  5
467
100
AcDbEntity
  8
画層0
100
AcDbLine
  6
CONTINUOUS
370
13
 10
190.848527623066
 20
317.090023078913
 11
186.848527623066
 21
313.090023078913
  0
LINE
  5
468
100
AcDbEntity
  8
画層0
100
AcDbLine
  6
CONTINUOUS
370
13
 10
192.262741185439
 20
317.090023078913
 11
188.26274118544
 21
313.090023078913
  0
LINE
  5
469
100
AcDbEntity
  8
画層0
100
AcDbLine
  6
CONTINUOUS
370
13
 10
193.676954747813
 20
317.090023078913
 11
189.676954747813
 21
313.090023078913
  0
LINE
  5
46A
100
AcDbEntity
  8
画層0
100
AcDbLine
  6
CONTINUOUS
370
13
 10
195.091168310186
 20
317.090023078913
 11
191.091168310186
 21
313.090023078913
  0
LINE
  5
46B
100
AcDbEntity
  8
画層0
100
AcDbLine
  6
CONTINUOUS
370
13
 10
196.505381872559
 20
317.090023078913
 11
192.505381872559
 21
313.090023078913
  0
LINE
  5
46C
100
AcDbEntity
  8
画層0
100
AcDbLine
  6
CONTINUOUS
370
13
 10
197.919595434932
 20
317.090023078913
 11
193.919595434932
 21
313.090023078913
  0
LINE
  5
46D
100
AcDbEntity
  8
画層0
100
AcDbLine
  6
CONTINUOUS
370
13
 10
199.333808997305
 20
317.090023078913
 11
195.333808997305
 21
313.090023078913
  0
LINE
  5
46E
100
AcDbEntity
  8
画層0
100
AcDbLine
  6
CONTINUOUS
370
13
 10
200.748022559678
 20
317.090023078913
 11
196.748022559678
 21
313.090023078913
  0
LINE
  5
46F
100
AcDbEntity
  8
画層0
100
AcDbLine
  6
CONTINUOUS
370
13
 10
202.162236122051
 20
317.090023078913
 11
198.162236122051
 21
313.090023078913
  0
LINE
  5
470
100
AcDbEntity
  8
画層0
100
AcDbLine
  6
CONTINUOUS
370
13
 10
203.576449684424
 20
317.090023078913
 11
199.576449684424
 21
313.090023078913
  0
LINE
  5
471
100
AcDbEntity
  8
画層0
100
AcDbLine
  6
CONTINUOUS
370
13
 10
204.990663246797
 20
317.090023078913
 11
200.990663246797
 21
313.090023078913
  0
LINE
  5
472
100
AcDbEntity
  8
画層0
100
AcDbLine
  6
CONTINUOUS
370
13
 10
206.40487680917
 20
317.090023078913
 11
202.40487680917
 21
313.090023078913
  0
LINE
  5
473
100
AcDbEntity
  8
画層0
100
AcDbLine
  6
CONTINUOUS
370
13
 10
207.819090371544
 20
317.090023078913
 11
203.819090371544
 21
313.090023078913
  0
LINE
  5
474
100
AcDbEntity
  8
画層0
100
AcDbLine
  6
CONTINUOUS
370
13
 10
209.233303933917
 20
317.090023078913
 11
205.233303933917
 21
313.090023078913
  0
LINE
  5
475
100
AcDbEntity
  8
画層0
100
AcDbLine
  6
CONTINUOUS
370
13
 10
210.64751749629
 20
317.090023078913
 11
206.64751749629
 21
313.090023078913
  0
LINE
  5
476
100
AcDbEntity
  8
画層0
100
AcDbLine
  6
CONTINUOUS
370
13
 10
212.061731058663
 20
317.090023078913
 11
208.061731058663
 21
313.090023078913
  0
LINE
  5
477
100
AcDbEntity
  8
画層0
100
AcDbLine
  6
CONTINUOUS
370
13
 10
213.475944621036
 20
317.090023078913
 11
209.475944621036
 21
313.090023078913
  0
LINE
  5
478
100
AcDbEntity
  8
画層0
100
AcDbLine
  6
CONTINUOUS
370
13
 10
214.890158183409
 20
317.090023078913
 11
210.890158183409
 21
313.090023078913
  0
LINE
  5
479
100
AcDbEntity
  8
画層0
100
AcDbLine
  6
CONTINUOUS
370
13
 10
216.304371745782
 20
317.090023078913
 11
212.304371745782
 21
313.090023078913
  0
LINE
  5
47A
100
AcDbEntity
  8
画層0
100
AcDbLine
  6
CONTINUOUS
370
13
 10
217.718585308155
 20
317.090023078913
 11
213.718585308155
 21
313.090023078913
  0
LINE
  5
47B
100
AcDbEntity
  8
画層0
100
AcDbLine
  6
CONTINUOUS
370
13
 10
219.132798870528
 20
317.090023078913
 11
215.132798870528
 21
313.090023078913
  0
LINE
  5
47C
100
AcDbEntity
  8
画層0
100
AcDbLine
  6
CONTINUOUS
370
13
 10
220.547012432901
 20
317.090023078913
 11
216.547012432901
 21
313.090023078913
  0
LINE
  5
47D
100
AcDbEntity
  8
画層0
100
AcDbLine
  6
CONTINUOUS
370
13
 10
221.961225995274
 20
317.090023078913
 11
217.961225995275
 21
313.090023078913
  0
LINE
  5
47E
100
AcDbEntity
  8
画層0
100
AcDbLine
  6
CONTINUOUS
370
13
 10
223.375439557648
 20
317.090023078913
 11
219.375439557648
 21
313.090023078913
  0
LINE
  5
47F
100
AcDbEntity
  8
画層0
100
AcDbLine
  6
CONTINUOUS
370
13
 10
224.789653120021
 20
317.090023078913
 11
220.789653120021
 21
313.090023078913
  0
LINE
  5
480
100
AcDbEntity
  8
画層0
100
AcDbLine
  6
CONTINUOUS
370
13
 10
226.203866682394
 20
317.090023078913
 11
222.203866682394
 21
313.090023078913
  0
LINE
  5
481
100
AcDbEntity
  8
画層0
100
AcDbLine
  6
CONTINUOUS
370
13
 10
227.618080244767
 20
317.090023078913
 11
223.618080244767
 21
313.090023078913
  0
LINE
  5
482
100
AcDbEntity
  8
画層0
100
AcDbLine
  6
CONTINUOUS
370
13
 10
229.03229380714
 20
317.090023078913
 11
225.03229380714
 21
313.090023078913
  0
LINE
  5
483
100
AcDbEntity
  8
画層0
100
AcDbLine
  6
CONTINUOUS
370
13
 10
230.446507369513
 20
317.090023078913
 11
226.446507369513
 21
313.090023078913
  0
LINE
  5
484
100
AcDbEntity
  8
画層0
100
AcDbLine
  6
CONTINUOUS
370
13
 10
231.252462666595
 20
316.481764813622
 11
227.860720931886
 21
313.090023078913
  0
LINE
  5
485
100
AcDbEntity
  8
画層0
100
AcDbLine
  6
CONTINUOUS
370
13
 10
231.252462666595
 20
315.067551251249
 11
229.274934494259
 21
313.090023078913
  0
LINE
  5
486
100
AcDbEntity
  8
画層0
100
AcDbLine
  6
CONTINUOUS
370
13
 10
231.252462666595
 20
313.653337688876
 11
230.689148056632
 21
313.090023078913
  0
LINE
  5
487
100
AcDbEntity
  8
画層0
100
AcDbLine
  6
DIVIDE
370
13
 10
201.129226251934
 20
225.432048296936
 11
118.152384136673
 21
225.432048296936
  0
LINE
  5
488
100
AcDbEntity
  8
画層0
100
AcDbLine
  6
DIVIDE
370
13
 10
201.977558758736
 20
223.432048296936
 11
119.097604708225
 21
223.432048296936
  0
LWPOLYLINE
  5
489
100
AcDbEntity
  8
画層0
100
AcDbPolyline
  6
DIVIDE
370
13
 90
     37
 10
118.152384136673
  20
225.432048296936
 10
118.624725933901
  20
224.513417113144
 10
118.908500282778
  20
223.717568254121
 10
119.030820325603
  20
223.030753637579
 10
119.018799204673
  20
222.439225181231
 10
118.899550062287
  20
221.929234802789
 10
118.700186040743
  20
221.487034419966
 10
118.447820282339
  20
221.098875950473
 10
118.169565929373
  20
220.751011312022
 10
117.892536124144
  20
220.429692422327
 10
117.639522805706
  20
220.12317201555
 10
117.416033100147
  20
219.827706091666
 10
117.22325293031
  20
219.541551467099
 10
117.06236821904
  20
219.262964958273
 10
116.934564889178
  20
218.990203381614
 10
116.84102886357
  20
218.721523553546
 10
116.78294606506
  20
218.455182290494
 10
116.76150241649
  20
218.189436408883
 10
116.777883840705
  20
217.922542725137
 10
116.831921533266
  20
217.65368043186
 10
116.9180277806
  20
217.385718226368
 10
117.029260141855
  20
217.122447182157
 10
117.158676176174
  20
216.86765837272
 10
117.299333442705
  20
216.625142871554
 10
117.444289500592
  20
216.398691752152
 10
117.586601908981
  20
216.192096088009
 10
117.719328227017
  20
216.009146952622
 10
117.835526013847
  20
215.853635419483
 10
117.929844549723
  20
215.728142407696
 10
118.003299999321
  20
215.630408218793
 10
118.058500248428
  20
215.556962999913
 10
118.098053182827
  20
215.504336898196
 10
118.124566688304
  20
215.469060060781
 10
118.140648650642
  20
215.447662634808
 10
118.148906955626
  20
215.436674767417
 10
118.151949489042
  20
215.432626605746
 10
118.152384136673
  20
215.432048296936
  0
LWPOLYLINE
  5
48A
100
AcDbEntity
  8
画層0
100
AcDbPolyline
  6
DIVIDE
370
13
 90
     19
 10
118.152384136673
  20
225.432048296936
 10
117.655767683966
  20
224.725031850876
 10
117.320977306272
  20
224.077460780326
 10
117.124320779672
  20
223.488365452329
 10
117.042105880249
  20
222.956776233928
 10
117.050640384084
  20
222.481723492166
 10
117.126232067259
  20
222.062237594087
 10
117.245188705855
  20
221.697348906734
 10
117.383818075953
  20
221.38608779715
 10
117.518427953636
  20
221.127484632379
 10
117.629787998904
  20
220.919774193996
 10
117.71651540743
  20
220.758008921706
 10
117.781689258808
  20
220.63644566975
 10
117.82838863263
  20
220.549341292363
 10
117.859692608489
  20
220.490952643785
 10
117.878680265977
  20
220.455536578254
 10
117.888430684687
  20
220.437349950009
 10
117.892022944211
  20
220.430649613287
 10
117.892536124144
  20
220.429692422327
  0
LINE
  5
48B
100
AcDbEntity
  8
画層0
100
AcDbLine
  6
DIVIDE
370
13
 10
209.612551319954
 20
223.54373501547
 11
220.252170681414
 21
218.560248328341
  0
LINE
  5
48C
100
AcDbEntity
  8
画層0
100
AcDbLine
  6
DIVIDE
370
13
 10
209.612551319954
 20
221.732566343616
 11
220.252170681414
 21
216.749079656487
  0
ARC
  5
48D
100
AcDbEntity
  8
画層0
100
AcDbCircle
  6
DIVIDE
370
13
 10
201.129226251934
 20
205.432048296936
 40
20
100
AcDbArc
 50
64.9020986225904
 51
90
  0
ARC
  5
48E
100
AcDbEntity
  8
画層0
100
AcDbCircle
  6
DIVIDE
370
13
 10
201.977558758736
 20
205.432048296936
 40
18
100
AcDbArc
 50
64.9020986225906
 51
90
  0
LINE
  5
48F
100
AcDbEntity
  8
画層0
100
AcDbLine
  6
DIVIDE
370
13
 10
201.129226251934
 20
153.434314324184
 11
118.152384136673
 21
153.434314324184
  0
LINE
  5
490
100
AcDbEntity
  8
画層0
100
AcDbLine
  6
DIVIDE
370
13
 10
201.977558758736
 20
155.434314324184
 11
119.097604708225
 21
155.434314324184
  0
LWPOLYLINE
  5
491
100
AcDbEntity
  8
画層0
100
AcDbPolyline
  6
DIVIDE
370
13
 90
     37
 10
118.152384136673
  20
153.434314324184
 10
118.624725933901
  20
154.352945507976
 10
118.908500282778
  20
155.148794366999
 10
119.030820325603
  20
155.835608983541
 10
119.018799204673
  20
156.427137439889
 10
118.899550062287
  20
156.937127818331
 10
118.700186040743
  20
157.379328201154
 10
118.447820282339
  20
157.767486670648
 10
118.169565929373
  20
158.115351309098
 10
117.892536124144
  20
158.436670198794
 10
117.639522805706
  20
158.74319060557
 10
117.416033100147
  20
159.038656529454
 10
117.22325293031
  20
159.324811154021
 10
117.06236821904
  20
159.603397662847
 10
116.934564889178
  20
159.876159239506
 10
116.84102886357
  20
160.144839067574
 10
116.78294606506
  20
160.411180330626
 10
116.76150241649
  20
160.676926212237
 10
116.777883840705
  20
160.943819895983
 10
116.831921533266
  20
161.21268218926
 10
116.9180277806
  20
161.480644394752
 10
117.029260141855
  20
161.743915438963
 10
117.158676176174
  20
161.9987042484
 10
117.299333442705
  20
162.241219749566
 10
117.444289500592
  20
162.467670868968
 10
117.586601908981
  20
162.674266533111
 10
117.719328227017
  20
162.857215668499
 10
117.835526013847
  20
163.012727201637
 10
117.929844549723
  20
163.138220213424
 10
118.003299999321
  20
163.235954402327
 10
118.058500248428
  20
163.309399621207
 10
118.098053182827
  20
163.362025722924
 10
118.124566688304
  20
163.397302560339
 10
118.140648650642
  20
163.418699986312
 10
118.148906955626
  20
163.429687853703
 10
118.151949489042
  20
163.433736015374
 10
118.152384136673
  20
163.434314324184
  0
LWPOLYLINE
  5
492
100
AcDbEntity
  8
画層0
100
AcDbPolyline
  6
DIVIDE
370
13
 90
     19
 10
118.152384136673
  20
153.434314324184
 10
117.655767683966
  20
154.141330770244
 10
117.320977306272
  20
154.788901840794
 10
117.124320779672
  20
155.377997168791
 10
117.042105880249
  20
155.909586387192
 10
117.050640384084
  20
156.384639128954
 10
117.126232067259
  20
156.804125027033
 10
117.245188705855
  20
157.169013714386
 10
117.383818075953
  20
157.48027482397
 10
117.518427953636
  20
157.738877988741
 10
117.629787998904
  20
157.946588427125
 10
117.71651540743
  20
158.108353699414
 10
117.781689258808
  20
158.229916951371
 10
117.82838863263
  20
158.317021328757
 10
117.859692608489
  20
158.375409977335
 10
117.878680265977
  20
158.410826042866
 10
117.888430684687
  20
158.429012671111
 10
117.892022944211
  20
158.435713007833
 10
117.892536124144
  20
158.436670198794
  0
LINE
  5
493
100
AcDbEntity
  8
画層0
100
AcDbLine
  6
DIVIDE
370
13
 10
209.612551319954
 20
155.32262760565
 11
220.252170681414
 21
160.30611429278
  0
LINE
  5
494
100
AcDbEntity
  8
画層0
100
AcDbLine
  6
DIVIDE
370
13
 10
209.612551319954
 20
157.133796277504
 11
220.252170681414
 21
162.117282964633
  0
ARC
  5
495
100
AcDbEntity
  8
画層0
100
AcDbCircle
  6
DIVIDE
370
13
 10
201.129226251934
 20
173.434314324184
 40
20
100
AcDbArc
 50
-90
 51
-64.9020986225904
  0
ARC
  5
496
100
AcDbEntity
  8
画層0
100
AcDbCircle
  6
DIVIDE
370
13
 10
201.977558758736
 20
173.434314324184
 40
18
100
AcDbArc
 50
-90
 51
-64.9020986225906
  0
LINE
  5
497
100
AcDbEntity
  8
画層0
100
AcDbLine
  6
DIVIDE
370
13
 10
118.152384136673
 20
336.340023078913
 11
218.152384136673
 21
336.340023078913
  0
LINE
  5
498
100
AcDbEntity
  8
画層0
100
AcDbLine
  6
DIVIDE
370
13
 10
218.152384136673
 20
346.340023078913
 11
118.152384136673
 21
346.340023078913
  0
LINE
  5
499
100
AcDbEntity
  8
画層0
100
AcDbLine
  6
DIVIDE
370
13
 10
218.152384136673
 20
344.340023078913
 11
119.097604708225
 21
344.340023078913
  0
LINE
  5
49A
100
AcDbEntity
  8
画層0
100
AcDbLine
  6
DIVIDE
370
13
 10
117.117129825134
 20
338.340023078913
 11
218.152384136673
 21
338.340023078913
  0
LWPOLYLINE
  5
49B
100
AcDbEntity
  8
画層0
100
AcDbPolyline
  6
DIVIDE
370
13
 90
     37
 10
118.152384136673
  20
346.340023078913
 10
118.624725933901
  20
345.42139189512
 10
118.908500282778
  20
344.625543036097
 10
119.030820325603
  20
343.938728419556
 10
119.018799204673
  20
343.347199963208
 10
118.899550062287
  20
342.837209584766
 10
118.700186040743
  20
342.395009201942
 10
118.447820282339
  20
342.006850732449
 10
118.169565929373
  20
341.658986093999
 10
117.892536124144
  20
341.337667204303
 10
117.639522805706
  20
341.031146797527
 10
117.416033100147
  20
340.735680873643
 10
117.22325293031
  20
340.449526249076
 10
117.06236821904
  20
340.17093974025
 10
116.934564889178
  20
339.898178163591
 10
116.84102886357
  20
339.629498335522
 10
116.78294606506
  20
339.36315707247
 10
116.76150241649
  20
339.097411190859
 10
116.777883840705
  20
338.830517507113
 10
116.831921533266
  20
338.561655213836
 10
116.9180277806
  20
338.293693008345
 10
117.029260141855
  20
338.030421964133
 10
117.158676176174
  20
337.775633154697
 10
117.299333442705
  20
337.53311765353
 10
117.444289500592
  20
337.306666534128
 10
117.586601908981
  20
337.100070869986
 10
117.719328227017
  20
336.917121734598
 10
117.835526013847
  20
336.76161020146
 10
117.929844549723
  20
336.636117189673
 10
118.003299999321
  20
336.53838300077
 10
118.058500248428
  20
336.46493778189
 10
118.098053182827
  20
336.412311680172
 10
118.124566688304
  20
336.377034842758
 10
118.140648650642
  20
336.355637416785
 10
118.148906955626
  20
336.344649549393
 10
118.151949489042
  20
336.340601387723
 10
118.152384136673
  20
336.340023078913
  0
LWPOLYLINE
  5
49C
100
AcDbEntity
  8
画層0
100
AcDbPolyline
  6
DIVIDE
370
13
 90
     19
 10
118.152384136673
  20
346.340023078913
 10
117.655767683966
  20
345.633006632853
 10
117.320977306272
  20
344.985435562303
 10
117.124320779672
  20
344.396340234305
 10
117.042105880249
  20
343.864751015904
 10
117.050640384084
  20
343.389698274142
 10
117.126232067259
  20
342.970212376063
 10
117.245188705855
  20
342.60532368871
 10
117.383818075953
  20
342.294062579127
 10
117.518427953636
  20
342.035459414355
 10
117.629787998904
  20
341.827748975972
 10
117.71651540743
  20
341.665983703683
 10
117.781689258808
  20
341.544420451726
 10
117.82838863263
  20
341.457316074339
 10
117.859692608489
  20
341.398927425762
 10
117.878680265977
  20
341.363511360231
 10
117.888430684687
  20
341.345324731985
 10
117.892022944211
  20
341.338624395263
 10
117.892536124144
  20
341.337667204303
  0
LINE
  5
49D
100
AcDbEntity
  8
画層0
100
AcDbLine
  6
DIVIDE
370
13
 10
118.152384136673
 20
163.434314324184
 11
161.252092151491
 21
163.434314324184
  0
LINE
  5
49E
100
AcDbEntity
  8
画層0
100
AcDbLine
  6
DIVIDE
370
13
 10
168.252092151491
 20
163.434314324184
 11
179.252092151491
 21
163.434314324184
  0
LINE
  5
49F
100
AcDbEntity
  8
画層0
100
AcDbLine
  6
DIVIDE
370
13
 10
117.117129825134
 20
161.434314324184
 11
161.252092151491
 21
161.434314324184
  0
LINE
  5
4A0
100
AcDbEntity
  8
画層0
100
AcDbLine
  6
DIVIDE
370
13
 10
168.252092151491
 20
161.434314324184
 11
179.252092151491
 21
161.434314324184
  0
LINE
  5
4A1
100
AcDbEntity
  8
画層0
100
AcDbLine
  6
DIVIDE
370
13
 10
118.152384136673
 20
215.432048296936
 11
161.252092151491
 21
215.432048296936
  0
LINE
  5
4A2
100
AcDbEntity
  8
画層0
100
AcDbLine
  6
DIVIDE
370
13
 10
168.252092151491
 20
215.432048296936
 11
179.252092151491
 21
215.432048296936
  0
LINE
  5
4A3
100
AcDbEntity
  8
画層0
100
AcDbLine
  6
DIVIDE
370
13
 10
117.117129825134
 20
217.432048296936
 11
161.252092151491
 21
217.432048296936
  0
LINE
  5
4A4
100
AcDbEntity
  8
画層0
100
AcDbLine
  6
DIVIDE
370
13
 10
168.252092151491
 20
217.432048296936
 11
179.252092151491
 21
217.432048296936
  0
LINE
  5
4A5
100
AcDbEntity
  8
画層0
100
AcDbLine
  6
CONTINUOUS
370
13
 10
257.900859282962
 20
514.690023078913
 11
289.109080539379
 21
514.690023078913
  0
LINE
  5
4A6
100
AcDbEntity
  8
画層0
100
AcDbLine
  6
CONTINUOUS
370
13
 10
288.609080539379
 20
514.690023078913
 11
288.609080539379
 21
520.790023078913
  0
LINE
  5
4A7
100
AcDbEntity
  8
画層0
100
AcDbLine
  6
CONTINUOUS
370
13
 10
288.609080539379
 20
514.690023078913
 11
289.126718629584
 21
512.758171426335
  0
LINE
  5
4A8
100
AcDbEntity
  8
画層0
100
AcDbLine
  6
CONTINUOUS
370
13
 10
288.609080539379
 20
514.690023078913
 11
288.091442449174
 21
512.758171426335
  0
LINE
  5
4A9
100
AcDbEntity
  8
画層0
100
AcDbLine
  6
CONTINUOUS
370
13
 10
288.609080539379
 20
520.790023078913
 11
288.091442449174
 21
522.721874731491
  0
LINE
  5
4AA
100
AcDbEntity
  8
画層0
100
AcDbLine
  6
CONTINUOUS
370
13
 10
288.609080539379
 20
520.790023078913
 11
289.126718629584
 21
522.721874731491
  0
TEXT
  5
4AB
100
AcDbEntity
  8
画層0
100
AcDbText
  6
CONTINUOUS
 10
288.359080539379
 20
523.991159854234
 40
6
  1
6.1
  7
Font_0
 50
90
 72
1
 11
288.359080539379
 21
528.491159854234
100
AcDbText
  0
LINE
  5
4AC
100
AcDbEntity
  8
画層0
100
AcDbLine
  6
CONTINUOUS
370
13
 10
181.538301473662
 20
520.790023078913
 11
289.109080539379
 21
520.790023078913
  0
LINE
  5
4AD
100
AcDbEntity
  8
画層0
100
AcDbLine
  6
CONTINUOUS
370
13
 10
257.900859282962
 20
362.690023078913
 11
289.109080539379
 21
362.690023078913
  0
LINE
  5
4AE
100
AcDbEntity
  8
画層0
100
AcDbLine
  6
CONTINUOUS
370
13
 10
288.609080539379
 20
362.690023078913
 11
288.609080539379
 21
514.690023078913
  0
LINE
  5
4AF
100
AcDbEntity
  8
画層0
100
AcDbLine
  6
CONTINUOUS
370
13
 10
288.609080539379
 20
362.690023078913
 11
288.091442449174
 21
364.621874731491
  0
LINE
  5
4B0
100
AcDbEntity
  8
画層0
100
AcDbLine
  6
CONTINUOUS
370
13
 10
288.609080539379
 20
362.690023078913
 11
289.126718629584
 21
364.621874731491
  0
LINE
  5
4B1
100
AcDbEntity
  8
画層0
100
AcDbLine
  6
CONTINUOUS
370
13
 10
288.609080539379
 20
514.690023078913
 11
289.126718629584
 21
512.758171426335
  0
LINE
  5
4B2
100
AcDbEntity
  8
画層0
100
AcDbLine
  6
CONTINUOUS
370
13
 10
288.609080539379
 20
514.690023078913
 11
288.091442449174
 21
512.758171426335
  0
TEXT
  5
4B3
100
AcDbEntity
  8
画層0
100
AcDbText
  6
CONTINUOUS
 10
288.359080539379
 20
434.190023078913
 40
6
  1
152
  7
Font_0
 50
90
 72
1
 11
288.359080539379
 21
438.690023078913
100
AcDbText
  0
LINE
  5
4B4
100
AcDbEntity
  8
画層0
100
AcDbLine
  6
CONTINUOUS
370
13
 10
269.738799321364
 20
514.690023078913
 11
289.109080539379
 21
514.690023078913
  0
LINE
  5
4B5
100
AcDbEntity
  8
画層0
100
AcDbLine
  6
CONTINUOUS
370
13
 10
229.502462666595
 20
311.090023078913
 11
289.109080539379
 21
311.090023078913
  0
LINE
  5
4B6
100
AcDbEntity
  8
画層0
100
AcDbLine
  6
CONTINUOUS
370
13
 10
288.609080539379
 20
311.090023078913
 11
288.609080539379
 21
362.690023078913
  0
LINE
  5
4B7
100
AcDbEntity
  8
画層0
100
AcDbLine
  6
CONTINUOUS
370
13
 10
288.609080539379
 20
311.090023078913
 11
288.091442449174
 21
313.021874731491
  0
LINE
  5
4B8
100
AcDbEntity
  8
画層0
100
AcDbLine
  6
CONTINUOUS
370
13
 10
288.609080539379
 20
311.090023078913
 11
289.126718629584
 21
313.021874731491
  0
LINE
  5
4B9
100
AcDbEntity
  8
画層0
100
AcDbLine
  6
CONTINUOUS
370
13
 10
288.609080539379
 20
362.690023078913
 11
289.126718629584
 21
360.758171426335
  0
LINE
  5
4BA
100
AcDbEntity
  8
画層0
100
AcDbLine
  6
CONTINUOUS
370
13
 10
288.609080539379
 20
362.690023078913
 11
288.091442449174
 21
360.758171426335
  0
TEXT
  5
4BB
100
AcDbEntity
  8
画層0
100
AcDbText
  6
CONTINUOUS
 10
288.359080539379
 20
330.890023078913
 40
6
  1
51.6
  7
Font_0
 50
90
 72
1
 11
288.359080539379
 21
336.890023078913
100
AcDbText
  0
LINE
  5
4BC
100
AcDbEntity
  8
画層0
100
AcDbLine
  6
CONTINUOUS
370
13
 10
271.242581462425
 20
362.690023078913
 11
289.109080539379
 21
362.690023078913
  0
LINE
  5
4BD
100
AcDbEntity
  8
画層0
100
AcDbLine
  6
DASHDOT
370
13
 10
206.250859282962
 20
294.39099453062
 11
206.250859282962
 21
530.060614492813
  0
LINE
  5
4BE
100
AcDbEntity
  8
画層0
100
AcDbLine
  6
CONTINUOUS
370
13
 10
257.650859282962
 20
514.940023078913
 11
257.650859282962
 21
548.067259220117
  0
LINE
  5
4BF
100
AcDbEntity
  8
画層0
100
AcDbLine
  6
CONTINUOUS
370
13
 10
257.650859282962
 20
547.567259220117
 11
154.850859282962
 21
547.567259220117
  0
LINE
  5
4C0
100
AcDbEntity
  8
画層0
100
AcDbLine
  6
CONTINUOUS
370
13
 10
257.650859282962
 20
547.567259220117
 11
255.719007630384
 21
547.049621129912
  0
LINE
  5
4C1
100
AcDbEntity
  8
画層0
100
AcDbLine
  6
CONTINUOUS
370
13
 10
257.650859282962
 20
547.567259220117
 11
255.719007630384
 21
548.084897310322
  0
LINE
  5
4C2
100
AcDbEntity
  8
画層0
100
AcDbLine
  6
CONTINUOUS
370
13
 10
154.850859282962
 20
547.567259220117
 11
156.78271093554
 21
548.084897310322
  0
LINE
  5
4C3
100
AcDbEntity
  8
画層0
100
AcDbLine
  6
CONTINUOUS
370
13
 10
154.850859282962
 20
547.567259220117
 11
156.78271093554
 21
547.049621129912
  0
TEXT
  5
4C4
100
AcDbEntity
  8
画層0
100
AcDbText
  6
CONTINUOUS
 10
198.750859282962
 20
547.817259220117
 40
6
  1
102.8
  7
Font_0
 72
1
 11
206.250859282962
 21
547.817259220117
100
AcDbText
  0
LINE
  5
4C5
100
AcDbEntity
  8
画層0
100
AcDbLine
  6
CONTINUOUS
370
13
 10
154.850859282962
 20
514.940023078913
 11
154.850859282962
 21
548.067259220117
  0
LINE
  5
4C6
100
AcDbEntity
  8
画層0
100
AcDbLine
  6
CONTINUOUS
370
13
 10
487.38403957277
 20
271.760624992095
 11
576.059293928302
 21
271.760624992095
  0
LINE
  5
4C7
100
AcDbEntity
  8
画層0
100
AcDbLine
  6
CONTINUOUS
370
13
 10
575.559293928302
 20
271.760624992095
 11
575.559293928302
 21
234.760624992095
  0
LINE
  5
4C8
100
AcDbEntity
  8
画層0
100
AcDbLine
  6
CONTINUOUS
370
13
 10
575.559293928302
 20
271.760624992095
 11
576.076932018507
 21
269.828773339517
  0
LINE
  5
4C9
100
AcDbEntity
  8
画層0
100
AcDbLine
  6
CONTINUOUS
370
13
 10
575.559293928302
 20
271.760624992095
 11
575.041655838097
 21
269.828773339517
  0
LINE
  5
4CA
100
AcDbEntity
  8
画層0
100
AcDbLine
  6
CONTINUOUS
370
13
 10
575.559293928302
 20
234.760624992095
 11
575.041655838097
 21
236.692476644673
  0
LINE
  5
4CB
100
AcDbEntity
  8
画層0
100
AcDbLine
  6
CONTINUOUS
370
13
 10
575.559293928302
 20
234.760624992095
 11
576.076932018507
 21
236.692476644673
  0
TEXT
  5
4CC
100
AcDbEntity
  8
画層0
100
AcDbText
  6
CONTINUOUS
 10
575.309293928302
 20
250.260624992095
 40
6
  1
37
  7
Font_0
 50
90
 72
1
 11
575.309293928302
 21
253.260624992095
100
AcDbText
  0
LINE
  5
4CD
100
AcDbEntity
  8
画層0
100
AcDbLine
  6
CONTINUOUS
370
13
 10
539.38403957277
 20
234.760624992095
 11
576.059293928302
 21
234.760624992095
  0
LINE
  5
4CE
100
AcDbEntity
  8
画層0
100
AcDbLine
  6
CONTINUOUS
370
13
 10
538.88403957277
 20
80.7606249920953
 11
576.059293928302
 21
80.7606249920953
  0
LINE
  5
4CF
100
AcDbEntity
  8
画層0
100
AcDbLine
  6
CONTINUOUS
370
13
 10
575.559293928302
 20
80.7606249920953
 11
575.559293928302
 21
234.760624992095
  0
LINE
  5
4D0
100
AcDbEntity
  8
画層0
100
AcDbLine
  6
CONTINUOUS
370
13
 10
575.559293928302
 20
80.7606249920953
 11
575.041655838097
 21
82.6924766446735
  0
LINE
  5
4D1
100
AcDbEntity
  8
画層0
100
AcDbLine
  6
CONTINUOUS
370
13
 10
575.559293928302
 20
80.7606249920953
 11
576.076932018507
 21
82.6924766446735
  0
LINE
  5
4D2
100
AcDbEntity
  8
画層0
100
AcDbLine
  6
CONTINUOUS
370
13
 10
575.559293928302
 20
234.760624992095
 11
576.076932018507
 21
232.828773339517
  0
LINE
  5
4D3
100
AcDbEntity
  8
画層0
100
AcDbLine
  6
CONTINUOUS
370
13
 10
575.559293928302
 20
234.760624992095
 11
575.041655838097
 21
232.828773339517
  0
TEXT
  5
4D4
100
AcDbEntity
  8
画層0
100
AcDbText
  6
CONTINUOUS
 10
575.309293928302
 20
153.260624992095
 40
6
  1
154
  7
Font_0
 50
90
 72
1
 11
575.309293928302
 21
157.760624992095
100
AcDbText
  0
LINE
  5
4D5
100
AcDbEntity
  8
画層0
100
AcDbLine
  6
CONTINUOUS
370
13
 10
557.971666750536
 20
234.760624992095
 11
576.059293928302
 21
234.760624992095
  0
LINE
  5
4D6
100
AcDbEntity
  8
画層0
100
AcDbLine
  6
CONTINUOUS
370
13
 10
535.13403957277
 20
72.8606249920954
 11
576.059293928302
 21
72.8606249920954
  0
LINE
  5
4D7
100
AcDbEntity
  8
画層0
100
AcDbLine
  6
CONTINUOUS
370
13
 10
575.559293928302
 20
72.8606249920954
 11
575.559293928302
 21
80.7606249920953
  0
LINE
  5
4D8
100
AcDbEntity
  8
画層0
100
AcDbLine
  6
CONTINUOUS
370
13
 10
575.559293928302
 20
72.8606249920954
 11
576.076932018507
 21
70.9287733395173
  0
LINE
  5
4D9
100
AcDbEntity
  8
画層0
100
AcDbLine
  6
CONTINUOUS
370
13
 10
575.559293928302
 20
72.8606249920954
 11
575.041655838097
 21
70.9287733395173
  0
LINE
  5
4DA
100
AcDbEntity
  8
画層0
100
AcDbLine
  6
CONTINUOUS
370
13
 10
575.559293928302
 20
80.7606249920953
 11
575.041655838097
 21
82.6924766446735
  0
LINE
  5
4DB
100
AcDbEntity
  8
画層0
100
AcDbLine
  6
CONTINUOUS
370
13
 10
575.559293928302
 20
80.7606249920953
 11
576.076932018507
 21
82.6924766446735
  0
TEXT
  5
4DC
100
AcDbEntity
  8
画層0
100
AcDbText
  6
CONTINUOUS
 10
575.309293928302
 20
61.1525000316267
 40
6
  1
7.9
  7
Font_0
 50
90
 72
1
 11
575.309293928302
 21
65.6525000316267
100
AcDbText
  0
LINE
  5
4DD
100
AcDbEntity
  8
画層0
100
AcDbLine
  6
CONTINUOUS
370
13
 10
557.721666750536
 20
80.7606249920953
 11
576.059293928302
 21
80.7606249920953
  0
LINE
  5
4DE
100
AcDbEntity
  8
画層0
100
AcDbLine
  6
CONTINUOUS
370
13
 10
575.559293928302
 20
72.8606249920954
 11
575.559293928302
 21
59.3431409901654
  0
LINE
  5
4DF
100
AcDbEntity
  8
画層0
100
AcDbLine
  6
CONTINUOUS
370
13
 10
288.609080539379
 20
520.790023078913
 11
288.609080539379
 21
533.215557665279
  0
LINE
  5
4E0
100
AcDbEntity
  8
画層0
100
AcDbLine
  6
CONTINUOUS
370
13
 10
437.91017743587
 20
454.588332079701
 11
437.91017743587
 21
455.783485079701
  0
LINE
  5
4E1
100
AcDbEntity
  8
画層0
100
AcDbLine
  6
CONTINUOUS
370
13
 10
435.36017743587
 20
455.772156079701
 11
435.36017743587
 21
454.588332079701
  0
LINE
  5
4E2
100
AcDbEntity
  8
画層0
100
AcDbLine
  6
CONTINUOUS
370
13
 10
436.63517743587
 20
460.235854079701
 11
440.63517743587
 21
457.926453079701
  0
LINE
  5
4E3
100
AcDbEntity
  8
画層0
100
AcDbLine
  6
CONTINUOUS
370
13
 10
440.63517743587
 20
457.926453079701
 11
440.63517743587
 21
455.617052079701
  0
LINE
  5
4E4
100
AcDbEntity
  8
画層0
100
AcDbLine
  6
CONTINUOUS
370
13
 10
440.63517743587
 20
453.307651079701
 11
436.63517743587
 21
450.998249079701
  0
LINE
  5
4E5
100
AcDbEntity
  8
画層0
100
AcDbLine
  6
CONTINUOUS
370
13
 10
440.63517743587
 20
455.617052079701
 11
440.63517743587
 21
453.307651079701
  0
LINE
  5
4E6
100
AcDbEntity
  8
画層0
100
AcDbLine
  6
CONTINUOUS
370
13
 10
432.63517743587
 20
457.926453079701
 11
436.63517743587
 21
460.235854079701
  0
LINE
  5
4E7
100
AcDbEntity
  8
画層0
100
AcDbLine
  6
CONTINUOUS
370
13
 10
432.63517743587
 20
455.617052079701
 11
432.63517743587
 21
457.926453079701
  0
LINE
  5
4E8
100
AcDbEntity
  8
画層0
100
AcDbLine
  6
CONTINUOUS
370
13
 10
436.63517743587
 20
450.998249079701
 11
432.63517743587
 21
453.307651079701
  0
LINE
  5
4E9
100
AcDbEntity
  8
画層0
100
AcDbLine
  6
CONTINUOUS
370
13
 10
432.63517743587
 20
453.307651079701
 11
432.63517743587
 21
455.617052079701
  0
LINE
  5
4EA
100
AcDbEntity
  8
画層0
100
AcDbLine
  6
CONTINUOUS
370
13
 10
437.03517743587
 20
452.643838079701
 11
437.03517743587
 21
453.117052079701
  0
LINE
  5
4EB
100
AcDbEntity
  8
画層0
100
AcDbLine
  6
CONTINUOUS
370
13
 10
436.23517743587
 20
453.117052079701
 11
436.23517743587
 21
452.643838079701
  0
LINE
  5
4EC
100
AcDbEntity
  8
画層0
100
AcDbLine
  6
CONTINUOUS
370
13
 10
436.23517743587
 20
453.117052079701
 11
437.03517743587
 21
453.117052079701
  0
LINE
  5
4ED
100
AcDbEntity
  8
画層0
100
AcDbLine
  6
CONTINUOUS
370
13
 10
434.92617243587
 20
459.149575079701
 11
438.34418143587
 21
459.149575079701
  0
LINE
  5
4EE
100
AcDbEntity
  8
画層0
100
AcDbLine
  6
CONTINUOUS
370
13
 10
434.92617243587
 20
456.708835079701
 11
438.34418143587
 21
456.708835079701
  0
LINE
  5
4EF
100
AcDbEntity
  8
画層0
100
AcDbLine
  6
CONTINUOUS
370
13
 10
437.66992243587
 20
455.518417079701
 11
437.61288143587
 21
455.518417079701
  0
LINE
  5
4F0
100
AcDbEntity
  8
画層0
100
AcDbLine
  6
CONTINUOUS
370
13
 10
435.65747243587
 20
455.518417079701
 11
437.61288143587
 21
455.518417079701
  0
LINE
  5
4F1
100
AcDbEntity
  8
画層0
100
AcDbLine
  6
CONTINUOUS
370
13
 10
437.66992243587
 20
455.518417079701
 11
438.34418143587
 21
456.708835079701
  0
LINE
  5
4F2
100
AcDbEntity
  8
画層0
100
AcDbLine
  6
CONTINUOUS
370
13
 10
434.92617243587
 20
456.708835079701
 11
435.60043243587
 21
455.518417079701
  0
LINE
  5
4F3
100
AcDbEntity
  8
画層0
100
AcDbLine
  6
CONTINUOUS
370
13
 10
438.54095743587
 20
457.047162079701
 11
438.25896943587
 21
456.437886079701
  0
LINE
  5
4F4
100
AcDbEntity
  8
画層0
100
AcDbLine
  6
CONTINUOUS
370
13
 10
434.72939643587
 20
457.047162079701
 11
435.01141143587
 21
456.437828079701
  0
LINE
  5
4F5
100
AcDbEntity
  8
画層0
100
AcDbLine
  6
CONTINUOUS
370
13
 10
435.65747243587
 20
455.518417079701
 11
435.60043243587
 21
455.518417079701
  0
LINE
  5
4F6
100
AcDbEntity
  8
画層0
100
AcDbLine
  6
CONTINUOUS
370
13
 10
437.61288143587
 20
455.518417079701
 11
435.65747243587
 21
455.518417079701
  0
LINE
  5
4F7
100
AcDbEntity
  8
画層0
100
AcDbLine
  6
CONTINUOUS
370
13
 10
438.17912643587
 20
456.265373079701
 11
438.08720043587
 21
456.066754079701
  0
LINE
  5
4F8
100
AcDbEntity
  8
画層0
100
AcDbLine
  6
CONTINUOUS
370
13
 10
435.09122743587
 20
456.265373079701
 11
435.18315343587
 21
456.066754079701
  0
LINE
  5
4F9
100
AcDbEntity
  8
画層0
100
AcDbLine
  6
CONTINUOUS
370
13
 10
438.25896943587
 20
456.437886079701
 11
438.17912643587
 21
456.265373079701
  0
LINE
  5
4FA
100
AcDbEntity
  8
画層0
100
AcDbLine
  6
CONTINUOUS
370
13
 10
435.01141143587
 20
456.437828079701
 11
435.09122743587
 21
456.265373079701
  0
ARC
  5
4FB
100
AcDbEntity
  8
画層0
100
AcDbCircle
  6
CONTINUOUS
370
13
 10
436.63517743587
 20
456.243125079701
 40
1.217008
100
AcDbArc
 50
-143.452890000004
 51
-36.5471100000062
  0
ARC
  5
4FC
100
AcDbEntity
  8
画層0
100
AcDbCircle
  6
CONTINUOUS
370
13
 10
436.62896543587
 20
456.234142079701
 40
1.354468
100
AcDbArc
 50
-152.860160999998
 51
-89.7384530000017
  0
ARC
  5
4FD
100
AcDbEntity
  8
画層0
100
AcDbCircle
  6
CONTINUOUS
370
13
 10
436.63517743587
 20
456.029806079701
 40
1.561817
100
AcDbArc
 50
-144.721766999993
 51
-39.7952980000005
  0
ARC
  5
4FE
100
AcDbEntity
  8
画層0
100
AcDbCircle
  6
CONTINUOUS
370
13
 10
436.62896543587
 20
456.234142079701
 40
1.354468
100
AcDbArc
 50
-152.860160999998
 51
-89.7384530000017
  0
ARC
  5
4FF
100
AcDbEntity
  8
画層0
100
AcDbCircle
  6
CONTINUOUS
370
13
 10
436.64138843587
 20
456.234142079701
 40
1.354468
100
AcDbArc
 50
-90.2615470000031
 51
-27.1398389999992
  0
ARC
  5
500
100
AcDbEntity
  8
画層0
100
AcDbCircle
  6
CONTINUOUS
370
13
 10
436.63517743587
 20
456.029806079701
 40
1.561817
100
AcDbArc
 50
-39.7952980000005
 51
-35.2782329999969
  0
ARC
  5
501
100
AcDbEntity
  8
画層0
100
AcDbCircle
  6
CONTINUOUS
370
13
 10
436.62773143587
 20
455.649381079701
 40
1.661673
100
AcDbArc
 50
-139.713247999999
 51
-89.7432559999991
  0
ARC
  5
502
100
AcDbEntity
  8
画層0
100
AcDbCircle
  6
CONTINUOUS
370
13
 10
436.63184543587
 20
455.648417079701
 40
1.660696
100
AcDbArc
 50
-89.8850489999924
 51
-39.6679659999954
  0
ARC
  5
503
100
AcDbEntity
  8
画層0
100
AcDbCircle
  6
CONTINUOUS
370
13
 10
437.31627643587
 20
455.913230079701
 40
0.607908
100
AcDbArc
 50
-29.2403290000002
 51
-12.3234270000037
  0
ARC
  5
504
100
AcDbEntity
  8
画層0
100
AcDbCircle
  6
CONTINUOUS
370
13
 10
435.84459143587
 20
455.878501079701
 40
0.49595
100
AcDbArc
 50
-167.618153000008
 51
-148.081070000017
  0
ARC
  5
505
100
AcDbEntity
  8
画層0
100
AcDbCircle
  6
CONTINUOUS
370
13
 10
436.635177435871
 20
457.929205079701
 40
2.1
100
AcDbArc
 50
144.470040000003
 51
179.999999999999
  0
ARC
  5
506
100
AcDbEntity
  8
画層0
100
AcDbCircle
  6
CONTINUOUS
370
13
 10
436.63517743587
 20
455.617052079701
 40
2.1
100
AcDbArc
 50
147.352670000003
 51
33.4021960000071
  0
ARC
  5
507
100
AcDbEntity
  8
画層0
100
AcDbCircle
  6
CONTINUOUS
370
13
 10
436.63517743587
 20
455.617052079701
 40
2.6
100
AcDbArc
 50
-81.1501170000027
 51
39.799305000003
  0
ARC
  5
508
100
AcDbEntity
  8
画層0
100
AcDbCircle
  6
CONTINUOUS
370
13
 10
436.63517743587
 20
455.617052079701
 40
3
100
AcDbArc
 50
1.62844399690935E-12
 51
45.7432150000027
  0
ARC
  5
509
100
AcDbEntity
  8
画層0
100
AcDbCircle
  6
CONTINUOUS
370
13
 10
436.63517743587
 20
455.617052079701
 40
3
100
AcDbArc
 50
-82.3377440000024
 51
1.62844399690935E-12
  0
ARC
  5
50A
100
AcDbEntity
  8
画層0
100
AcDbCircle
  6
CONTINUOUS
370
13
 10
436.63517743587
 20
455.617052079701
 40
3
100
AcDbArc
 50
134.256785000001
 51
179.999999999999
  0
ARC
  5
50B
100
AcDbEntity
  8
画層0
100
AcDbCircle
  6
CONTINUOUS
370
13
 10
436.63517743587
 20
455.617052079701
 40
3
100
AcDbArc
 50
-97.6622560000031
 51
-82.3377440000024
  0
ARC
  5
50C
100
AcDbEntity
  8
画層0
100
AcDbCircle
  6
CONTINUOUS
370
13
 10
436.63517743587
 20
455.617052079701
 40
2.6
100
AcDbArc
 50
140.200695000001
 51
-98.8498830000048
  0
ARC
  5
50D
100
AcDbEntity
  8
画層0
100
AcDbCircle
  6
CONTINUOUS
370
13
 10
436.635177435871
 20
457.929205079701
 40
2.1
100
AcDbArc
 50
7.75449522337763E-13
 51
35.5299600000041
  0
ARC
  5
50E
100
AcDbEntity
  8
画層0
100
AcDbCircle
  6
CONTINUOUS
370
13
 10
436.635177435871
 20
457.929205079701
 40
2.1
100
AcDbArc
 50
-35.5299600000008
 51
7.75449522337763E-13
  0
ARC
  5
50F
100
AcDbEntity
  8
画層0
100
AcDbCircle
  6
CONTINUOUS
370
13
 10
436.635177435871
 20
457.929205079701
 40
2.1
100
AcDbArc
 50
179.999999999999
 51
-144.47004000001
  0
ARC
  5
510
100
AcDbEntity
  8
画層0
100
AcDbCircle
  6
CONTINUOUS
370
13
 10
436.63517743587
 20
456.738787079701
 40
1.6
100
AcDbArc
 50
-49.7055750000002
 51
-22.7165289999974
  0
ARC
  5
511
100
AcDbEntity
  8
画層0
100
AcDbCircle
  6
CONTINUOUS
370
13
 10
436.63517743587
 20
456.738787079701
 40
1.6
100
AcDbArc
 50
-155.164113999999
 51
-130.294424999996
  0
ARC
  5
512
100
AcDbEntity
  8
画層0
100
AcDbCircle
  6
CONTINUOUS
370
13
 10
436.63517743587
 20
455.617052079701
 40
2.7
100
AcDbArc
 50
-98.5196240000029
 51
-81.4803760000043
  0
ARC
  5
513
100
AcDbEntity
  8
画層0
100
AcDbCircle
  6
CONTINUOUS
370
13
 10
436.63517743587
 20
455.617052079701
 40
3
100
AcDbArc
 50
179.999999999999
 51
-97.6622560000031
  0
CIRCLE
  5
514
100
AcDbEntity
  8
画層0
100
AcDbCircle
  6
CONTINUOUS
370
13
 10
436.63517743587
 20
455.617052079701
 40
4
  0
SOLID
  5
515
100
AcDbEntity
  8
画層0
 62
250
100
AcDbTrace
 10
540.17467257277
 20
202.131959228924
 30
0.0
 11
540.66748157277
 21
201.251919228924
 31
0.0
 12
540.87846157277
 22
201.409454228924
 32
0.0
 13
540.87846157277
 23
201.409454228924
 33
0.0
  0
SOLID
  5
516
100
AcDbEntity
  8
画層0
 62
250
100
AcDbTrace
 10
540.17467257277
 20
208.131959228924
 30
0.0
 11
540.78868757277
 21
208.932159228924
 31
0.0
 12
540.56065857277
 22
209.063811228924
 32
0.0
 13
540.56065857277
 23
209.063811228924
 33
0.0
  0
LINE
  5
517
100
AcDbEntity
  8
画層0
100
AcDbLine
  6
CONTINUOUS
370
13
 10
541.31530657277
 20
202.971706228924
 11
541.86079057277
 21
202.850776228924
  0
LINE
  5
518
100
AcDbEntity
  8
画層0
100
AcDbLine
  6
CONTINUOUS
370
13
 10
541.31530657277
 20
205.429977228924
 11
542.38024557277
 21
205.193886228924
  0
LINE
  5
519
100
AcDbEntity
  8
画層0
100
AcDbLine
  6
CONTINUOUS
370
13
 10
539.28071257277
 20
209.750762228924
 11
539.13403957277
 21
209.750762228924
  0
LINE
  5
51A
100
AcDbEntity
  8
画層0
100
AcDbLine
  6
CONTINUOUS
370
13
 10
539.63403957277
 20
201.726144228924
 11
539.63403957277
 21
205.131959228924
  0
LINE
  5
51B
100
AcDbEntity
  8
画層0
100
AcDbLine
  6
CONTINUOUS
370
13
 10
539.63403957277
 20
201.609571228924
 11
539.63403957277
 21
201.726144228924
  0
LINE
  5
51C
100
AcDbEntity
  8
画層0
100
AcDbLine
  6
CONTINUOUS
370
13
 10
539.63403957277
 20
205.131959228924
 11
539.63403957277
 21
208.596061228924
  0
LINE
  5
51D
100
AcDbEntity
  8
画層0
100
AcDbLine
  6
CONTINUOUS
370
13
 10
539.28071257277
 20
207.441360228924
 11
539.13403957277
 21
207.441360228924
  0
LINE
  5
51E
100
AcDbEntity
  8
画層0
100
AcDbLine
  6
CONTINUOUS
370
13
 10
539.28071257277
 20
202.822558228924
 11
539.13403957277
 21
202.822558228924
  0
LINE
  5
51F
100
AcDbEntity
  8
画層0
100
AcDbLine
  6
CONTINUOUS
370
13
 10
539.13403957277
 20
200.513157228924
 11
539.28071257277
 21
200.513157228924
  0
LINE
  5
520
100
AcDbEntity
  8
画層0
100
AcDbLine
  6
CONTINUOUS
370
13
 10
539.63403957277
 20
202.531959228924
 11
541.31530657277
 21
202.531959228924
  0
LINE
  5
521
100
AcDbEntity
  8
画層0
100
AcDbLine
  6
CONTINUOUS
370
13
 10
539.63403957277
 20
202.131959228924
 11
540.91530657277
 21
202.131959228924
  0
LINE
  5
522
100
AcDbEntity
  8
画層0
100
AcDbLine
  6
CONTINUOUS
370
13
 10
541.31530657277
 20
207.731959228924
 11
539.63403957277
 21
207.731959228924
  0
LINE
  5
523
100
AcDbEntity
  8
画層0
100
AcDbLine
  6
CONTINUOUS
370
13
 10
540.91530657277
 20
205.131959228924
 11
540.91530657277
 21
208.131959228924
  0
LINE
  5
524
100
AcDbEntity
  8
画層0
100
AcDbLine
  6
CONTINUOUS
370
13
 10
540.91530657277
 20
208.131959228924
 11
541.31530657277
 21
207.731959228924
  0
LINE
  5
525
100
AcDbEntity
  8
画層0
100
AcDbLine
  6
CONTINUOUS
370
13
 10
540.91530657277
 20
208.131959228924
 11
539.63403957277
 21
208.131959228924
  0
LINE
  5
526
100
AcDbEntity
  8
画層0
100
AcDbLine
  6
CONTINUOUS
370
13
 10
541.31530657277
 20
205.131959228924
 11
541.31530657277
 21
207.731959228924
  0
LINE
  5
527
100
AcDbEntity
  8
画層0
100
AcDbLine
  6
CONTINUOUS
370
13
 10
540.91530657277
 20
202.131959228924
 11
540.91530657277
 21
205.131959228924
  0
LINE
  5
528
100
AcDbEntity
  8
画層0
100
AcDbLine
  6
CONTINUOUS
370
13
 10
541.31530657277
 20
202.531959228924
 11
540.91530657277
 21
202.131959228924
  0
LINE
  5
529
100
AcDbEntity
  8
画層0
100
AcDbLine
  6
CONTINUOUS
370
13
 10
541.31530657277
 20
202.531959228924
 11
541.31530657277
 21
205.131959228924
  0
LINE
  5
52A
100
AcDbEntity
  8
画層0
100
AcDbLine
  6
CONTINUOUS
370
13
 10
547.21959657277
 20
201.611543228924
 11
547.76069557277
 21
204.052283228924
  0
LINE
  5
52B
100
AcDbEntity
  8
画層0
100
AcDbLine
  6
CONTINUOUS
370
13
 10
541.84996857277
 20
202.801961228924
 11
542.39106757277
 21
205.242701228924
  0
LINE
  5
52C
100
AcDbEntity
  8
画層0
100
AcDbLine
  6
CONTINUOUS
370
13
 10
547.21959657277
 20
201.611543228924
 11
541.84996857277
 21
202.801961228924
  0
LINE
  5
52D
100
AcDbEntity
  8
画層0
100
AcDbLine
  6
CONTINUOUS
370
13
 10
547.76069557277
 20
204.052283228924
 11
542.39106757277
 21
205.242701228924
  0
ARC
  5
52E
100
AcDbEntity
  8
画層0
100
AcDbCircle
  6
CONTINUOUS
370
13
 10
537.57054857277
 20
208.596061228924
 40
2.063491
100
AcDbArc
 50
0
 51
34.0271689999998
  0
ARC
  5
52F
100
AcDbEntity
  8
画層0
100
AcDbCircle
  6
CONTINUOUS
370
13
 10
537.57054857277
 20
208.596061228924
 40
2.063491
100
AcDbArc
 50
-34.0271689999998
 51
0
  0
ARC
  5
530
100
AcDbEntity
  8
画層0
100
AcDbCircle
  6
CONTINUOUS
370
13
 10
537.57535657277
 20
201.667858228924
 40
2.059508
100
AcDbArc
 50
-1.6217529999991
 51
1.62175300000147
  0
ARC
  5
531
100
AcDbEntity
  8
画層0
100
AcDbCircle
  6
CONTINUOUS
370
13
 10
537.57535657277
 20
201.667858228924
 40
2.059508
100
AcDbArc
 50
-34.1020129999968
 51
-1.6217529999991
  0
ARC
  5
532
100
AcDbEntity
  8
画層0
100
AcDbCircle
  6
CONTINUOUS
370
13
 10
531.91006557277
 20
205.131959228924
 40
7.723973
100
AcDbArc
 50
-17.3970299999996
 51
2.10829840667403E-13
  0
ARC
  5
533
100
AcDbEntity
  8
画層0
100
AcDbCircle
  6
CONTINUOUS
370
13
 10
531.91006557277
 20
205.131959228924
 40
7.723973
100
AcDbArc
 50
2.10829840667403E-13
 51
17.3970299999998
  0
ARC
  5
534
100
AcDbEntity
  8
画層0
100
AcDbCircle
  6
CONTINUOUS
370
13
 10
537.57535657277
 20
201.667858228924
 40
2.059508
100
AcDbArc
 50
1.62175300000147
 51
34.1020129999988
  0
TEXT
  5
535
100
AcDbEntity
  8
画層0
100
AcDbText
  6
CONTINUOUS
 10
426.664135693728
 20
361.350963996682
 40
4
  1
□DC24V IN
  7
Font_0
 11
426.664135693728
 21
365.350963996682
100
AcDbText
 73
3
  0
LINE
  5
536
100
AcDbEntity
  8
画層0
100
AcDbLine
  6
CONTINUOUS
370
13
 10
182.651005782962
 20
125.052663602281
 11
113.393476848205
 21
90.2098642673873
  0
LINE
  5
537
100
AcDbEntity
  8
画層0
100
AcDbLine
  6
CONTINUOUS
370
13
 10
182.651005782962
 20
125.052663602281
 11
181.157881070572
 21
123.722032701823
  0
LINE
  5
538
100
AcDbEntity
  8
画層0
100
AcDbLine
  6
CONTINUOUS
370
13
 10
182.651005782962
 20
125.052663602281
 11
180.692606400786
 21
124.646865795619
  0
MTEXT
  5
539
100
AcDbEntity
  8
画層0
100
AcDbMText
 10
112.393476848205
 20
90.2098642673873
 40
8
 41
  0.0
  1
タイマー\P(ｵﾌﾟｼｮﾝ)
 71
9
  7
Font_0
  0
LINE
  5
53A
100
AcDbEntity
  8
画層0
100
AcDbLine
  6
CONTINUOUS
370
13
 10
113.393476848205
 20
90.2098642673873
 11
80.3934768482048
 21
90.2098642673873
  0
LINE
  5
53B
100
AcDbEntity
  8
画層0
100
AcDbLine
  6
CONTINUOUS
370
13
 10
133.608750818545
 20
225.432048296936
 11
109.658658446796
 21
258.10636116984
  0
LINE
  5
53C
100
AcDbEntity
  8
画層0
100
AcDbLine
  6
CONTINUOUS
370
13
 10
133.608750818545
 20
225.432048296936
 11
132.049173878016
 21
226.684134462729
  0
LINE
  5
53D
100
AcDbEntity
  8
画層0
100
AcDbLine
  6
CONTINUOUS
370
13
 10
133.608750818545
 20
225.432048296936
 11
132.884160651786
 21
227.296175194504
  0
TEXT
  5
53E
100
AcDbEntity
  8
画層0
100
AcDbText
  6
CONTINUOUS
 10
76.658658446796
 20
258.10636116984
 40
8
  1
チューブ
  7
Font_0
 72
2
 11
108.658658446796
 21
258.10636116984
100
AcDbText
  0
LINE
  5
53F
100
AcDbEntity
  8
画層0
100
AcDbLine
  6
CONTINUOUS
370
13
 10
109.658658446796
 20
258.10636116984
 11
76.6586584467956
 21
258.10636116984
  0
TEXT
  5
540
100
AcDbEntity
  8
画層0
100
AcDbText
  6
CONTINUOUS
 10
719.058304675774
 20
13.4022975200042
 40
5
  1
MCRP326外観図
  7
Font_0
 11
719.058304675774
 21
18.4022975200042
100
AcDbText
 73
3
  0
LINE
  5
541
100
AcDbEntity
  8
画層0
100
AcDbLine
  6
CONTINUOUS
370
13
 10
154.850859282962
 20
80.7606249920954
 11
156.050859282962
 21
80.7606249920954
  0
CIRCLE
  5
542
100
AcDbEntity
  8
画層0
100
AcDbCircle
  6
BYLAYER
370
13
 10
166.250859282962
 20
93.3606249920954
 40
3.1
  0
CIRCLE
  5
543
100
AcDbEntity
  8
画層0
100
AcDbCircle
  6
BYLAYER
370
13
 10
166.250859282962
 20
93.3606249920954
 40
4
  0
CIRCLE
  5
544
100
AcDbEntity
  8
画層0
100
AcDbCircle
  6
BYLAYER
370
13
 10
166.250859282962
 20
93.3606249920954
 40
3
  0
CIRCLE
  5
545
100
AcDbEntity
  8
画層0
100
AcDbCircle
  6
BYLAYER
370
13
 10
166.250859282962
 20
93.3606249920954
 40
2.80000000000001
  0
CIRCLE
  5
546
100
AcDbEntity
  8
画層0
100
AcDbCircle
  6
BYLAYER
370
13
 10
166.250859282962
 20
93.3606249920954
 40
1.75
  0
ARC
  5
547
100
AcDbEntity
  8
画層0
100
AcDbCircle
  6
BYLAYER
370
13
 10
240.250859282962
 20
99.3606249920953
 40
8.40504463592505
100
AcDbArc
 50
158.804371
 51
159.396477
  0
ARC
  5
548
100
AcDbEntity
  8
画層0
100
AcDbCircle
  6
BYLAYER
370
13
 10
240.250859282962
 20
99.3606249920953
 40
8.40504463592505
100
AcDbArc
 50
158.804371
 51
159.396477
  0
ARC
  5
549
100
AcDbEntity
  8
画層0
100
AcDbCircle
  6
BYLAYER
370
13
 10
240.250859282962
 20
99.3606249920953
 40
8.40504463592505
100
AcDbArc
 50
20.6035229999995
 51
21.195629
  0
ARC
  5
54A
100
AcDbEntity
  8
画層0
100
AcDbCircle
  6
BYLAYER
370
13
 10
240.250859282962
 20
99.3606249920953
 40
8.40504463592505
100
AcDbArc
 50
20.6035229999995
 51
21.195629
  0
ARC
  5
54B
100
AcDbEntity
  8
画層0
100
AcDbCircle
  6
BYLAYER
370
13
 10
240.250859282962
 20
99.3606249920953
 40
8.40504463592505
100
AcDbArc
 50
38.8043709999999
 51
39.3964769999995
  0
ARC
  5
54C
100
AcDbEntity
  8
画層0
100
AcDbCircle
  6
BYLAYER
370
13
 10
240.250859282962
 20
99.3606249920953
 40
8.40504463592505
100
AcDbArc
 50
38.8043709999999
 51
39.3964769999995
  0
LINE
  5
54D
100
AcDbEntity
  8
画層0
100
AcDbLine
  6
CONTINUOUS
370
13
 10
154.850859282962
 20
242.760624992095
 11
154.850859282962
 21
80.7606249920954
  0
LINE
  5
54E
100
AcDbEntity
  8
画層0
100
AcDbLine
  6
CONTINUOUS
370
13
 10
237.652776740543
 20
119.860625945769
 11
237.443464301578
 21
120.223166190825
  0
LINE
  5
54F
100
AcDbEntity
  8
画層0
100
AcDbLine
  6
CONTINUOUS
370
13
 10
237.652775786869
 20
119.860624992095
 11
238.071408294193
 21
119.860624992095
  0
LINE
  5
550
100
AcDbEntity
  8
画層0
100
AcDbLine
  6
CONTINUOUS
370
13
 10
242.430302642337
 20
119.860624992095
 11
242.848935149661
 21
119.860624992095
  0
LINE
  5
551
100
AcDbEntity
  8
画層0
100
AcDbLine
  6
CONTINUOUS
370
13
 10
242.848931811801
 20
119.86062403842
 11
243.05824520444
 21
120.223165237151
  0
LINE
  5
552
100
AcDbEntity
  8
画層0
100
AcDbLine
  6
CONTINUOUS
370
13
 10
245.44700600957
 20
124.360624992095
 11
245.237693332186
 21
124.723164283476
  0
LINE
  5
553
100
AcDbEntity
  8
画層0
100
AcDbLine
  6
CONTINUOUS
370
13
 10
245.237695239535
 20
123.99808283969
 11
245.447007440081
 21
124.360622131072
  0
LINE
  5
554
100
AcDbEntity
  8
画層0
100
AcDbLine
  6
CONTINUOUS
370
13
 10
235.054703734867
 20
124.36062403842
 11
235.26401808118
 21
124.723167144499
  0
LINE
  5
555
100
AcDbEntity
  8
画層0
100
AcDbLine
  6
CONTINUOUS
370
13
 10
235.264014266483
 20
123.998085700713
 11
235.054701827518
 21
124.360625945769
  0
LINE
  5
556
100
AcDbEntity
  8
画層0
100
AcDbLine
  6
CONTINUOUS
370
13
 10
237.443467162601
 20
128.498083793364
 11
237.653000854007
 21
128.861006461821
  0
LINE
  5
557
100
AcDbEntity
  8
画層0
100
AcDbLine
  6
CONTINUOUS
370
13
 10
237.653004668705
 20
128.861010276518
 11
238.07219412183
 21
128.861010276518
  0
LINE
  5
558
100
AcDbEntity
  8
画層0
100
AcDbLine
  6
CONTINUOUS
370
13
 10
242.4295168147
 20
128.861010276518
 11
242.84871389722
 21
128.861010276518
  0
LINE
  5
559
100
AcDbEntity
  8
画層0
100
AcDbLine
  6
CONTINUOUS
370
13
 10
243.058243297091
 20
128.498083793364
 11
242.848709605685
 21
128.86100836917
  0
CIRCLE
  5
55A
100
AcDbEntity
  8
画層0
100
AcDbCircle
  6
CONTINUOUS
370
13
 10
240.250859282962
 20
124.360624992095
 40
1.5499999523163
  0
CIRCLE
  5
55B
100
AcDbEntity
  8
画層0
100
AcDbCircle
  6
CONTINUOUS
370
13
 10
240.250859282962
 20
124.360624992095
 40
5
  0
CIRCLE
  5
55C
100
AcDbEntity
  8
画層0
100
AcDbCircle
  6
BYLAYER
370
13
 10
240.250859282962
 20
124.360624992095
 40
4
  0
CIRCLE
  5
55D
100
AcDbEntity
  8
画層0
100
AcDbCircle
  6
BYLAYER
370
13
 10
240.250859282962
 20
124.360624992095
 40
4
  0
CIRCLE
  5
55E
100
AcDbEntity
  8
画層0
100
AcDbCircle
  6
BYLAYER
370
13
 10
240.250859282962
 20
124.360624992095
 40
1.65
  0
ARC
  5
55F
100
AcDbEntity
  8
画層0
100
AcDbCircle
  6
BYLAYER
370
13
 10
240.250859282962
 20
99.3606249920953
 40
9
100
AcDbArc
 50
-36.4082458234143
 51
-13.591754176586
  0
ARC
  5
560
100
AcDbEntity
  8
画層0
100
AcDbCircle
  6
BYLAYER
370
13
 10
240.250859282962
 20
99.3606249920953
 40
8.5
100
AcDbArc
 50
-39.6854130402227
 51
-138.314586959777
  0
LINE
  5
561
100
AcDbEntity
  8
画層0
100
AcDbLine
  6
BYLAYER
370
13
 10
240.000859282962
 20
109.357499503662
 11
240.000859282962
 21
108.357152099819
  0
LINE
  5
562
100
AcDbEntity
  8
画層0
100
AcDbLine
  6
BYLAYER
370
13
 10
240.500859282962
 20
109.357499503662
 11
240.500859282962
 21
108.357152099819
  0
TEXT
  5
563
100
AcDbEntity
  8
画層0
100
AcDbText
  6
BYLAYER
 10
228.459614513349
 20
95.3122781860613
 40
2.5
 41
0.9
  1
1
  7
Font_0
100
AcDbText
  0
TEXT
  5
564
100
AcDbEntity
  8
画層0
100
AcDbText
  6
BYLAYER
 10
228.371701942711
 20
100.529037816925
 40
2.5
 41
0.9
  1
2
  7
Font_0
100
AcDbText
  0
TEXT
  5
565
100
AcDbEntity
  8
画層0
100
AcDbText
  6
BYLAYER
 10
230.596016834532
 20
105.269169728871
 40
2.5
 41
0.9
  1
3
  7
Font_0
100
AcDbText
  0
TEXT
  5
566
100
AcDbEntity
  8
画層0
100
AcDbText
  6
BYLAYER
 10
234.699337997378
 20
108.552134488329
 40
2.5
 41
0.9
  1
4
  7
Font_0
100
AcDbText
  0
TEXT
  5
567
100
AcDbEntity
  8
画層0
100
AcDbText
  6
BYLAYER
 10
239.688359282962
 20
109.682809485437
 40
2.5
 41
0.9
  1
5
  7
Font_0
100
AcDbText
  0
TEXT
  5
568
100
AcDbEntity
  8
画層0
100
AcDbText
  6
BYLAYER
 10
244.706955644751
 20
108.537951807026
 40
2.5
 41
0.9
  1
6
  7
Font_0
100
AcDbText
  0
TEXT
  5
569
100
AcDbEntity
  8
画層0
100
AcDbText
  6
BYLAYER
 10
248.514753108652
 20
105.594622986601
 40
2.5
 41
0.9
  1
7
  7
Font_0
100
AcDbText
  0
TEXT
  5
56A
100
AcDbEntity
  8
画層0
100
AcDbText
  6
BYLAYER
 10
250.923992673379
 20
100.881183828158
 40
2.5
 41
0.9
  1
8
  7
Font_0
100
AcDbText
  0
TEXT
  5
56B
100
AcDbEntity
  8
画層0
100
AcDbText
  6
BYLAYER
 10
251.002823539798
 20
95.6819725820694
 40
2.5
 41
0.9
  1
9
  7
Font_0
100
AcDbText
  0
TEXT
  5
56C
100
AcDbEntity
  8
画層0
100
AcDbText
  6
BYLAYER
 10
248.219922779189
 20
90.954266764999
 40
2.5
 41
0.9
  1
10
  7
Font_0
100
AcDbText
  0
TEXT
  5
56D
100
AcDbEntity
  8
画層0
100
AcDbText
  6
BYLAYER
 10
230.842161854313
 20
90.6500455909148
 40
2.5
 41
0.9
  1
0
  7
Font_0
100
AcDbText
  0
ARC
  5
56E
100
AcDbEntity
  8
画層0
100
AcDbCircle
  6
BYLAYER
370
13
 10
240.250859282962
 20
99.3606249920953
 40
7.5
100
AcDbArc
 50
247.077066929199
 51
554.9229330708
  0
CIRCLE
  5
56F
100
AcDbEntity
  8
画層0
100
AcDbCircle
  6
BYLAYER
370
13
 10
240.250859282962
 20
99.3606249920953
 40
7
  0
CIRCLE
  5
570
100
AcDbEntity
  8
画層0
100
AcDbCircle
  6
CONTINUOUS
370
13
 10
240.250859282962
 20
99.3606249920953
 40
6
  0
LINE
  5
571
100
AcDbEntity
  8
画層0
100
AcDbLine
  6
BYLAYER
370
13
 10
233.949034288102
 20
93.8825321000246
 11
237.32966455486
 21
92.4529031273623
  0
LINE
  5
572
100
AcDbEntity
  8
画層0
100
AcDbLine
  6
BYLAYER
370
13
 10
233.949034288102
 20
93.8825321000246
 11
233.003811163751
 21
97.4292282027649
  0
ARC
  5
573
100
AcDbEntity
  8
画層0
100
AcDbCircle
  6
BYLAYER
370
13
 10
240.250859282962
 20
99.3606249920953
 40
9
100
AcDbArc
 50
-164.408245823417
 51
-141.591754176586
  0
ARC
  5
574
100
AcDbEntity
  8
画層0
100
AcDbCircle
  6
BYLAYER
370
13
 10
240.250859282962
 20
99.3606249920953
 40
9
100
AcDbArc
 50
169.590157158544
 51
-167.591754176588
  0
ARC
  5
575
100
AcDbEntity
  8
画層0
100
AcDbCircle
  6
BYLAYER
370
13
 10
240.250859282962
 20
99.3606249920953
 40
9
100
AcDbArc
 50
91.5917541765859
 51
114.408859728805
  0
ARC
  5
576
100
AcDbEntity
  8
画層0
100
AcDbCircle
  6
BYLAYER
370
13
 10
240.250859282962
 20
99.3606249920953
 40
9
100
AcDbArc
 50
-10.4082458234142
 51
12.4082458234164
  0
ARC
  5
577
100
AcDbEntity
  8
画層0
100
AcDbCircle
  6
BYLAYER
370
13
 10
240.250859282962
 20
99.3606249920953
 40
9
100
AcDbArc
 50
15.5917541765882
 51
38.4922887832011
  0
ARC
  5
578
100
AcDbEntity
  8
画層0
100
AcDbCircle
  6
BYLAYER
370
13
 10
240.250859282962
 20
99.3606249920953
 40
9
100
AcDbArc
 50
65.5917541765858
 51
88.4082458234141
  0
ARC
  5
579
100
AcDbEntity
  8
画層0
100
AcDbCircle
  6
BYLAYER
370
13
 10
240.250859282962
 20
99.3606249920953
 40
9
100
AcDbArc
 50
41.5917541765859
 51
62.4082458234141
  0
TEXT
  5
57A
100
AcDbEntity
  8
画層0
100
AcDbText
  6
BYLAYER
 10
221.231420187294
 20
103.8208623597
 40
2.5
 41
0.9
  1
CONT
  7
Font_0
100
AcDbText
  0
TEXT
  5
57B
100
AcDbEntity
  8
画層0
100
AcDbText
  6
BYLAYER
 10
220.941352348003
 20
93.2041493823954
 40
2.5
 41
0.9
  1
TEST
  7
Font_0
100
AcDbText
  0
TEXT
  5
57C
100
AcDbEntity
  8
画層0
100
AcDbText
  6
BYLAYER
 10
195.656686607857
 20
103.848558104239
 40
2.5
 41
0.9
  1
CW
  7
Font_0
100
AcDbText
  0
TEXT
  5
57D
100
AcDbEntity
  8
画層0
100
AcDbText
  6
BYLAYER
 10
195.847008541011
 20
93.2318451269351
 40
2.5
 41
0.9
  1
CCW
  7
Font_0
100
AcDbText
  0
MTEXT
  5
57E
100
AcDbEntity
  8
画層0
100
AcDbMText
 10
168.795059282962
 20
100.083982826457
 40
2
 41
  0.0
  1
{\fMS PGothic|b1;R.C. J}
 71
3
  7
Font_1
 11
1
 21
-2.793453120617E-14
  0
TEXT
  5
57F
100
AcDbEntity
  8
画層0
100
AcDbText
  6
BYLAYER
 10
185.438359282962
 20
109.168152635772
 40
2.5
 41
0.9
  1
ROTOR
  7
Font_0
100
AcDbText
  0
TEXT
  5
580
100
AcDbEntity
  8
画層0
100
AcDbText
  6
BYLAYER
 10
211.438359282962
 20
109.168152635772
 40
2.5
 41
0.9
  1
DRIVE
  7
Font_0
100
AcDbText
  0
LINE
  5
581
100
AcDbEntity
  8
画層0
100
AcDbLine
  6
CONTINUOUS
370
13
 10
232.432112212397
 20
93.1262690312493
 11
233.198422782299
 21
93.7692799478215
  0
LINE
  5
582
100
AcDbEntity
  8
画層0
100
AcDbLine
  6
CONTINUOUS
370
13
 10
232.75350601724
 20
92.7432468096897
 11
233.90299536807
 21
93.7077829000131
  0
LINE
  5
583
100
AcDbEntity
  8
画層0
100
AcDbLine
  6
CONTINUOUS
370
13
 10
236.091846326646
 20
108.458158241784
 11
236.530217473435
 21
107.559364195485
  0
LINE
  5
584
100
AcDbEntity
  8
画層0
100
AcDbLine
  6
CONTINUOUS
370
13
 10
235.642449303496
 20
108.23897266839
 11
236.080820450285
 21
107.340178622091
  0
LINE
  5
585
100
AcDbEntity
  8
画層0
100
AcDbLine
  6
CONTINUOUS
370
13
 10
244.408502115329
 20
108.455349071388
 11
243.969978676719
 21
107.556242780583
  0
LINE
  5
586
100
AcDbEntity
  8
画層0
100
AcDbLine
  6
CONTINUOUS
370
13
 10
244.857899138478
 20
108.236163497993
 11
244.419375699868
 21
107.337057207189
  0
LINE
  5
587
100
AcDbEntity
  8
画層0
100
AcDbLine
  6
CONTINUOUS
370
13
 10
232.523747333846
 20
105.714961046116
 11
233.311758087452
 21
105.099299570791
  0
LINE
  5
588
100
AcDbEntity
  8
画層0
100
AcDbLine
  6
CONTINUOUS
370
13
 10
232.215916596183
 20
105.320955669313
 11
233.003927349789
 21
104.705294193987
  0
LINE
  5
589
100
AcDbEntity
  8
画層0
100
AcDbLine
  6
CONTINUOUS
370
13
 10
230.515915753266
 20
101.685436265535
 11
231.494063354
 21
101.477524574718
  0
LINE
  5
58A
100
AcDbEntity
  8
画層0
100
AcDbLine
  6
CONTINUOUS
370
13
 10
230.411959907857
 20
101.196362465169
 11
231.390107508591
 21
100.988450774351
  0
LINE
  5
58B
100
AcDbEntity
  8
画層0
100
AcDbLine
  6
CONTINUOUS
370
13
 10
230.490454194372
 20
97.1847360917547
 11
231.461087005112
 21
97.4267420319505
  0
LINE
  5
58C
100
AcDbEntity
  8
画層0
100
AcDbLine
  6
CONTINUOUS
370
13
 10
230.611415142171
 20
96.6995882286167
 11
231.582047952911
 21
96.9415941688125
  0
ARC
  5
58D
100
AcDbEntity
  8
画層0
100
AcDbCircle
  6
CONTINUOUS
370
13
 10
240.250859282962
 20
99.3606249920953
 40
9.99999999999995
100
AcDbArc
 50
-167.432543737569
 51
-164.567456262436
  0
ARC
  5
58E
100
AcDbEntity
  8
画層0
100
AcDbCircle
  6
CONTINUOUS
370
13
 10
240.250859282962
 20
99.3606249920953
 40
9.99999999999995
100
AcDbArc
 50
-141.432543737567
 51
-138.567456262434
  0
ARC
  5
58F
100
AcDbEntity
  8
画層0
100
AcDbCircle
  6
BYLAYER
370
13
 10
240.250859282962
 20
99.3606249920953
 40
9
100
AcDbArc
 50
117.591140271194
 51
140.522317100352
  0
ARC
  5
590
100
AcDbEntity
  8
画層0
100
AcDbCircle
  6
BYLAYER
370
13
 10
240.250859282962
 20
99.3606249920953
 40
9
100
AcDbArc
 50
143.468050647228
 51
166.409842841456
  0
ARC
  5
591
100
AcDbEntity
  8
画層0
100
AcDbCircle
  6
CONTINUOUS
370
13
 10
240.250859282962
 20
99.3606249920953
 40
9.99999999999995
100
AcDbArc
 50
166.567456262433
 51
169.432543737566
  0
ARC
  5
592
100
AcDbEntity
  8
画層0
100
AcDbCircle
  6
CONTINUOUS
370
13
 10
240.250859282962
 20
99.3606249920953
 40
9.99999999999995
100
AcDbArc
 50
140.567456262433
 51
143.432543737566
  0
ARC
  5
593
100
AcDbEntity
  8
画層0
100
AcDbCircle
  6
CONTINUOUS
370
13
 10
240.250859282962
 20
99.3606249920953
 40
9.99999999999995
100
AcDbArc
 50
114.567456262433
 51
117.432543737566
  0
LINE
  5
594
100
AcDbEntity
  8
画層0
100
AcDbLine
  6
CONTINUOUS
370
13
 10
246.792137594622
 20
93.9327637144466
 11
247.977051450198
 21
93.0070075504371
  0
LINE
  5
595
100
AcDbEntity
  8
画層0
100
AcDbLine
  6
CONTINUOUS
370
13
 10
247.494134757793
 20
94.0188125285488
 11
248.28488218786
 21
93.4010129272404
  0
LINE
  5
596
100
AcDbEntity
  8
画層0
100
AcDbLine
  6
CONTINUOUS
370
13
 10
249.102768611022
 20
97.7346787298243
 11
250.084313213004
 21
97.5260449841012
  0
LINE
  5
597
100
AcDbEntity
  8
画層0
100
AcDbLine
  6
CONTINUOUS
370
13
 10
248.998812765613
 20
97.2456049294574
 11
249.980357367595
 21
97.0369711837343
  0
LINE
  5
598
100
AcDbEntity
  8
画層0
100
AcDbLine
  6
CONTINUOUS
370
13
 10
248.919670613012
 20
101.779655815379
 11
249.893336071822
 21
102.022417879661
  0
LINE
  5
599
100
AcDbEntity
  8
画層0
100
AcDbLine
  6
CONTINUOUS
370
13
 10
249.040631560812
 20
101.294507952241
 11
250.014297019621
 21
101.537270016523
  0
LINE
  5
59A
100
AcDbEntity
  8
画層0
100
AcDbLine
  6
CONTINUOUS
370
13
 10
246.981901978781
 20
105.334992257929
 11
247.75060681173
 21
105.98001219974
  0
LINE
  5
59B
100
AcDbEntity
  8
画層0
100
AcDbLine
  6
CONTINUOUS
370
13
 10
247.303295783624
 20
104.951970036369
 11
248.072000616573
 21
105.596989978181
  0
ARC
  5
59C
100
AcDbEntity
  8
画層0
100
AcDbCircle
  6
CONTINUOUS
370
13
 10
240.250859282962
 20
99.3606249920953
 40
9.99999999999995
100
AcDbArc
 50
-39.4325437375662
 51
-36.5674562624334
  0
ARC
  5
59D
100
AcDbEntity
  8
画層0
100
AcDbCircle
  6
CONTINUOUS
370
13
 10
240.250859282962
 20
99.3606249920953
 40
9.99999999999995
100
AcDbArc
 50
-13.4325437375664
 51
-10.5674562624333
  0
ARC
  5
59E
100
AcDbEntity
  8
画層0
100
AcDbCircle
  6
CONTINUOUS
370
13
 10
240.250859282962
 20
99.3606249920953
 40
9.99999999999995
100
AcDbArc
 50
12.5674562624359
 51
15.4325437375688
  0
ARC
  5
59F
100
AcDbEntity
  8
画層0
100
AcDbCircle
  6
CONTINUOUS
370
13
 10
240.250859282962
 20
99.3606249920953
 40
9.99999999999995
100
AcDbArc
 50
38.5674562624336
 51
41.4325437375667
  0
ARC
  5
5A0
100
AcDbEntity
  8
画層0
100
AcDbCircle
  6
CONTINUOUS
370
13
 10
240.250859282962
 20
99.3606249920953
 40
9.99999999999995
100
AcDbArc
 50
62.5674562624336
 51
65.4325437375666
  0
ARC
  5
5A1
100
AcDbEntity
  8
画層0
100
AcDbCircle
  6
CONTINUOUS
370
13
 10
240.250859282962
 20
99.3606249920953
 40
9.99999999999995
100
AcDbArc
 50
88.5674562624335
 51
91.4325437375665
  0
LINE
  5
5A2
100
AcDbEntity
  8
画層0
100
AcDbLine
  6
CONTINUOUS
370
13
 10
191.532071282962
 20
98.3319049920953
 11
191.532071282962
 21
99.5270579920952
  0
LINE
  5
5A3
100
AcDbEntity
  8
画層0
100
AcDbLine
  6
CONTINUOUS
370
13
 10
188.982071282962
 20
99.5157289920953
 11
188.982071282962
 21
98.3319049920953
  0
LINE
  5
5A4
100
AcDbEntity
  8
画層0
100
AcDbLine
  6
CONTINUOUS
370
13
 10
190.257071282962
 20
103.979426992095
 11
194.257071282962
 21
101.670025992095
  0
LINE
  5
5A5
100
AcDbEntity
  8
画層0
100
AcDbLine
  6
CONTINUOUS
370
13
 10
194.257071282962
 20
101.670025992095
 11
194.257071282962
 21
99.3606249920953
  0
LINE
  5
5A6
100
AcDbEntity
  8
画層0
100
AcDbLine
  6
CONTINUOUS
370
13
 10
194.257071282962
 20
97.0512239920953
 11
190.257071282962
 21
94.7418219920953
  0
LINE
  5
5A7
100
AcDbEntity
  8
画層0
100
AcDbLine
  6
CONTINUOUS
370
13
 10
194.257071282962
 20
99.3606249920953
 11
194.257071282962
 21
97.0512239920953
  0
LINE
  5
5A8
100
AcDbEntity
  8
画層0
100
AcDbLine
  6
CONTINUOUS
370
13
 10
186.257071282962
 20
101.670025992095
 11
190.257071282962
 21
103.979426992095
  0
LINE
  5
5A9
100
AcDbEntity
  8
画層0
100
AcDbLine
  6
CONTINUOUS
370
13
 10
186.257071282962
 20
99.3606249920953
 11
186.257071282962
 21
101.670025992095
  0
LINE
  5
5AA
100
AcDbEntity
  8
画層0
100
AcDbLine
  6
CONTINUOUS
370
13
 10
190.257071282962
 20
94.7418219920953
 11
186.257071282962
 21
97.0512239920953
  0
LINE
  5
5AB
100
AcDbEntity
  8
画層0
100
AcDbLine
  6
CONTINUOUS
370
13
 10
186.257071282962
 20
97.0512239920953
 11
186.257071282962
 21
99.3606249920953
  0
LINE
  5
5AC
100
AcDbEntity
  8
画層0
100
AcDbLine
  6
CONTINUOUS
370
13
 10
190.657071282962
 20
96.3874109920953
 11
190.657071282962
 21
96.8606249920953
  0
LINE
  5
5AD
100
AcDbEntity
  8
画層0
100
AcDbLine
  6
CONTINUOUS
370
13
 10
189.857071282962
 20
96.8606249920953
 11
189.857071282962
 21
96.3874109920953
  0
LINE
  5
5AE
100
AcDbEntity
  8
画層0
100
AcDbLine
  6
CONTINUOUS
370
13
 10
189.857071282962
 20
96.8606249920953
 11
190.657071282962
 21
96.8606249920953
  0
LINE
  5
5AF
100
AcDbEntity
  8
画層0
100
AcDbLine
  6
CONTINUOUS
370
13
 10
188.548066282962
 20
102.893147992095
 11
191.966075282962
 21
102.893147992095
  0
LINE
  5
5B0
100
AcDbEntity
  8
画層0
100
AcDbLine
  6
CONTINUOUS
370
13
 10
188.548066282962
 20
100.452407992095
 11
191.966075282962
 21
100.452407992095
  0
LINE
  5
5B1
100
AcDbEntity
  8
画層0
100
AcDbLine
  6
CONTINUOUS
370
13
 10
191.291816282962
 20
99.2619899920953
 11
191.234775282962
 21
99.2619899920953
  0
LINE
  5
5B2
100
AcDbEntity
  8
画層0
100
AcDbLine
  6
CONTINUOUS
370
13
 10
189.279366282962
 20
99.2619899920953
 11
191.234775282962
 21
99.2619899920953
  0
LINE
  5
5B3
100
AcDbEntity
  8
画層0
100
AcDbLine
  6
CONTINUOUS
370
13
 10
191.291816282962
 20
99.2619899920953
 11
191.966075282962
 21
100.452407992095
  0
LINE
  5
5B4
100
AcDbEntity
  8
画層0
100
AcDbLine
  6
CONTINUOUS
370
13
 10
188.548066282962
 20
100.452407992095
 11
189.222326282962
 21
99.2619899920953
  0
LINE
  5
5B5
100
AcDbEntity
  8
画層0
100
AcDbLine
  6
CONTINUOUS
370
13
 10
192.162851282962
 20
100.790734992095
 11
191.880863282962
 21
100.181458992095
  0
LINE
  5
5B6
100
AcDbEntity
  8
画層0
100
AcDbLine
  6
CONTINUOUS
370
13
 10
188.351290282962
 20
100.790734992095
 11
188.633305282962
 21
100.181400992095
  0
LINE
  5
5B7
100
AcDbEntity
  8
画層0
100
AcDbLine
  6
CONTINUOUS
370
13
 10
189.279366282962
 20
99.2619899920953
 11
189.222326282962
 21
99.2619899920953
  0
LINE
  5
5B8
100
AcDbEntity
  8
画層0
100
AcDbLine
  6
CONTINUOUS
370
13
 10
191.234775282962
 20
99.2619899920953
 11
189.279366282962
 21
99.2619899920953
  0
LINE
  5
5B9
100
AcDbEntity
  8
画層0
100
AcDbLine
  6
CONTINUOUS
370
13
 10
191.801020282962
 20
100.008945992095
 11
191.709094282962
 21
99.8103269920952
  0
LINE
  5
5BA
100
AcDbEntity
  8
画層0
100
AcDbLine
  6
CONTINUOUS
370
13
 10
188.713121282962
 20
100.008945992095
 11
188.805047282962
 21
99.8103269920952
  0
LINE
  5
5BB
100
AcDbEntity
  8
画層0
100
AcDbLine
  6
CONTINUOUS
370
13
 10
191.880863282962
 20
100.181458992095
 11
191.801020282962
 21
100.008945992095
  0
LINE
  5
5BC
100
AcDbEntity
  8
画層0
100
AcDbLine
  6
CONTINUOUS
370
13
 10
188.633305282962
 20
100.181400992095
 11
188.713121282962
 21
100.008945992095
  0
ARC
  5
5BD
100
AcDbEntity
  8
画層0
100
AcDbCircle
  6
CONTINUOUS
370
13
 10
190.257071282962
 20
99.9866979920953
 40
1.217008
100
AcDbArc
 50
216.54711
 51
323.45289
  0
ARC
  5
5BE
100
AcDbEntity
  8
画層0
100
AcDbCircle
  6
CONTINUOUS
370
13
 10
190.250859282962
 20
99.9777149920953
 40
1.354468
100
AcDbArc
 50
207.139839
 51
270.261547
  0
ARC
  5
5BF
100
AcDbEntity
  8
画層0
100
AcDbCircle
  6
CONTINUOUS
370
13
 10
190.257071282962
 20
99.7733789920953
 40
1.561817
100
AcDbArc
 50
215.278233
 51
320.204702
  0
ARC
  5
5C0
100
AcDbEntity
  8
画層0
100
AcDbCircle
  6
CONTINUOUS
370
13
 10
190.250859282962
 20
99.9777149920953
 40
1.354468
100
AcDbArc
 50
207.139839
 51
270.261547
  0
ARC
  5
5C1
100
AcDbEntity
  8
画層0
100
AcDbCircle
  6
CONTINUOUS
370
13
 10
190.263282282962
 20
99.9777149920953
 40
1.354468
100
AcDbArc
 50
269.738453
 51
332.860161
  0
ARC
  5
5C2
100
AcDbEntity
  8
画層0
100
AcDbCircle
  6
CONTINUOUS
370
13
 10
190.257071282962
 20
99.7733789920953
 40
1.561817
100
AcDbArc
 50
320.204702
 51
324.721767
  0
ARC
  5
5C3
100
AcDbEntity
  8
画層0
100
AcDbCircle
  6
CONTINUOUS
370
13
 10
190.249625282962
 20
99.3929539920952
 40
1.661673
100
AcDbArc
 50
220.286752
 51
270.256744
  0
ARC
  5
5C4
100
AcDbEntity
  8
画層0
100
AcDbCircle
  6
CONTINUOUS
370
13
 10
190.253739282962
 20
99.3919899920953
 40
1.660696
100
AcDbArc
 50
270.114951
 51
320.332034
  0
ARC
  5
5C5
100
AcDbEntity
  8
画層0
100
AcDbCircle
  6
CONTINUOUS
370
13
 10
190.938170282962
 20
99.6568029920953
 40
0.607908
100
AcDbArc
 50
330.759671
 51
347.676573
  0
ARC
  5
5C6
100
AcDbEntity
  8
画層0
100
AcDbCircle
  6
CONTINUOUS
370
13
 10
189.466485282962
 20
99.6220739920953
 40
0.49595
100
AcDbArc
 50
192.381847
 51
211.91893
  0
ARC
  5
5C7
100
AcDbEntity
  8
画層0
100
AcDbCircle
  6
CONTINUOUS
370
13
 10
190.257071282962
 20
101.672777992095
 40
2.1
100
AcDbArc
 50
144.47004
 51
180
  0
ARC
  5
5C8
100
AcDbEntity
  8
画層0
100
AcDbCircle
  6
CONTINUOUS
370
13
 10
190.257071282962
 20
99.3606249920953
 40
2.1
100
AcDbArc
 50
147.35267
 51
33.402196
  0
ARC
  5
5C9
100
AcDbEntity
  8
画層0
100
AcDbCircle
  6
CONTINUOUS
370
13
 10
190.257071282962
 20
99.3606249920953
 40
2.6
100
AcDbArc
 50
278.849883
 51
39.799305
  0
ARC
  5
5CA
100
AcDbEntity
  8
画層0
100
AcDbCircle
  6
CONTINUOUS
370
13
 10
190.257071282962
 20
99.3606249920953
 40
3
100
AcDbArc
 50
0
 51
45.743215
  0
ARC
  5
5CB
100
AcDbEntity
  8
画層0
100
AcDbCircle
  6
CONTINUOUS
370
13
 10
190.257071282962
 20
99.3606249920953
 40
3
100
AcDbArc
 50
277.662256
 51
0
  0
ARC
  5
5CC
100
AcDbEntity
  8
画層0
100
AcDbCircle
  6
CONTINUOUS
370
13
 10
190.257071282962
 20
99.3606249920953
 40
3
100
AcDbArc
 50
134.256785
 51
180
  0
ARC
  5
5CD
100
AcDbEntity
  8
画層0
100
AcDbCircle
  6
CONTINUOUS
370
13
 10
190.257071282962
 20
99.3606249920953
 40
3
100
AcDbArc
 50
262.337744
 51
277.662256
  0
ARC
  5
5CE
100
AcDbEntity
  8
画層0
100
AcDbCircle
  6
CONTINUOUS
370
13
 10
190.257071282962
 20
99.3606249920953
 40
2.6
100
AcDbArc
 50
140.200695
 51
261.150117
  0
ARC
  5
5CF
100
AcDbEntity
  8
画層0
100
AcDbCircle
  6
CONTINUOUS
370
13
 10
190.257071282962
 20
101.672777992095
 40
2.1
100
AcDbArc
 50
0
 51
35.52996
  0
ARC
  5
5D0
100
AcDbEntity
  8
画層0
100
AcDbCircle
  6
CONTINUOUS
370
13
 10
190.257071282962
 20
101.672777992095
 40
2.1
100
AcDbArc
 50
324.47004
 51
0
  0
ARC
  5
5D1
100
AcDbEntity
  8
画層0
100
AcDbCircle
  6
CONTINUOUS
370
13
 10
190.257071282962
 20
101.672777992095
 40
2.1
100
AcDbArc
 50
180
 51
215.52996
  0
ARC
  5
5D2
100
AcDbEntity
  8
画層0
100
AcDbCircle
  6
CONTINUOUS
370
13
 10
190.257071282962
 20
100.482359992095
 40
1.6
100
AcDbArc
 50
310.294425
 51
337.283471
  0
ARC
  5
5D3
100
AcDbEntity
  8
画層0
100
AcDbCircle
  6
CONTINUOUS
370
13
 10
190.257071282962
 20
100.482359992095
 40
1.6
100
AcDbArc
 50
204.835886
 51
229.705575
  0
ARC
  5
5D4
100
AcDbEntity
  8
画層0
100
AcDbCircle
  6
CONTINUOUS
370
13
 10
190.257071282962
 20
99.3606249920953
 40
2.7
100
AcDbArc
 50
261.480376
 51
278.519624
  0
ARC
  5
5D5
100
AcDbEntity
  8
画層0
100
AcDbCircle
  6
CONTINUOUS
370
13
 10
190.257071282962
 20
99.3606249920953
 40
3
100
AcDbArc
 50
180
 51
262.337744
  0
CIRCLE
  5
5D6
100
AcDbEntity
  8
画層0
100
AcDbCircle
  6
CONTINUOUS
370
13
 10
190.257071282962
 20
99.3606249920953
 40
4
  0
LINE
  5
5D7
100
AcDbEntity
  8
画層0
100
AcDbLine
  6
CONTINUOUS
370
13
 10
211.525859282962
 20
98.3319049920953
 11
211.525859282962
 21
99.5270579920952
  0
LINE
  5
5D8
100
AcDbEntity
  8
画層0
100
AcDbLine
  6
CONTINUOUS
370
13
 10
208.975859282962
 20
99.5157289920953
 11
208.975859282962
 21
98.3319049920953
  0
LINE
  5
5D9
100
AcDbEntity
  8
画層0
100
AcDbLine
  6
CONTINUOUS
370
13
 10
210.250859282962
 20
103.979426992095
 11
214.250859282962
 21
101.670025992095
  0
LINE
  5
5DA
100
AcDbEntity
  8
画層0
100
AcDbLine
  6
CONTINUOUS
370
13
 10
214.250859282962
 20
101.670025992095
 11
214.250859282962
 21
99.3606249920953
  0
LINE
  5
5DB
100
AcDbEntity
  8
画層0
100
AcDbLine
  6
CONTINUOUS
370
13
 10
214.250859282962
 20
97.0512239920953
 11
210.250859282962
 21
94.7418219920953
  0
LINE
  5
5DC
100
AcDbEntity
  8
画層0
100
AcDbLine
  6
CONTINUOUS
370
13
 10
214.250859282962
 20
99.3606249920953
 11
214.250859282962
 21
97.0512239920953
  0
LINE
  5
5DD
100
AcDbEntity
  8
画層0
100
AcDbLine
  6
CONTINUOUS
370
13
 10
206.250859282962
 20
101.670025992095
 11
210.250859282962
 21
103.979426992095
  0
LINE
  5
5DE
100
AcDbEntity
  8
画層0
100
AcDbLine
  6
CONTINUOUS
370
13
 10
206.250859282962
 20
99.3606249920953
 11
206.250859282962
 21
101.670025992095
  0
LINE
  5
5DF
100
AcDbEntity
  8
画層0
100
AcDbLine
  6
CONTINUOUS
370
13
 10
210.250859282962
 20
94.7418219920953
 11
206.250859282962
 21
97.0512239920953
  0
LINE
  5
5E0
100
AcDbEntity
  8
画層0
100
AcDbLine
  6
CONTINUOUS
370
13
 10
206.250859282962
 20
97.0512239920953
 11
206.250859282962
 21
99.3606249920953
  0
LINE
  5
5E1
100
AcDbEntity
  8
画層0
100
AcDbLine
  6
CONTINUOUS
370
13
 10
210.650859282962
 20
96.3874109920953
 11
210.650859282962
 21
96.8606249920953
  0
LINE
  5
5E2
100
AcDbEntity
  8
画層0
100
AcDbLine
  6
CONTINUOUS
370
13
 10
209.850859282962
 20
96.8606249920953
 11
209.850859282962
 21
96.3874109920953
  0
LINE
  5
5E3
100
AcDbEntity
  8
画層0
100
AcDbLine
  6
CONTINUOUS
370
13
 10
209.850859282962
 20
96.8606249920953
 11
210.650859282962
 21
96.8606249920953
  0
LINE
  5
5E4
100
AcDbEntity
  8
画層0
100
AcDbLine
  6
CONTINUOUS
370
13
 10
208.541854282962
 20
102.893147992095
 11
211.959863282962
 21
102.893147992095
  0
LINE
  5
5E5
100
AcDbEntity
  8
画層0
100
AcDbLine
  6
CONTINUOUS
370
13
 10
208.541854282962
 20
100.452407992095
 11
211.959863282962
 21
100.452407992095
  0
LINE
  5
5E6
100
AcDbEntity
  8
画層0
100
AcDbLine
  6
CONTINUOUS
370
13
 10
211.285604282962
 20
99.2619899920953
 11
211.228563282962
 21
99.2619899920953
  0
LINE
  5
5E7
100
AcDbEntity
  8
画層0
100
AcDbLine
  6
CONTINUOUS
370
13
 10
209.273154282962
 20
99.2619899920953
 11
211.228563282962
 21
99.2619899920953
  0
LINE
  5
5E8
100
AcDbEntity
  8
画層0
100
AcDbLine
  6
CONTINUOUS
370
13
 10
211.285604282962
 20
99.2619899920953
 11
211.959863282962
 21
100.452407992095
  0
LINE
  5
5E9
100
AcDbEntity
  8
画層0
100
AcDbLine
  6
CONTINUOUS
370
13
 10
208.541854282962
 20
100.452407992095
 11
209.216114282962
 21
99.2619899920953
  0
LINE
  5
5EA
100
AcDbEntity
  8
画層0
100
AcDbLine
  6
CONTINUOUS
370
13
 10
212.156639282962
 20
100.790734992095
 11
211.874651282962
 21
100.181458992095
  0
LINE
  5
5EB
100
AcDbEntity
  8
画層0
100
AcDbLine
  6
CONTINUOUS
370
13
 10
208.345078282962
 20
100.790734992095
 11
208.627093282962
 21
100.181400992095
  0
LINE
  5
5EC
100
AcDbEntity
  8
画層0
100
AcDbLine
  6
CONTINUOUS
370
13
 10
209.273154282962
 20
99.2619899920953
 11
209.216114282962
 21
99.2619899920953
  0
LINE
  5
5ED
100
AcDbEntity
  8
画層0
100
AcDbLine
  6
CONTINUOUS
370
13
 10
211.228563282962
 20
99.2619899920953
 11
209.273154282962
 21
99.2619899920953
  0
LINE
  5
5EE
100
AcDbEntity
  8
画層0
100
AcDbLine
  6
CONTINUOUS
370
13
 10
211.794808282962
 20
100.008945992095
 11
211.702882282962
 21
99.8103269920952
  0
LINE
  5
5EF
100
AcDbEntity
  8
画層0
100
AcDbLine
  6
CONTINUOUS
370
13
 10
208.706909282962
 20
100.008945992095
 11
208.798835282962
 21
99.8103269920952
  0
LINE
  5
5F0
100
AcDbEntity
  8
画層0
100
AcDbLine
  6
CONTINUOUS
370
13
 10
211.874651282962
 20
100.181458992095
 11
211.794808282962
 21
100.008945992095
  0
LINE
  5
5F1
100
AcDbEntity
  8
画層0
100
AcDbLine
  6
CONTINUOUS
370
13
 10
208.627093282962
 20
100.181400992095
 11
208.706909282962
 21
100.008945992095
  0
ARC
  5
5F2
100
AcDbEntity
  8
画層0
100
AcDbCircle
  6
CONTINUOUS
370
13
 10
210.250859282962
 20
99.9866979920953
 40
1.217008
100
AcDbArc
 50
216.54711
 51
323.45289
  0
ARC
  5
5F3
100
AcDbEntity
  8
画層0
100
AcDbCircle
  6
CONTINUOUS
370
13
 10
210.244647282962
 20
99.9777149920953
 40
1.354468
100
AcDbArc
 50
207.139839
 51
270.261547
  0
ARC
  5
5F4
100
AcDbEntity
  8
画層0
100
AcDbCircle
  6
CONTINUOUS
370
13
 10
210.250859282962
 20
99.7733789920953
 40
1.561817
100
AcDbArc
 50
215.278233
 51
320.204702
  0
ARC
  5
5F5
100
AcDbEntity
  8
画層0
100
AcDbCircle
  6
CONTINUOUS
370
13
 10
210.244647282962
 20
99.9777149920953
 40
1.354468
100
AcDbArc
 50
207.139839
 51
270.261547
  0
ARC
  5
5F6
100
AcDbEntity
  8
画層0
100
AcDbCircle
  6
CONTINUOUS
370
13
 10
210.257070282962
 20
99.9777149920953
 40
1.354468
100
AcDbArc
 50
269.738453
 51
332.860161
  0
ARC
  5
5F7
100
AcDbEntity
  8
画層0
100
AcDbCircle
  6
CONTINUOUS
370
13
 10
210.250859282962
 20
99.7733789920953
 40
1.561817
100
AcDbArc
 50
320.204702
 51
324.721767
  0
ARC
  5
5F8
100
AcDbEntity
  8
画層0
100
AcDbCircle
  6
CONTINUOUS
370
13
 10
210.243413282962
 20
99.3929539920952
 40
1.661673
100
AcDbArc
 50
220.286752
 51
270.256744
  0
ARC
  5
5F9
100
AcDbEntity
  8
画層0
100
AcDbCircle
  6
CONTINUOUS
370
13
 10
210.247527282962
 20
99.3919899920953
 40
1.660696
100
AcDbArc
 50
270.114951
 51
320.332034
  0
ARC
  5
5FA
100
AcDbEntity
  8
画層0
100
AcDbCircle
  6
CONTINUOUS
370
13
 10
210.931958282962
 20
99.6568029920953
 40
0.607908
100
AcDbArc
 50
330.759671
 51
347.676573
  0
ARC
  5
5FB
100
AcDbEntity
  8
画層0
100
AcDbCircle
  6
CONTINUOUS
370
13
 10
209.460273282962
 20
99.6220739920953
 40
0.49595
100
AcDbArc
 50
192.381847
 51
211.91893
  0
ARC
  5
5FC
100
AcDbEntity
  8
画層0
100
AcDbCircle
  6
CONTINUOUS
370
13
 10
210.250859282962
 20
101.672777992095
 40
2.1
100
AcDbArc
 50
144.47004
 51
180
  0
ARC
  5
5FD
100
AcDbEntity
  8
画層0
100
AcDbCircle
  6
CONTINUOUS
370
13
 10
210.250859282962
 20
99.3606249920953
 40
2.1
100
AcDbArc
 50
147.35267
 51
33.402196
  0
ARC
  5
5FE
100
AcDbEntity
  8
画層0
100
AcDbCircle
  6
CONTINUOUS
370
13
 10
210.250859282962
 20
99.3606249920953
 40
2.6
100
AcDbArc
 50
278.849883
 51
39.799305
  0
ARC
  5
5FF
100
AcDbEntity
  8
画層0
100
AcDbCircle
  6
CONTINUOUS
370
13
 10
210.250859282962
 20
99.3606249920953
 40
3
100
AcDbArc
 50
0
 51
45.743215
  0
ARC
  5
600
100
AcDbEntity
  8
画層0
100
AcDbCircle
  6
CONTINUOUS
370
13
 10
210.250859282962
 20
99.3606249920953
 40
3
100
AcDbArc
 50
277.662256
 51
0
  0
ARC
  5
601
100
AcDbEntity
  8
画層0
100
AcDbCircle
  6
CONTINUOUS
370
13
 10
210.250859282962
 20
99.3606249920953
 40
3
100
AcDbArc
 50
134.256785
 51
180
  0
ARC
  5
602
100
AcDbEntity
  8
画層0
100
AcDbCircle
  6
CONTINUOUS
370
13
 10
210.250859282962
 20
99.3606249920953
 40
3
100
AcDbArc
 50
262.337744
 51
277.662256
  0
ARC
  5
603
100
AcDbEntity
  8
画層0
100
AcDbCircle
  6
CONTINUOUS
370
13
 10
210.250859282962
 20
99.3606249920953
 40
2.6
100
AcDbArc
 50
140.200695
 51
261.150117
  0
ARC
  5
604
100
AcDbEntity
  8
画層0
100
AcDbCircle
  6
CONTINUOUS
370
13
 10
210.250859282962
 20
101.672777992095
 40
2.1
100
AcDbArc
 50
0
 51
35.52996
  0
ARC
  5
605
100
AcDbEntity
  8
画層0
100
AcDbCircle
  6
CONTINUOUS
370
13
 10
210.250859282962
 20
101.672777992095
 40
2.1
100
AcDbArc
 50
324.47004
 51
0
  0
ARC
  5
606
100
AcDbEntity
  8
画層0
100
AcDbCircle
  6
CONTINUOUS
370
13
 10
210.250859282962
 20
101.672777992095
 40
2.1
100
AcDbArc
 50
180
 51
215.52996
  0
ARC
  5
607
100
AcDbEntity
  8
画層0
100
AcDbCircle
  6
CONTINUOUS
370
13
 10
210.250859282962
 20
100.482359992095
 40
1.6
100
AcDbArc
 50
310.294425
 51
337.283471
  0
ARC
  5
608
100
AcDbEntity
  8
画層0
100
AcDbCircle
  6
CONTINUOUS
370
13
 10
210.250859282962
 20
100.482359992095
 40
1.6
100
AcDbArc
 50
204.835886
 51
229.705575
  0
ARC
  5
609
100
AcDbEntity
  8
画層0
100
AcDbCircle
  6
CONTINUOUS
370
13
 10
210.250859282962
 20
99.3606249920953
 40
2.7
100
AcDbArc
 50
261.480376
 51
278.519624
  0
ARC
  5
60A
100
AcDbEntity
  8
画層0
100
AcDbCircle
  6
CONTINUOUS
370
13
 10
210.250859282962
 20
99.3606249920953
 40
3
100
AcDbArc
 50
180
 51
262.337744
  0
CIRCLE
  5
60B
100
AcDbEntity
  8
画層0
100
AcDbCircle
  6
CONTINUOUS
370
13
 10
210.250859282962
 20
99.3606249920953
 40
4
  0
LINE
  5
60C
100
AcDbEntity
  8
画層0
100
AcDbLine
  6
CONTINUOUS
 62
250
370
13
 10
190.250859282962
 20
132.329304040726
 11
190.250859282962
 21
116.328998840726
  0
LINE
  5
60D
100
AcDbEntity
  8
画層0
100
AcDbLine
  6
CONTINUOUS
 62
250
370
13
 10
182.651005782962
 20
116.328876790726
 11
197.850468682962
 21
116.328876790726
  0
LINE
  5
60E
100
AcDbEntity
  8
画層0
100
AcDbLine
  6
CONTINUOUS
 62
250
370
13
 10
197.850712782962
 20
116.329120890726
 11
197.850712782962
 21
132.329426090726
  0
LINE
  5
60F
100
AcDbEntity
  8
画層0
100
AcDbLine
  6
CONTINUOUS
 62
250
370
13
 10
197.850468682962
 20
132.329426090726
 11
182.651005782962
 21
132.329426090726
  0
LINE
  5
610
100
AcDbEntity
  8
画層0
100
AcDbLine
  6
CONTINUOUS
 62
250
370
13
 10
182.651005782962
 20
132.329426090726
 11
182.651005782962
 21
116.329120890726
  0
LINE
  5
611
100
AcDbEntity
  8
画層0
100
AcDbLine
  6
CONTINUOUS
 62
250
370
13
 10
185.170536982962
 20
132.329426090726
 11
185.170536982962
 21
116.329120890726
  0
LINE
  5
612
100
AcDbEntity
  8
画層0
100
AcDbLine
  6
CONTINUOUS
 62
250
370
13
 10
189.200810482962
 20
126.828998790726
 11
189.200810482962
 21
121.828998790726
  0
LINE
  5
613
100
AcDbEntity
  8
画層0
100
AcDbLine
  6
CONTINUOUS
 62
250
370
13
 10
186.210576082962
 20
126.828998790726
 11
186.210576082962
 21
121.828998790726
  0
LINE
  5
614
100
AcDbEntity
  8
画層0
100
AcDbLine
  6
CONTINUOUS
 62
250
370
13
 10
186.210576082962
 20
121.828998790726
 11
189.200566282962
 21
121.828998790726
  0
LINE
  5
615
100
AcDbEntity
  8
画層0
100
AcDbLine
  6
CONTINUOUS
 62
250
370
13
 10
186.210576082962
 20
126.828998790726
 11
189.200566282962
 21
126.828998790726
  0
LINE
  5
616
100
AcDbEntity
  8
画層0
100
AcDbLine
  6
CONTINUOUS
 62
250
370
13
 10
195.330449082962
 20
132.329426090726
 11
195.330449082962
 21
116.329120890726
  0
LINE
  5
617
100
AcDbEntity
  8
画層0
100
AcDbLine
  6
CONTINUOUS
 62
250
370
13
 10
191.300419782962
 20
126.828998790726
 11
191.300419782962
 21
121.828998790726
  0
LINE
  5
618
100
AcDbEntity
  8
画層0
100
AcDbLine
  6
CONTINUOUS
 62
250
370
13
 10
194.290410082962
 20
126.828998790726
 11
194.290410082962
 21
121.828998790726
  0
LINE
  5
619
100
AcDbEntity
  8
画層0
100
AcDbLine
  6
CONTINUOUS
 62
250
370
13
 10
194.290410082962
 20
121.828998790726
 11
191.300175682962
 21
121.828998790726
  0
LINE
  5
61A
100
AcDbEntity
  8
画層0
100
AcDbLine
  6
CONTINUOUS
 62
250
370
13
 10
194.290410082962
 20
126.828998790726
 11
191.300175682962
 21
126.828998790726
  0
CIRCLE
  5
61B
100
AcDbEntity
  8
画層0
100
AcDbCircle
  6
CONTINUOUS
 62
250
370
13
 10
190.250859282962
 20
124.329151420416
 40
0.5
  0
LINE
  5
61C
100
AcDbEntity
  8
画層0
100
AcDbLine
  6
CONTINUOUS
 62
250
370
13
 10
190.250615142332
 20
132.329426111036
 11
190.250615142332
 21
116.329120911036
  0
LINE
  5
61D
100
AcDbEntity
  8
画層0
100
AcDbLine
  6
CONTINUOUS
 62
250
370
13
 10
182.650761642332
 20
116.328998861036
 11
197.850224542332
 21
116.328998861036
  0
LINE
  5
61E
100
AcDbEntity
  8
画層0
100
AcDbLine
  6
CONTINUOUS
 62
250
370
13
 10
197.850468642332
 20
116.329242961036
 11
197.850468642332
 21
132.329548161036
  0
LINE
  5
61F
100
AcDbEntity
  8
画層0
100
AcDbLine
  6
CONTINUOUS
 62
250
370
13
 10
197.850224542332
 20
132.329548161036
 11
182.650761642332
 21
132.329548161036
  0
LINE
  5
620
100
AcDbEntity
  8
画層0
100
AcDbLine
  6
CONTINUOUS
 62
250
370
13
 10
182.650761642332
 20
132.329548161036
 11
182.650761642332
 21
116.329242961036
  0
LINE
  5
621
100
AcDbEntity
  8
画層0
100
AcDbLine
  6
CONTINUOUS
 62
250
370
13
 10
185.170292842332
 20
132.329548161036
 11
185.170292842332
 21
116.329242961036
  0
LINE
  5
622
100
AcDbEntity
  8
画層0
100
AcDbLine
  6
CONTINUOUS
 62
250
370
13
 10
189.200566342332
 20
126.829120861036
 11
189.200566342332
 21
121.829120861036
  0
LINE
  5
623
100
AcDbEntity
  8
画層0
100
AcDbLine
  6
CONTINUOUS
 62
250
370
13
 10
186.210331942332
 20
126.829120861036
 11
186.210331942332
 21
121.829120861036
  0
LINE
  5
624
100
AcDbEntity
  8
画層0
100
AcDbLine
  6
CONTINUOUS
 62
250
370
13
 10
186.210331942332
 20
121.829120861036
 11
189.200322142332
 21
121.829120861036
  0
LINE
  5
625
100
AcDbEntity
  8
画層0
100
AcDbLine
  6
CONTINUOUS
 62
250
370
13
 10
186.210331942332
 20
126.829120861036
 11
189.200322142332
 21
126.829120861036
  0
LINE
  5
626
100
AcDbEntity
  8
画層0
100
AcDbLine
  6
CONTINUOUS
 62
250
370
13
 10
195.330204942332
 20
132.329548161036
 11
195.330204942332
 21
116.329242961036
  0
LINE
  5
627
100
AcDbEntity
  8
画層0
100
AcDbLine
  6
CONTINUOUS
 62
250
370
13
 10
191.300175642332
 20
126.829120861036
 11
191.300175642332
 21
121.829120861036
  0
LINE
  5
628
100
AcDbEntity
  8
画層0
100
AcDbLine
  6
CONTINUOUS
 62
250
370
13
 10
194.290165942332
 20
126.829120861036
 11
194.290165942332
 21
121.829120861036
  0
LINE
  5
629
100
AcDbEntity
  8
画層0
100
AcDbLine
  6
CONTINUOUS
 62
250
370
13
 10
194.290165942332
 20
121.829120861036
 11
191.299931542332
 21
121.829120861036
  0
LINE
  5
62A
100
AcDbEntity
  8
画層0
100
AcDbLine
  6
CONTINUOUS
 62
250
370
13
 10
194.290165942332
 20
126.829120861036
 11
191.299931542332
 21
126.829120861036
  0
CIRCLE
  5
62B
100
AcDbEntity
  8
画層0
100
AcDbCircle
  6
CONTINUOUS
 62
250
370
13
 10
190.250615142332
 20
124.329273490726
 40
0.5
  0
CIRCLE
  5
62C
100
AcDbEntity
  8
画層0
100
AcDbCircle
  6
CONTINUOUS
370
13
 10
240.250859282962
 20
99.3606249920953
 40
6
  0
LINE
  5
62D
100
AcDbEntity
  8
画層0
100
AcDbLine
  6
HIDDEN
370
13
 10
242.150859282962
 20
74.3606249920954
 11
242.709876282962
 21
74.3606249920954
  0
LINE
  5
62E
100
AcDbEntity
  8
画層0
100
AcDbLine
  6
HIDDEN
370
13
 10
242.709876282962
 20
74.3606249920954
 11
243.059876282962
 21
73.6606249920954
  0
LINE
  5
62F
100
AcDbEntity
  8
画層0
100
AcDbLine
  6
HIDDEN
370
13
 10
243.059876282962
 20
73.6606249920954
 11
244.250859282962
 21
73.6606249920954
  0
LINE
  5
630
100
AcDbEntity
  8
画層0
100
AcDbLine
  6
HIDDEN
370
13
 10
243.000859282962
 20
79.8606249920954
 11
243.250859282962
 21
79.0606249920954
  0
LINE
  5
631
100
AcDbEntity
  8
画層0
100
AcDbLine
  6
HIDDEN
370
13
 10
243.250859282962
 20
79.0606249920954
 11
244.250859282962
 21
79.0606249920954
  0
LINE
  5
632
100
AcDbEntity
  8
画層0
100
AcDbLine
  6
HIDDEN
370
13
 10
247.500859282962
 20
79.8606249920954
 11
246.250859282962
 21
79.8606249920954
  0
LINE
  5
633
100
AcDbEntity
  8
画層0
100
AcDbLine
  6
CONTINUOUS
370
13
 10
242.750859282962
 20
73.1606249920954
 11
247.750859282962
 21
73.1606249920954
  0
LINE
  5
634
100
AcDbEntity
  8
画層0
100
AcDbLine
  6
HIDDEN
370
13
 10
243.750859282962
 20
79.8606249920954
 11
243.750859282962
 21
81.8606249920954
  0
LINE
  5
635
100
AcDbEntity
  8
画層0
100
AcDbLine
  6
CONTINUOUS
370
13
 10
247.750859282962
 20
73.1606249920954
 11
247.850859282962
 21
73.3606249920954
  0
LINE
  5
636
100
AcDbEntity
  8
画層0
100
AcDbLine
  6
HIDDEN
370
13
 10
242.150859282962
 20
74.3606249920954
 11
242.650859282962
 21
73.3606249920954
  0
LINE
  5
637
100
AcDbEntity
  8
画層0
100
AcDbLine
  6
HIDDEN
370
13
 10
243.700859282962
 20
79.9606249920954
 11
241.850859282962
 21
79.9606249920954
  0
LINE
  5
638
100
AcDbEntity
  8
画層0
100
AcDbLine
  6
HIDDEN
370
13
 10
247.250859282962
 20
79.0606249920954
 11
247.500859282962
 21
79.8606249920954
  0
LINE
  5
639
100
AcDbEntity
  8
画層0
100
AcDbLine
  6
HIDDEN
370
13
 10
243.700859282962
 20
81.8606249920954
 11
243.700859282962
 21
79.9606249920954
  0
LINE
  5
63A
100
AcDbEntity
  8
画層0
100
AcDbLine
  6
HIDDEN
370
13
 10
246.800859282962
 20
81.8606249920954
 11
246.800859282962
 21
79.9606249920954
  0
LINE
  5
63B
100
AcDbEntity
  8
画層0
100
AcDbLine
  6
HIDDEN
370
13
 10
248.650859282962
 20
76.3606249920954
 11
248.650859282962
 21
79.9606249920954
  0
LINE
  5
63C
100
AcDbEntity
  8
画層0
100
AcDbLine
  6
HIDDEN
370
13
 10
248.650859282962
 20
79.9606249920954
 11
246.800859282962
 21
79.9606249920954
  0
LINE
  5
63D
100
AcDbEntity
  8
画層0
100
AcDbLine
  6
HIDDEN
370
13
 10
241.850859282962
 20
79.9606249920954
 11
241.850859282962
 21
76.3606249920954
  0
LINE
  5
63E
100
AcDbEntity
  8
画層0
100
AcDbLine
  6
CONTINUOUS
370
13
 10
243.850859282962
 20
85.3606249920954
 11
245.000859282962
 21
85.3606249920954
  0
LINE
  5
63F
100
AcDbEntity
  8
画層0
100
AcDbLine
  6
HIDDEN
370
13
 10
247.850859282962
 20
73.3606249920954
 11
248.350859282962
 21
74.3606249920954
  0
LINE
  5
640
100
AcDbEntity
  8
画層0
100
AcDbLine
  6
HIDDEN
370
13
 10
246.250859282962
 20
79.0606249920954
 11
247.250859282962
 21
79.0606249920954
  0
LINE
  5
641
100
AcDbEntity
  8
画層0
100
AcDbLine
  6
HIDDEN
370
13
 10
244.250859282962
 20
79.8606249920954
 11
243.000859282962
 21
79.8606249920954
  0
LINE
  5
642
100
AcDbEntity
  8
画層0
100
AcDbLine
  6
HIDDEN
370
13
 10
246.250859282962
 20
73.6606249920954
 11
247.441842282962
 21
73.6606249920954
  0
LINE
  5
643
100
AcDbEntity
  8
画層0
100
AcDbLine
  6
CONTINUOUS
370
13
 10
235.250859282962
 20
73.3606249920954
 11
255.250859282962
 21
73.3606249920954
  0
ARC
  5
644
100
AcDbEntity
  8
画層0
100
AcDbCircle
  6
CONTINUOUS
370
13
 10
244.350859282962
 20
83.2606249920954
 40
0.1
100
AcDbArc
 50
90
 51
180
  0
ARC
  5
645
100
AcDbEntity
  8
画層0
100
AcDbCircle
  6
CONTINUOUS
370
13
 10
246.150859282962
 20
83.2606249920954
 40
0.1
100
AcDbArc
 50
0
 51
90
  0
LINE
  5
646
100
AcDbEntity
  8
画層0
100
AcDbLine
  6
CONTINUOUS
370
13
 10
245.500859282962
 20
85.3606249920954
 11
245.500859282962
 21
83.9606249920954
  0
LINE
  5
647
100
AcDbEntity
  8
画層0
100
AcDbLine
  6
CONTINUOUS
370
13
 10
245.500859282962
 20
85.3606249920954
 11
246.650859282962
 21
85.3606249920954
  0
LINE
  5
648
100
AcDbEntity
  8
画層0
100
AcDbLine
  6
CONTINUOUS
370
13
 10
243.750859282962
 20
81.8606249920954
 11
243.750859282962
 21
85.2606249920954
  0
LINE
  5
649
100
AcDbEntity
  8
画層0
100
AcDbLine
  6
CONTINUOUS
370
13
 10
245.000859282962
 20
83.9606249920954
 11
244.250859282962
 21
83.9606249920954
  0
LINE
  5
64A
100
AcDbEntity
  8
画層0
100
AcDbLine
  6
HIDDEN
370
13
 10
246.250859282962
 20
81.8606249920954
 11
246.250859282962
 21
76.6606249920954
  0
LINE
  5
64B
100
AcDbEntity
  8
画層0
100
AcDbLine
  6
CONTINUOUS
370
13
 10
244.350859282962
 20
83.3606249920954
 11
246.150859282962
 21
83.3606249920954
  0
LINE
  5
64C
100
AcDbEntity
  8
画層0
100
AcDbLine
  6
CONTINUOUS
370
13
 10
245.000859282962
 20
85.3606249920954
 11
245.000859282962
 21
83.9606249920954
  0
LINE
  5
64D
100
AcDbEntity
  8
画層0
100
AcDbLine
  6
CONTINUOUS
370
13
 10
244.250859282962
 20
81.8606249920954
 11
244.250859282962
 21
83.9606249920954
  0
LINE
  5
64E
100
AcDbEntity
  8
画層0
100
AcDbLine
  6
HIDDEN
370
13
 10
246.750859282962
 20
81.8606249920954
 11
246.750859282962
 21
79.8606249920954
  0
LINE
  5
64F
100
AcDbEntity
  8
画層0
100
AcDbLine
  6
CONTINUOUS
370
13
 10
245.500859282962
 20
83.9606249920954
 11
246.250859282962
 21
83.9606249920954
  0
LINE
  5
650
100
AcDbEntity
  8
画層0
100
AcDbLine
  6
CONTINUOUS
370
13
 10
242.650859282962
 20
73.3606249920954
 11
242.750859282962
 21
73.1606249920954
  0
LINE
  5
651
100
AcDbEntity
  8
画層0
100
AcDbLine
  6
HIDDEN
370
13
 10
247.791842282962
 20
74.3606249920954
 11
248.350859282962
 21
74.3606249920954
  0
LINE
  5
652
100
AcDbEntity
  8
画層0
100
AcDbLine
  6
HIDDEN
370
13
 10
247.441842282962
 20
73.6606249920954
 11
247.791842282962
 21
74.3606249920954
  0
LINE
  5
653
100
AcDbEntity
  8
画層0
100
AcDbLine
  6
HIDDEN
370
13
 10
247.439399282962
 20
73.6606249920954
 11
247.441842282962
 21
73.6606249920954
  0
LINE
  5
654
100
AcDbEntity
  8
画層0
100
AcDbLine
  6
CONTINUOUS
370
13
 10
246.250859282962
 20
83.9606249920954
 11
246.250859282962
 21
81.8606249920954
  0
LINE
  5
655
100
AcDbEntity
  8
画層0
100
AcDbLine
  6
HIDDEN
370
13
 10
244.250859282962
 20
76.6606249920954
 11
244.250859282962
 21
81.8606249920954
  0
ARC
  5
656
100
AcDbEntity
  8
画層0
100
AcDbCircle
  6
CONTINUOUS
370
13
 10
246.650859282962
 20
85.2606249920954
 40
0.1
100
AcDbArc
 50
0
 51
90
  0
ARC
  5
657
100
AcDbEntity
  8
画層0
100
AcDbCircle
  6
CONTINUOUS
370
13
 10
243.850859282962
 20
85.2606249920954
 40
0.1
100
AcDbArc
 50
90
 51
180
  0
LINE
  5
658
100
AcDbEntity
  8
画層0
100
AcDbLine
  6
CONTINUOUS
370
13
 10
246.750859282962
 20
85.2606249920954
 11
246.750859282962
 21
81.8606249920954
  0
LINE
  5
659
100
AcDbEntity
  8
画層0
100
AcDbLine
  6
CONTINUOUS
370
13
 10
234.921447518256
 20
81.3606249920954
 11
235.250859282962
 21
73.3606249920954
  0
LINE
  5
65A
100
AcDbEntity
  8
画層0
100
AcDbLine
  6
CONTINUOUS
370
13
 10
255.580271047668
 20
81.3606249920954
 11
255.250859282962
 21
73.3606249920954
  0
LINE
  5
65B
100
AcDbEntity
  8
画層0
100
AcDbLine
  6
CONTINUOUS
370
13
 10
255.600859282962
 20
81.3606249920954
 11
234.900859282962
 21
81.3606249920954
  0
LINE
  5
65C
100
AcDbEntity
  8
画層0
100
AcDbLine
  6
HIDDEN
370
13
 10
164.150859282962
 20
74.3606249920954
 11
164.709876282962
 21
74.3606249920954
  0
LINE
  5
65D
100
AcDbEntity
  8
画層0
100
AcDbLine
  6
HIDDEN
370
13
 10
164.709876282962
 20
74.3606249920954
 11
165.059876282962
 21
73.6606249920954
  0
LINE
  5
65E
100
AcDbEntity
  8
画層0
100
AcDbLine
  6
HIDDEN
370
13
 10
165.059876282962
 20
73.6606249920954
 11
166.250859282962
 21
73.6606249920954
  0
LINE
  5
65F
100
AcDbEntity
  8
画層0
100
AcDbLine
  6
HIDDEN
370
13
 10
165.000859282962
 20
79.8606249920954
 11
165.250859282962
 21
79.0606249920954
  0
LINE
  5
660
100
AcDbEntity
  8
画層0
100
AcDbLine
  6
HIDDEN
370
13
 10
165.250859282962
 20
79.0606249920954
 11
166.250859282962
 21
79.0606249920954
  0
LINE
  5
661
100
AcDbEntity
  8
画層0
100
AcDbLine
  6
HIDDEN
370
13
 10
169.500859282962
 20
79.8606249920954
 11
168.250859282962
 21
79.8606249920954
  0
LINE
  5
662
100
AcDbEntity
  8
画層0
100
AcDbLine
  6
CONTINUOUS
370
13
 10
164.750859282962
 20
73.1606249920954
 11
169.750859282962
 21
73.1606249920954
  0
LINE
  5
663
100
AcDbEntity
  8
画層0
100
AcDbLine
  6
HIDDEN
370
13
 10
165.750859282962
 20
79.8606249920954
 11
165.750859282962
 21
81.8606249920954
  0
LINE
  5
664
100
AcDbEntity
  8
画層0
100
AcDbLine
  6
CONTINUOUS
370
13
 10
169.750859282962
 20
73.1606249920954
 11
169.850859282962
 21
73.3606249920954
  0
LINE
  5
665
100
AcDbEntity
  8
画層0
100
AcDbLine
  6
HIDDEN
370
13
 10
164.150859282962
 20
74.3606249920954
 11
164.650859282962
 21
73.3606249920954
  0
LINE
  5
666
100
AcDbEntity
  8
画層0
100
AcDbLine
  6
HIDDEN
370
13
 10
165.700859282962
 20
79.9606249920954
 11
163.850859282962
 21
79.9606249920954
  0
LINE
  5
667
100
AcDbEntity
  8
画層0
100
AcDbLine
  6
HIDDEN
370
13
 10
169.250859282962
 20
79.0606249920954
 11
169.500859282962
 21
79.8606249920954
  0
LINE
  5
668
100
AcDbEntity
  8
画層0
100
AcDbLine
  6
HIDDEN
370
13
 10
165.700859282962
 20
81.8606249920954
 11
165.700859282962
 21
79.9606249920954
  0
LINE
  5
669
100
AcDbEntity
  8
画層0
100
AcDbLine
  6
HIDDEN
370
13
 10
168.800859282962
 20
81.8606249920954
 11
168.800859282962
 21
79.9606249920954
  0
LINE
  5
66A
100
AcDbEntity
  8
画層0
100
AcDbLine
  6
HIDDEN
370
13
 10
170.650859282962
 20
76.3606249920954
 11
170.650859282962
 21
79.9606249920954
  0
LINE
  5
66B
100
AcDbEntity
  8
画層0
100
AcDbLine
  6
HIDDEN
370
13
 10
170.650859282962
 20
79.9606249920954
 11
168.800859282962
 21
79.9606249920954
  0
LINE
  5
66C
100
AcDbEntity
  8
画層0
100
AcDbLine
  6
HIDDEN
370
13
 10
163.850859282962
 20
79.9606249920954
 11
163.850859282962
 21
76.3606249920954
  0
LINE
  5
66D
100
AcDbEntity
  8
画層0
100
AcDbLine
  6
CONTINUOUS
370
13
 10
165.850859282962
 20
85.3606249920954
 11
167.000859282962
 21
85.3606249920954
  0
LINE
  5
66E
100
AcDbEntity
  8
画層0
100
AcDbLine
  6
HIDDEN
370
13
 10
169.850859282962
 20
73.3606249920954
 11
170.350859282962
 21
74.3606249920954
  0
LINE
  5
66F
100
AcDbEntity
  8
画層0
100
AcDbLine
  6
HIDDEN
370
13
 10
168.250859282962
 20
79.0606249920954
 11
169.250859282962
 21
79.0606249920954
  0
LINE
  5
670
100
AcDbEntity
  8
画層0
100
AcDbLine
  6
HIDDEN
370
13
 10
166.250859282962
 20
79.8606249920954
 11
165.000859282962
 21
79.8606249920954
  0
LINE
  5
671
100
AcDbEntity
  8
画層0
100
AcDbLine
  6
HIDDEN
370
13
 10
168.250859282962
 20
73.6606249920954
 11
169.441842282962
 21
73.6606249920954
  0
LINE
  5
672
100
AcDbEntity
  8
画層0
100
AcDbLine
  6
CONTINUOUS
370
13
 10
157.250859282962
 20
73.3606249920954
 11
177.250859282962
 21
73.3606249920954
  0
ARC
  5
673
100
AcDbEntity
  8
画層0
100
AcDbCircle
  6
CONTINUOUS
370
13
 10
166.350859282962
 20
83.2606249920954
 40
0.1
100
AcDbArc
 50
90
 51
180
  0
ARC
  5
674
100
AcDbEntity
  8
画層0
100
AcDbCircle
  6
CONTINUOUS
370
13
 10
168.150859282962
 20
83.2606249920954
 40
0.1
100
AcDbArc
 50
0
 51
90
  0
LINE
  5
675
100
AcDbEntity
  8
画層0
100
AcDbLine
  6
CONTINUOUS
370
13
 10
167.500859282962
 20
85.3606249920954
 11
167.500859282962
 21
83.9606249920954
  0
LINE
  5
676
100
AcDbEntity
  8
画層0
100
AcDbLine
  6
CONTINUOUS
370
13
 10
167.500859282962
 20
85.3606249920954
 11
168.650859282962
 21
85.3606249920954
  0
LINE
  5
677
100
AcDbEntity
  8
画層0
100
AcDbLine
  6
CONTINUOUS
370
13
 10
165.750859282962
 20
81.8606249920954
 11
165.750859282962
 21
85.2606249920954
  0
LINE
  5
678
100
AcDbEntity
  8
画層0
100
AcDbLine
  6
CONTINUOUS
370
13
 10
167.000859282962
 20
83.9606249920954
 11
166.250859282962
 21
83.9606249920954
  0
LINE
  5
679
100
AcDbEntity
  8
画層0
100
AcDbLine
  6
HIDDEN
370
13
 10
168.250859282962
 20
81.8606249920954
 11
168.250859282962
 21
76.6606249920954
  0
LINE
  5
67A
100
AcDbEntity
  8
画層0
100
AcDbLine
  6
CONTINUOUS
370
13
 10
166.350859282962
 20
83.3606249920954
 11
168.150859282962
 21
83.3606249920954
  0
LINE
  5
67B
100
AcDbEntity
  8
画層0
100
AcDbLine
  6
CONTINUOUS
370
13
 10
167.000859282962
 20
85.3606249920954
 11
167.000859282962
 21
83.9606249920954
  0
LINE
  5
67C
100
AcDbEntity
  8
画層0
100
AcDbLine
  6
CONTINUOUS
370
13
 10
166.250859282962
 20
81.8606249920954
 11
166.250859282962
 21
83.9606249920954
  0
LINE
  5
67D
100
AcDbEntity
  8
画層0
100
AcDbLine
  6
HIDDEN
370
13
 10
168.750859282962
 20
81.8606249920954
 11
168.750859282962
 21
79.8606249920954
  0
LINE
  5
67E
100
AcDbEntity
  8
画層0
100
AcDbLine
  6
CONTINUOUS
370
13
 10
167.500859282962
 20
83.9606249920954
 11
168.250859282962
 21
83.9606249920954
  0
LINE
  5
67F
100
AcDbEntity
  8
画層0
100
AcDbLine
  6
CONTINUOUS
370
13
 10
164.650859282962
 20
73.3606249920954
 11
164.750859282962
 21
73.1606249920954
  0
LINE
  5
680
100
AcDbEntity
  8
画層0
100
AcDbLine
  6
HIDDEN
370
13
 10
169.791842282962
 20
74.3606249920954
 11
170.350859282962
 21
74.3606249920954
  0
LINE
  5
681
100
AcDbEntity
  8
画層0
100
AcDbLine
  6
HIDDEN
370
13
 10
169.441842282962
 20
73.6606249920954
 11
169.791842282962
 21
74.3606249920954
  0
LINE
  5
682
100
AcDbEntity
  8
画層0
100
AcDbLine
  6
HIDDEN
370
13
 10
169.439399282962
 20
73.6606249920954
 11
169.441842282962
 21
73.6606249920954
  0
LINE
  5
683
100
AcDbEntity
  8
画層0
100
AcDbLine
  6
CONTINUOUS
370
13
 10
168.250859282962
 20
83.9606249920954
 11
168.250859282962
 21
81.8606249920954
  0
LINE
  5
684
100
AcDbEntity
  8
画層0
100
AcDbLine
  6
HIDDEN
370
13
 10
166.250859282962
 20
76.6606249920954
 11
166.250859282962
 21
81.8606249920954
  0
ARC
  5
685
100
AcDbEntity
  8
画層0
100
AcDbCircle
  6
CONTINUOUS
370
13
 10
168.650859282962
 20
85.2606249920954
 40
0.1
100
AcDbArc
 50
0
 51
90
  0
ARC
  5
686
100
AcDbEntity
  8
画層0
100
AcDbCircle
  6
CONTINUOUS
370
13
 10
165.850859282962
 20
85.2606249920954
 40
0.1
100
AcDbArc
 50
90
 51
180
  0
LINE
  5
687
100
AcDbEntity
  8
画層0
100
AcDbLine
  6
CONTINUOUS
370
13
 10
168.750859282962
 20
85.2606249920954
 11
168.750859282962
 21
81.8606249920954
  0
LINE
  5
688
100
AcDbEntity
  8
画層0
100
AcDbLine
  6
CONTINUOUS
370
13
 10
156.921447518256
 20
81.3606249920954
 11
157.250859282962
 21
73.3606249920954
  0
LINE
  5
689
100
AcDbEntity
  8
画層0
100
AcDbLine
  6
CONTINUOUS
370
13
 10
177.580271047668
 20
81.3606249920954
 11
177.250859282962
 21
73.3606249920954
  0
LINE
  5
68A
100
AcDbEntity
  8
画層0
100
AcDbLine
  6
CONTINUOUS
370
13
 10
177.600859282962
 20
81.3606249920954
 11
156.900859282962
 21
81.3606249920954
  0
LINE
  5
68B
100
AcDbEntity
  8
画層0
100
AcDbLine
  6
BYLAYER
370
13
 10
384.93403957277
 20
129.055417345838
 11
384.93403957277
 21
124.90834741466
  0
LINE
  5
68C
100
AcDbEntity
  8
画層0
100
AcDbLine
  6
BYLAYER
370
13
 10
384.93403957277
 20
123.81290256953
 11
384.93403957277
 21
119.055417345838
  0
ENDSEC
  0
SECTION
  2
OBJECTS
  0
DICTIONARY
  5
68D
100
AcDbDictionary
  3
ACAD_GROUP
350
68E
  3
ACAD_MLINESTYLE
350
68F
  0
DICTIONARY
  5
68E
102
{ACAD_REACTORS
330
68D
102
}
100
AcDbDictionary
  0
DICTIONARY
  5
68F
102
{ACAD_REACTORS
330
68D
102
}
100
AcDbDictionary
  3
STANDARD
350
690
  0
MLINESTYLE
  5
690
102
{ACAD_REACTORS
330
68F
102
}
100
AcDbMlineStyle
  2
Standard
 70
     0
  3

 62
     0
 51
90.0
 52
90.0
 71
     2
 49
0.5
 62
   256
  6
ByLayer
 49
-0.5
 62
   256
  6
ByLayer
  0
ENDSEC
  0
EOF
