999
Outputted By AR_CAD Ver.1.7.0
  0
SECTION
  2
HEADER
  9
$ACADVER
  1
AC1014
  9
$DWGCODEPAGE
  3
ANSI_932
  9
$EXTMIN
 10
0
 20
0
  9
$EXTMAX
 10
297
 20
210
  9
$INSBASE
 10
0.0
 20
0.0
 30
0.0
  9
$HANDLING
 70
     1
  9
$HANDSEED
  5
71A
  9
$LTSCALE
 40
1
  0
ENDSEC
  0
SECTION
  2
TABLES
  0
TABLE
  2
VPORT
  5
1
100
AcDbSymbolTable
 70
     1
  0
VPORT
  5
30
100
AcDbSymbolTableRecord
100
AcDbViewportTableRecord
  2
*ACTIVE
 70
     0
 10
0.0
 20
0.0
 11
1.0
 21
1.0
 12
210.0
 22
148.5
 13
0.0
 23
0.0
 14
10.0
 24
10.0
 15
10.0
 25
10.0
 16
0.0
 26
0.0
 36
1.0
 17
0.0
 27
0.0
 37
0.0
 40
302.94
 41
1.333333
 42
50.0
 43
0.0
 44
0.0
 50
0.0
 51
0.0
 71
     0
 72
   100
 73
     1
 74
     1
 75
     0
 76
     0
 77
     0
 78
     0
  0
ENDTAB
  0
TABLE
  2
LTYPE
  5
2
100
AcDbSymbolTable
 70
     9
  0
LTYPE
  5
31
100
AcDbSymbolTableRecord
100
AcDbLinetypeTableRecord
  2
BYBLOCK
 70
    64
 3

 72
    65
 73
    0
 40
    0
  0
LTYPE
  5
32
100
AcDbSymbolTableRecord
100
AcDbLinetypeTableRecord
  2
BYLAYER
 70
    64
 3

 72
    65
 73
    0
 40
    0
  0
LTYPE
  5
33
100
AcDbSymbolTableRecord
100
AcDbLinetypeTableRecord
  2
CONTINUOUS
 70
    64
 3
CONTINUOUS
 72
    65
 73
    0
 40
    0
  0
LTYPE
  5
34
100
AcDbSymbolTableRecord
100
AcDbLinetypeTableRecord
  2
DASHED
 70
    64
 3

 72
    65
 73
    2
 40
    0.75
 49
    0.5
 74
    0
 49
    -0.25
 74
    0
  0
LTYPE
  5
35
100
AcDbSymbolTableRecord
100
AcDbLinetypeTableRecord
  2
DOT
 70
    64
 3

 72
    65
 73
    2
 40
    0.5
 49
    0.25
 74
    0
 49
    -0.25
 74
    0
  0
LTYPE
  5
36
100
AcDbSymbolTableRecord
100
AcDbLinetypeTableRecord
  2
DASHDOT
 70
    64
 3

 72
    65
 73
    4
 40
    3.5
 49
    1.841
 74
    0
 49
    -0.553
 74
    0
 49
    0.553
 74
    0
 49
    -0.553
 74
    0
  0
LTYPE
  5
37
100
AcDbSymbolTableRecord
100
AcDbLinetypeTableRecord
  2
DIVIDE
 70
    64
 3

 72
    65
 73
    6
 40
    3.5
 49
    1.4
 74
    0
 49
    -0.42
 74
    0
 49
    0.42
 74
    0
 49
    -0.42
 74
    0
 49
    0.42
 74
    0
 49
    -0.42
 74
    0
  0
LTYPE
  5
38
100
AcDbSymbolTableRecord
100
AcDbLinetypeTableRecord
  2
HIDDEN
 70
    64
 3

 72
    65
 73
    2
 40
    4
 49
    2
 74
    0
 49
    -2
 74
    0
  0
LTYPE
  5
39
100
AcDbSymbolTableRecord
100
AcDbLinetypeTableRecord
  2
CENTER
 70
    64
 3

 72
    65
 73
    4
 40
    2
 49
    1.25
 74
    0
 49
    -0.25
 74
    0
 49
    0.25
 74
    0
 49
    -0.25
 74
    0
  0
LTYPE
  5
3A
100
AcDbSymbolTableRecord
100
AcDbLinetypeTableRecord
  2

 70
    64
 3

 72
    65
 73
    0
 40
    0
  0
ENDTAB
  0
TABLE
  2
LAYER
  5
3
100
AcDbSymbolTable
 70
   257
  0
LAYER
  5
3B
100
AcDbSymbolTableRecord
100
AcDbLayerTableRecord
  2
0-0
 70
    0
 62
250
  6
CONTINUOUS
  0
LAYER
  5
3C
100
AcDbSymbolTableRecord
100
AcDbLayerTableRecord
  2
0-1
 70
    0
 62
3
  6
CONTINUOUS
  0
LAYER
  5
3D
100
AcDbSymbolTableRecord
100
AcDbLayerTableRecord
  2
0-2
 70
    0
 62
9
  6
CONTINUOUS
  0
LAYER
  5
3E
100
AcDbSymbolTableRecord
100
AcDbLayerTableRecord
  2
0-3
 70
    0
 62
250
  6
CONTINUOUS
  0
LAYER
  5
3F
100
AcDbSymbolTableRecord
100
AcDbLayerTableRecord
  2
0-4
 70
    0
 62
6
  6
CONTINUOUS
  0
LAYER
  5
40
100
AcDbSymbolTableRecord
100
AcDbLayerTableRecord
  2
0-5
 70
    0
 62
1
  6
CONTINUOUS
  0
LAYER
  5
41
100
AcDbSymbolTableRecord
100
AcDbLayerTableRecord
  2
0-6
 70
    0
 62
7
  6
CONTINUOUS
  0
LAYER
  5
42
100
AcDbSymbolTableRecord
100
AcDbLayerTableRecord
  2
0-7
 70
    0
 62
51
  6
CONTINUOUS
  0
LAYER
  5
43
100
AcDbSymbolTableRecord
100
AcDbLayerTableRecord
  2
0-8
 70
    0
 62
61
  6
CONTINUOUS
  0
LAYER
  5
44
100
AcDbSymbolTableRecord
100
AcDbLayerTableRecord
  2
0-9
 70
    0
 62
111
  6
CONTINUOUS
  0
LAYER
  5
45
100
AcDbSymbolTableRecord
100
AcDbLayerTableRecord
  2
0-a
 70
    0
 62
91
  6
CONTINUOUS
  0
LAYER
  5
46
100
AcDbSymbolTableRecord
100
AcDbLayerTableRecord
  2
0-b
 70
    0
 62
131
  6
CONTINUOUS
  0
LAYER
  5
47
100
AcDbSymbolTableRecord
100
AcDbLayerTableRecord
  2
0-c
 70
    0
 62
161
  6
CONTINUOUS
  0
LAYER
  5
48
100
AcDbSymbolTableRecord
100
AcDbLayerTableRecord
  2
0-d
 70
    0
 62
5
  6
CONTINUOUS
  0
LAYER
  5
49
100
AcDbSymbolTableRecord
100
AcDbLayerTableRecord
  2
0-e
 70
    0
 62
7
  6
CONTINUOUS
  0
LAYER
  5
4A
100
AcDbSymbolTableRecord
100
AcDbLayerTableRecord
  2
0-f
 70
    0
 62
11
  6
CONTINUOUS
  0
LAYER
  5
4B
100
AcDbSymbolTableRecord
100
AcDbLayerTableRecord
  2
1-0
 70
    0
 62
250
  6
CONTINUOUS
  0
LAYER
  5
4C
100
AcDbSymbolTableRecord
100
AcDbLayerTableRecord
  2
1-1
 70
    0
 62
70
  6
CONTINUOUS
  0
LAYER
  5
4D
100
AcDbSymbolTableRecord
100
AcDbLayerTableRecord
  2
1-2
 70
    0
 62
211
  6
CONTINUOUS
  0
LAYER
  5
4E
100
AcDbSymbolTableRecord
100
AcDbLayerTableRecord
  2
1-3
 70
    0
 62
137
  6
CONTINUOUS
  0
LAYER
  5
4F
100
AcDbSymbolTableRecord
100
AcDbLayerTableRecord
  2
1-4
 70
    0
 62
4
  6
CONTINUOUS
  0
LAYER
  5
50
100
AcDbSymbolTableRecord
100
AcDbLayerTableRecord
  2
1-5
 70
    0
 62
131
  6
CONTINUOUS
  0
LAYER
  5
51
100
AcDbSymbolTableRecord
100
AcDbLayerTableRecord
  2
1-6
 70
    0
 62
4
  6
CONTINUOUS
  0
LAYER
  5
52
100
AcDbSymbolTableRecord
100
AcDbLayerTableRecord
  2
1-7
 70
    0
 62
4
  6
CONTINUOUS
  0
LAYER
  5
53
100
AcDbSymbolTableRecord
100
AcDbLayerTableRecord
  2
1-8
 70
    0
 62
250
  6
CONTINUOUS
  0
LAYER
  5
54
100
AcDbSymbolTableRecord
100
AcDbLayerTableRecord
  2
1-9
 70
    0
 62
250
  6
CONTINUOUS
  0
LAYER
  5
55
100
AcDbSymbolTableRecord
100
AcDbLayerTableRecord
  2
1-a
 70
    0
 62
250
  6
CONTINUOUS
  0
LAYER
  5
56
100
AcDbSymbolTableRecord
100
AcDbLayerTableRecord
  2
1-b
 70
    0
 62
250
  6
CONTINUOUS
  0
LAYER
  5
57
100
AcDbSymbolTableRecord
100
AcDbLayerTableRecord
  2
1-c
 70
    0
 62
250
  6
CONTINUOUS
  0
LAYER
  5
58
100
AcDbSymbolTableRecord
100
AcDbLayerTableRecord
  2
1-d
 70
    0
 62
250
  6
CONTINUOUS
  0
LAYER
  5
59
100
AcDbSymbolTableRecord
100
AcDbLayerTableRecord
  2
1-e
 70
    0
 62
250
  6
CONTINUOUS
  0
LAYER
  5
5A
100
AcDbSymbolTableRecord
100
AcDbLayerTableRecord
  2
1-f
 70
    0
 62
250
  6
CONTINUOUS
  0
LAYER
  5
5B
100
AcDbSymbolTableRecord
100
AcDbLayerTableRecord
  2
2-0
 70
    0
 62
250
  6
CONTINUOUS
  0
LAYER
  5
5C
100
AcDbSymbolTableRecord
100
AcDbLayerTableRecord
  2
2-1
 70
    0
 62
250
  6
CONTINUOUS
  0
LAYER
  5
5D
100
AcDbSymbolTableRecord
100
AcDbLayerTableRecord
  2
2-2
 70
    0
 62
250
  6
CONTINUOUS
  0
LAYER
  5
5E
100
AcDbSymbolTableRecord
100
AcDbLayerTableRecord
  2
2-3
 70
    0
 62
250
  6
CONTINUOUS
  0
LAYER
  5
5F
100
AcDbSymbolTableRecord
100
AcDbLayerTableRecord
  2
2-4
 70
    0
 62
250
  6
CONTINUOUS
  0
LAYER
  5
60
100
AcDbSymbolTableRecord
100
AcDbLayerTableRecord
  2
2-5
 70
    0
 62
250
  6
CONTINUOUS
  0
LAYER
  5
61
100
AcDbSymbolTableRecord
100
AcDbLayerTableRecord
  2
2-6
 70
    0
 62
250
  6
CONTINUOUS
  0
LAYER
  5
62
100
AcDbSymbolTableRecord
100
AcDbLayerTableRecord
  2
2-7
 70
    0
 62
250
  6
CONTINUOUS
  0
LAYER
  5
63
100
AcDbSymbolTableRecord
100
AcDbLayerTableRecord
  2
2-8
 70
    0
 62
250
  6
CONTINUOUS
  0
LAYER
  5
64
100
AcDbSymbolTableRecord
100
AcDbLayerTableRecord
  2
2-9
 70
    0
 62
250
  6
CONTINUOUS
  0
LAYER
  5
65
100
AcDbSymbolTableRecord
100
AcDbLayerTableRecord
  2
2-a
 70
    0
 62
250
  6
CONTINUOUS
  0
LAYER
  5
66
100
AcDbSymbolTableRecord
100
AcDbLayerTableRecord
  2
2-b
 70
    0
 62
250
  6
CONTINUOUS
  0
LAYER
  5
67
100
AcDbSymbolTableRecord
100
AcDbLayerTableRecord
  2
2-c
 70
    0
 62
250
  6
CONTINUOUS
  0
LAYER
  5
68
100
AcDbSymbolTableRecord
100
AcDbLayerTableRecord
  2
2-d
 70
    0
 62
250
  6
CONTINUOUS
  0
LAYER
  5
69
100
AcDbSymbolTableRecord
100
AcDbLayerTableRecord
  2
2-e
 70
    0
 62
250
  6
CONTINUOUS
  0
LAYER
  5
6A
100
AcDbSymbolTableRecord
100
AcDbLayerTableRecord
  2
2-f
 70
    0
 62
250
  6
CONTINUOUS
  0
LAYER
  5
6B
100
AcDbSymbolTableRecord
100
AcDbLayerTableRecord
  2
3-0
 70
    0
 62
250
  6
CONTINUOUS
  0
LAYER
  5
6C
100
AcDbSymbolTableRecord
100
AcDbLayerTableRecord
  2
3-1
 70
    0
 62
250
  6
CONTINUOUS
  0
LAYER
  5
6D
100
AcDbSymbolTableRecord
100
AcDbLayerTableRecord
  2
3-2
 70
    0
 62
250
  6
CONTINUOUS
  0
LAYER
  5
6E
100
AcDbSymbolTableRecord
100
AcDbLayerTableRecord
  2
3-3
 70
    0
 62
250
  6
CONTINUOUS
  0
LAYER
  5
6F
100
AcDbSymbolTableRecord
100
AcDbLayerTableRecord
  2
3-4
 70
    0
 62
250
  6
CONTINUOUS
  0
LAYER
  5
70
100
AcDbSymbolTableRecord
100
AcDbLayerTableRecord
  2
3-5
 70
    0
 62
250
  6
CONTINUOUS
  0
LAYER
  5
71
100
AcDbSymbolTableRecord
100
AcDbLayerTableRecord
  2
3-6
 70
    0
 62
250
  6
CONTINUOUS
  0
LAYER
  5
72
100
AcDbSymbolTableRecord
100
AcDbLayerTableRecord
  2
3-7
 70
    0
 62
250
  6
CONTINUOUS
  0
LAYER
  5
73
100
AcDbSymbolTableRecord
100
AcDbLayerTableRecord
  2
3-8
 70
    0
 62
250
  6
CONTINUOUS
  0
LAYER
  5
74
100
AcDbSymbolTableRecord
100
AcDbLayerTableRecord
  2
3-9
 70
    0
 62
250
  6
CONTINUOUS
  0
LAYER
  5
75
100
AcDbSymbolTableRecord
100
AcDbLayerTableRecord
  2
3-a
 70
    0
 62
250
  6
CONTINUOUS
  0
LAYER
  5
76
100
AcDbSymbolTableRecord
100
AcDbLayerTableRecord
  2
3-b
 70
    0
 62
250
  6
CONTINUOUS
  0
LAYER
  5
77
100
AcDbSymbolTableRecord
100
AcDbLayerTableRecord
  2
3-c
 70
    0
 62
250
  6
CONTINUOUS
  0
LAYER
  5
78
100
AcDbSymbolTableRecord
100
AcDbLayerTableRecord
  2
3-d
 70
    0
 62
250
  6
CONTINUOUS
  0
LAYER
  5
79
100
AcDbSymbolTableRecord
100
AcDbLayerTableRecord
  2
3-e
 70
    0
 62
250
  6
CONTINUOUS
  0
LAYER
  5
7A
100
AcDbSymbolTableRecord
100
AcDbLayerTableRecord
  2
3-f
 70
    0
 62
250
  6
CONTINUOUS
  0
LAYER
  5
7B
100
AcDbSymbolTableRecord
100
AcDbLayerTableRecord
  2
4-0
 70
    0
 62
250
  6
CONTINUOUS
  0
LAYER
  5
7C
100
AcDbSymbolTableRecord
100
AcDbLayerTableRecord
  2
4-1
 70
    0
 62
250
  6
CONTINUOUS
  0
LAYER
  5
7D
100
AcDbSymbolTableRecord
100
AcDbLayerTableRecord
  2
4-2
 70
    0
 62
250
  6
CONTINUOUS
  0
LAYER
  5
7E
100
AcDbSymbolTableRecord
100
AcDbLayerTableRecord
  2
4-3
 70
    0
 62
250
  6
CONTINUOUS
  0
LAYER
  5
7F
100
AcDbSymbolTableRecord
100
AcDbLayerTableRecord
  2
4-4
 70
    0
 62
250
  6
CONTINUOUS
  0
LAYER
  5
80
100
AcDbSymbolTableRecord
100
AcDbLayerTableRecord
  2
4-5
 70
    0
 62
250
  6
CONTINUOUS
  0
LAYER
  5
81
100
AcDbSymbolTableRecord
100
AcDbLayerTableRecord
  2
4-6
 70
    0
 62
250
  6
CONTINUOUS
  0
LAYER
  5
82
100
AcDbSymbolTableRecord
100
AcDbLayerTableRecord
  2
4-7
 70
    0
 62
250
  6
CONTINUOUS
  0
LAYER
  5
83
100
AcDbSymbolTableRecord
100
AcDbLayerTableRecord
  2
4-8
 70
    0
 62
250
  6
CONTINUOUS
  0
LAYER
  5
84
100
AcDbSymbolTableRecord
100
AcDbLayerTableRecord
  2
4-9
 70
    0
 62
250
  6
CONTINUOUS
  0
LAYER
  5
85
100
AcDbSymbolTableRecord
100
AcDbLayerTableRecord
  2
4-a
 70
    0
 62
250
  6
CONTINUOUS
  0
LAYER
  5
86
100
AcDbSymbolTableRecord
100
AcDbLayerTableRecord
  2
4-b
 70
    0
 62
250
  6
CONTINUOUS
  0
LAYER
  5
87
100
AcDbSymbolTableRecord
100
AcDbLayerTableRecord
  2
4-c
 70
    0
 62
250
  6
CONTINUOUS
  0
LAYER
  5
88
100
AcDbSymbolTableRecord
100
AcDbLayerTableRecord
  2
4-d
 70
    0
 62
250
  6
CONTINUOUS
  0
LAYER
  5
89
100
AcDbSymbolTableRecord
100
AcDbLayerTableRecord
  2
4-e
 70
    0
 62
250
  6
CONTINUOUS
  0
LAYER
  5
8A
100
AcDbSymbolTableRecord
100
AcDbLayerTableRecord
  2
4-f
 70
    0
 62
250
  6
CONTINUOUS
  0
LAYER
  5
8B
100
AcDbSymbolTableRecord
100
AcDbLayerTableRecord
  2
5-0
 70
    0
 62
250
  6
CONTINUOUS
  0
LAYER
  5
8C
100
AcDbSymbolTableRecord
100
AcDbLayerTableRecord
  2
5-1
 70
    0
 62
250
  6
CONTINUOUS
  0
LAYER
  5
8D
100
AcDbSymbolTableRecord
100
AcDbLayerTableRecord
  2
5-2
 70
    0
 62
250
  6
CONTINUOUS
  0
LAYER
  5
8E
100
AcDbSymbolTableRecord
100
AcDbLayerTableRecord
  2
5-3
 70
    0
 62
250
  6
CONTINUOUS
  0
LAYER
  5
8F
100
AcDbSymbolTableRecord
100
AcDbLayerTableRecord
  2
5-4
 70
    0
 62
250
  6
CONTINUOUS
  0
LAYER
  5
90
100
AcDbSymbolTableRecord
100
AcDbLayerTableRecord
  2
5-5
 70
    0
 62
250
  6
CONTINUOUS
  0
LAYER
  5
91
100
AcDbSymbolTableRecord
100
AcDbLayerTableRecord
  2
5-6
 70
    0
 62
250
  6
CONTINUOUS
  0
LAYER
  5
92
100
AcDbSymbolTableRecord
100
AcDbLayerTableRecord
  2
5-7
 70
    0
 62
250
  6
CONTINUOUS
  0
LAYER
  5
93
100
AcDbSymbolTableRecord
100
AcDbLayerTableRecord
  2
5-8
 70
    0
 62
250
  6
CONTINUOUS
  0
LAYER
  5
94
100
AcDbSymbolTableRecord
100
AcDbLayerTableRecord
  2
5-9
 70
    0
 62
250
  6
CONTINUOUS
  0
LAYER
  5
95
100
AcDbSymbolTableRecord
100
AcDbLayerTableRecord
  2
5-a
 70
    0
 62
250
  6
CONTINUOUS
  0
LAYER
  5
96
100
AcDbSymbolTableRecord
100
AcDbLayerTableRecord
  2
5-b
 70
    0
 62
250
  6
CONTINUOUS
  0
LAYER
  5
97
100
AcDbSymbolTableRecord
100
AcDbLayerTableRecord
  2
5-c
 70
    0
 62
250
  6
CONTINUOUS
  0
LAYER
  5
98
100
AcDbSymbolTableRecord
100
AcDbLayerTableRecord
  2
5-d
 70
    0
 62
250
  6
CONTINUOUS
  0
LAYER
  5
99
100
AcDbSymbolTableRecord
100
AcDbLayerTableRecord
  2
5-e
 70
    0
 62
250
  6
CONTINUOUS
  0
LAYER
  5
9A
100
AcDbSymbolTableRecord
100
AcDbLayerTableRecord
  2
5-f
 70
    0
 62
250
  6
CONTINUOUS
  0
LAYER
  5
9B
100
AcDbSymbolTableRecord
100
AcDbLayerTableRecord
  2
6-0
 70
    0
 62
250
  6
CONTINUOUS
  0
LAYER
  5
9C
100
AcDbSymbolTableRecord
100
AcDbLayerTableRecord
  2
6-1
 70
    0
 62
250
  6
CONTINUOUS
  0
LAYER
  5
9D
100
AcDbSymbolTableRecord
100
AcDbLayerTableRecord
  2
6-2
 70
    0
 62
250
  6
CONTINUOUS
  0
LAYER
  5
9E
100
AcDbSymbolTableRecord
100
AcDbLayerTableRecord
  2
6-3
 70
    0
 62
250
  6
CONTINUOUS
  0
LAYER
  5
9F
100
AcDbSymbolTableRecord
100
AcDbLayerTableRecord
  2
6-4
 70
    0
 62
250
  6
CONTINUOUS
  0
LAYER
  5
A0
100
AcDbSymbolTableRecord
100
AcDbLayerTableRecord
  2
6-5
 70
    0
 62
250
  6
CONTINUOUS
  0
LAYER
  5
A1
100
AcDbSymbolTableRecord
100
AcDbLayerTableRecord
  2
6-6
 70
    0
 62
250
  6
CONTINUOUS
  0
LAYER
  5
A2
100
AcDbSymbolTableRecord
100
AcDbLayerTableRecord
  2
6-7
 70
    0
 62
250
  6
CONTINUOUS
  0
LAYER
  5
A3
100
AcDbSymbolTableRecord
100
AcDbLayerTableRecord
  2
6-8
 70
    0
 62
250
  6
CONTINUOUS
  0
LAYER
  5
A4
100
AcDbSymbolTableRecord
100
AcDbLayerTableRecord
  2
6-9
 70
    0
 62
250
  6
CONTINUOUS
  0
LAYER
  5
A5
100
AcDbSymbolTableRecord
100
AcDbLayerTableRecord
  2
6-a
 70
    0
 62
250
  6
CONTINUOUS
  0
LAYER
  5
A6
100
AcDbSymbolTableRecord
100
AcDbLayerTableRecord
  2
6-b
 70
    0
 62
250
  6
CONTINUOUS
  0
LAYER
  5
A7
100
AcDbSymbolTableRecord
100
AcDbLayerTableRecord
  2
6-c
 70
    0
 62
250
  6
CONTINUOUS
  0
LAYER
  5
A8
100
AcDbSymbolTableRecord
100
AcDbLayerTableRecord
  2
6-d
 70
    0
 62
250
  6
CONTINUOUS
  0
LAYER
  5
A9
100
AcDbSymbolTableRecord
100
AcDbLayerTableRecord
  2
6-e
 70
    0
 62
250
  6
CONTINUOUS
  0
LAYER
  5
AA
100
AcDbSymbolTableRecord
100
AcDbLayerTableRecord
  2
6-f
 70
    0
 62
250
  6
CONTINUOUS
  0
LAYER
  5
AB
100
AcDbSymbolTableRecord
100
AcDbLayerTableRecord
  2
7-0
 70
    0
 62
250
  6
CONTINUOUS
  0
LAYER
  5
AC
100
AcDbSymbolTableRecord
100
AcDbLayerTableRecord
  2
7-1
 70
    0
 62
250
  6
CONTINUOUS
  0
LAYER
  5
AD
100
AcDbSymbolTableRecord
100
AcDbLayerTableRecord
  2
7-2
 70
    0
 62
250
  6
CONTINUOUS
  0
LAYER
  5
AE
100
AcDbSymbolTableRecord
100
AcDbLayerTableRecord
  2
7-3
 70
    0
 62
250
  6
CONTINUOUS
  0
LAYER
  5
AF
100
AcDbSymbolTableRecord
100
AcDbLayerTableRecord
  2
7-4
 70
    0
 62
250
  6
CONTINUOUS
  0
LAYER
  5
B0
100
AcDbSymbolTableRecord
100
AcDbLayerTableRecord
  2
7-5
 70
    0
 62
250
  6
CONTINUOUS
  0
LAYER
  5
B1
100
AcDbSymbolTableRecord
100
AcDbLayerTableRecord
  2
7-6
 70
    0
 62
250
  6
CONTINUOUS
  0
LAYER
  5
B2
100
AcDbSymbolTableRecord
100
AcDbLayerTableRecord
  2
7-7
 70
    0
 62
250
  6
CONTINUOUS
  0
LAYER
  5
B3
100
AcDbSymbolTableRecord
100
AcDbLayerTableRecord
  2
7-8
 70
    0
 62
250
  6
CONTINUOUS
  0
LAYER
  5
B4
100
AcDbSymbolTableRecord
100
AcDbLayerTableRecord
  2
7-9
 70
    0
 62
250
  6
CONTINUOUS
  0
LAYER
  5
B5
100
AcDbSymbolTableRecord
100
AcDbLayerTableRecord
  2
7-a
 70
    0
 62
250
  6
CONTINUOUS
  0
LAYER
  5
B6
100
AcDbSymbolTableRecord
100
AcDbLayerTableRecord
  2
7-b
 70
    0
 62
250
  6
CONTINUOUS
  0
LAYER
  5
B7
100
AcDbSymbolTableRecord
100
AcDbLayerTableRecord
  2
7-c
 70
    0
 62
250
  6
CONTINUOUS
  0
LAYER
  5
B8
100
AcDbSymbolTableRecord
100
AcDbLayerTableRecord
  2
7-d
 70
    0
 62
250
  6
CONTINUOUS
  0
LAYER
  5
B9
100
AcDbSymbolTableRecord
100
AcDbLayerTableRecord
  2
7-e
 70
    0
 62
250
  6
CONTINUOUS
  0
LAYER
  5
BA
100
AcDbSymbolTableRecord
100
AcDbLayerTableRecord
  2
7-f
 70
    0
 62
250
  6
CONTINUOUS
  0
LAYER
  5
BB
100
AcDbSymbolTableRecord
100
AcDbLayerTableRecord
  2
8-0
 70
    0
 62
250
  6
CONTINUOUS
  0
LAYER
  5
BC
100
AcDbSymbolTableRecord
100
AcDbLayerTableRecord
  2
8-1
 70
    0
 62
250
  6
CONTINUOUS
  0
LAYER
  5
BD
100
AcDbSymbolTableRecord
100
AcDbLayerTableRecord
  2
8-2
 70
    0
 62
250
  6
CONTINUOUS
  0
LAYER
  5
BE
100
AcDbSymbolTableRecord
100
AcDbLayerTableRecord
  2
8-3
 70
    0
 62
250
  6
CONTINUOUS
  0
LAYER
  5
BF
100
AcDbSymbolTableRecord
100
AcDbLayerTableRecord
  2
8-4
 70
    0
 62
250
  6
CONTINUOUS
  0
LAYER
  5
C0
100
AcDbSymbolTableRecord
100
AcDbLayerTableRecord
  2
8-5
 70
    0
 62
250
  6
CONTINUOUS
  0
LAYER
  5
C1
100
AcDbSymbolTableRecord
100
AcDbLayerTableRecord
  2
8-6
 70
    0
 62
250
  6
CONTINUOUS
  0
LAYER
  5
C2
100
AcDbSymbolTableRecord
100
AcDbLayerTableRecord
  2
8-7
 70
    0
 62
250
  6
CONTINUOUS
  0
LAYER
  5
C3
100
AcDbSymbolTableRecord
100
AcDbLayerTableRecord
  2
8-8
 70
    0
 62
250
  6
CONTINUOUS
  0
LAYER
  5
C4
100
AcDbSymbolTableRecord
100
AcDbLayerTableRecord
  2
8-9
 70
    0
 62
250
  6
CONTINUOUS
  0
LAYER
  5
C5
100
AcDbSymbolTableRecord
100
AcDbLayerTableRecord
  2
8-a
 70
    0
 62
250
  6
CONTINUOUS
  0
LAYER
  5
C6
100
AcDbSymbolTableRecord
100
AcDbLayerTableRecord
  2
8-b
 70
    0
 62
250
  6
CONTINUOUS
  0
LAYER
  5
C7
100
AcDbSymbolTableRecord
100
AcDbLayerTableRecord
  2
8-c
 70
    0
 62
250
  6
CONTINUOUS
  0
LAYER
  5
C8
100
AcDbSymbolTableRecord
100
AcDbLayerTableRecord
  2
8-d
 70
    0
 62
250
  6
CONTINUOUS
  0
LAYER
  5
C9
100
AcDbSymbolTableRecord
100
AcDbLayerTableRecord
  2
8-e
 70
    0
 62
250
  6
CONTINUOUS
  0
LAYER
  5
CA
100
AcDbSymbolTableRecord
100
AcDbLayerTableRecord
  2
8-f
 70
    0
 62
250
  6
CONTINUOUS
  0
LAYER
  5
CB
100
AcDbSymbolTableRecord
100
AcDbLayerTableRecord
  2
9-0
 70
    0
 62
250
  6
CONTINUOUS
  0
LAYER
  5
CC
100
AcDbSymbolTableRecord
100
AcDbLayerTableRecord
  2
9-1
 70
    0
 62
250
  6
CONTINUOUS
  0
LAYER
  5
CD
100
AcDbSymbolTableRecord
100
AcDbLayerTableRecord
  2
9-2
 70
    0
 62
250
  6
CONTINUOUS
  0
LAYER
  5
CE
100
AcDbSymbolTableRecord
100
AcDbLayerTableRecord
  2
9-3
 70
    0
 62
250
  6
CONTINUOUS
  0
LAYER
  5
CF
100
AcDbSymbolTableRecord
100
AcDbLayerTableRecord
  2
9-4
 70
    0
 62
250
  6
CONTINUOUS
  0
LAYER
  5
D0
100
AcDbSymbolTableRecord
100
AcDbLayerTableRecord
  2
9-5
 70
    0
 62
250
  6
CONTINUOUS
  0
LAYER
  5
D1
100
AcDbSymbolTableRecord
100
AcDbLayerTableRecord
  2
9-6
 70
    0
 62
250
  6
CONTINUOUS
  0
LAYER
  5
D2
100
AcDbSymbolTableRecord
100
AcDbLayerTableRecord
  2
9-7
 70
    0
 62
250
  6
CONTINUOUS
  0
LAYER
  5
D3
100
AcDbSymbolTableRecord
100
AcDbLayerTableRecord
  2
9-8
 70
    0
 62
250
  6
CONTINUOUS
  0
LAYER
  5
D4
100
AcDbSymbolTableRecord
100
AcDbLayerTableRecord
  2
9-9
 70
    0
 62
250
  6
CONTINUOUS
  0
LAYER
  5
D5
100
AcDbSymbolTableRecord
100
AcDbLayerTableRecord
  2
9-a
 70
    0
 62
250
  6
CONTINUOUS
  0
LAYER
  5
D6
100
AcDbSymbolTableRecord
100
AcDbLayerTableRecord
  2
9-b
 70
    0
 62
250
  6
CONTINUOUS
  0
LAYER
  5
D7
100
AcDbSymbolTableRecord
100
AcDbLayerTableRecord
  2
9-c
 70
    0
 62
250
  6
CONTINUOUS
  0
LAYER
  5
D8
100
AcDbSymbolTableRecord
100
AcDbLayerTableRecord
  2
9-d
 70
    0
 62
250
  6
CONTINUOUS
  0
LAYER
  5
D9
100
AcDbSymbolTableRecord
100
AcDbLayerTableRecord
  2
9-e
 70
    0
 62
250
  6
CONTINUOUS
  0
LAYER
  5
DA
100
AcDbSymbolTableRecord
100
AcDbLayerTableRecord
  2
9-f
 70
    0
 62
250
  6
CONTINUOUS
  0
LAYER
  5
DB
100
AcDbSymbolTableRecord
100
AcDbLayerTableRecord
  2
a-0
 70
    0
 62
250
  6
CONTINUOUS
  0
LAYER
  5
DC
100
AcDbSymbolTableRecord
100
AcDbLayerTableRecord
  2
a-1
 70
    0
 62
250
  6
CONTINUOUS
  0
LAYER
  5
DD
100
AcDbSymbolTableRecord
100
AcDbLayerTableRecord
  2
a-2
 70
    0
 62
250
  6
CONTINUOUS
  0
LAYER
  5
DE
100
AcDbSymbolTableRecord
100
AcDbLayerTableRecord
  2
a-3
 70
    0
 62
250
  6
CONTINUOUS
  0
LAYER
  5
DF
100
AcDbSymbolTableRecord
100
AcDbLayerTableRecord
  2
a-4
 70
    0
 62
250
  6
CONTINUOUS
  0
LAYER
  5
E0
100
AcDbSymbolTableRecord
100
AcDbLayerTableRecord
  2
a-5
 70
    0
 62
250
  6
CONTINUOUS
  0
LAYER
  5
E1
100
AcDbSymbolTableRecord
100
AcDbLayerTableRecord
  2
a-6
 70
    0
 62
250
  6
CONTINUOUS
  0
LAYER
  5
E2
100
AcDbSymbolTableRecord
100
AcDbLayerTableRecord
  2
a-7
 70
    0
 62
250
  6
CONTINUOUS
  0
LAYER
  5
E3
100
AcDbSymbolTableRecord
100
AcDbLayerTableRecord
  2
a-8
 70
    0
 62
250
  6
CONTINUOUS
  0
LAYER
  5
E4
100
AcDbSymbolTableRecord
100
AcDbLayerTableRecord
  2
a-9
 70
    0
 62
250
  6
CONTINUOUS
  0
LAYER
  5
E5
100
AcDbSymbolTableRecord
100
AcDbLayerTableRecord
  2
a-a
 70
    0
 62
250
  6
CONTINUOUS
  0
LAYER
  5
E6
100
AcDbSymbolTableRecord
100
AcDbLayerTableRecord
  2
a-b
 70
    0
 62
250
  6
CONTINUOUS
  0
LAYER
  5
E7
100
AcDbSymbolTableRecord
100
AcDbLayerTableRecord
  2
a-c
 70
    0
 62
250
  6
CONTINUOUS
  0
LAYER
  5
E8
100
AcDbSymbolTableRecord
100
AcDbLayerTableRecord
  2
a-d
 70
    0
 62
250
  6
CONTINUOUS
  0
LAYER
  5
E9
100
AcDbSymbolTableRecord
100
AcDbLayerTableRecord
  2
a-e
 70
    0
 62
250
  6
CONTINUOUS
  0
LAYER
  5
EA
100
AcDbSymbolTableRecord
100
AcDbLayerTableRecord
  2
a-f
 70
    0
 62
250
  6
CONTINUOUS
  0
LAYER
  5
EB
100
AcDbSymbolTableRecord
100
AcDbLayerTableRecord
  2
b-0
 70
    0
 62
250
  6
CONTINUOUS
  0
LAYER
  5
EC
100
AcDbSymbolTableRecord
100
AcDbLayerTableRecord
  2
b-1
 70
    0
 62
250
  6
CONTINUOUS
  0
LAYER
  5
ED
100
AcDbSymbolTableRecord
100
AcDbLayerTableRecord
  2
b-2
 70
    0
 62
250
  6
CONTINUOUS
  0
LAYER
  5
EE
100
AcDbSymbolTableRecord
100
AcDbLayerTableRecord
  2
b-3
 70
    0
 62
250
  6
CONTINUOUS
  0
LAYER
  5
EF
100
AcDbSymbolTableRecord
100
AcDbLayerTableRecord
  2
b-4
 70
    0
 62
250
  6
CONTINUOUS
  0
LAYER
  5
F0
100
AcDbSymbolTableRecord
100
AcDbLayerTableRecord
  2
b-5
 70
    0
 62
250
  6
CONTINUOUS
  0
LAYER
  5
F1
100
AcDbSymbolTableRecord
100
AcDbLayerTableRecord
  2
b-6
 70
    0
 62
250
  6
CONTINUOUS
  0
LAYER
  5
F2
100
AcDbSymbolTableRecord
100
AcDbLayerTableRecord
  2
b-7
 70
    0
 62
250
  6
CONTINUOUS
  0
LAYER
  5
F3
100
AcDbSymbolTableRecord
100
AcDbLayerTableRecord
  2
b-8
 70
    0
 62
250
  6
CONTINUOUS
  0
LAYER
  5
F4
100
AcDbSymbolTableRecord
100
AcDbLayerTableRecord
  2
b-9
 70
    0
 62
250
  6
CONTINUOUS
  0
LAYER
  5
F5
100
AcDbSymbolTableRecord
100
AcDbLayerTableRecord
  2
b-a
 70
    0
 62
250
  6
CONTINUOUS
  0
LAYER
  5
F6
100
AcDbSymbolTableRecord
100
AcDbLayerTableRecord
  2
b-b
 70
    0
 62
250
  6
CONTINUOUS
  0
LAYER
  5
F7
100
AcDbSymbolTableRecord
100
AcDbLayerTableRecord
  2
b-c
 70
    0
 62
250
  6
CONTINUOUS
  0
LAYER
  5
F8
100
AcDbSymbolTableRecord
100
AcDbLayerTableRecord
  2
b-d
 70
    0
 62
250
  6
CONTINUOUS
  0
LAYER
  5
F9
100
AcDbSymbolTableRecord
100
AcDbLayerTableRecord
  2
b-e
 70
    0
 62
250
  6
CONTINUOUS
  0
LAYER
  5
FA
100
AcDbSymbolTableRecord
100
AcDbLayerTableRecord
  2
b-f
 70
    0
 62
250
  6
CONTINUOUS
  0
LAYER
  5
FB
100
AcDbSymbolTableRecord
100
AcDbLayerTableRecord
  2
c-0
 70
    0
 62
250
  6
CONTINUOUS
  0
LAYER
  5
FC
100
AcDbSymbolTableRecord
100
AcDbLayerTableRecord
  2
c-1
 70
    0
 62
250
  6
CONTINUOUS
  0
LAYER
  5
FD
100
AcDbSymbolTableRecord
100
AcDbLayerTableRecord
  2
c-2
 70
    0
 62
250
  6
CONTINUOUS
  0
LAYER
  5
FE
100
AcDbSymbolTableRecord
100
AcDbLayerTableRecord
  2
c-3
 70
    0
 62
250
  6
CONTINUOUS
  0
LAYER
  5
FF
100
AcDbSymbolTableRecord
100
AcDbLayerTableRecord
  2
c-4
 70
    0
 62
250
  6
CONTINUOUS
  0
LAYER
  5
100
100
AcDbSymbolTableRecord
100
AcDbLayerTableRecord
  2
c-5
 70
    0
 62
250
  6
CONTINUOUS
  0
LAYER
  5
101
100
AcDbSymbolTableRecord
100
AcDbLayerTableRecord
  2
c-6
 70
    0
 62
250
  6
CONTINUOUS
  0
LAYER
  5
102
100
AcDbSymbolTableRecord
100
AcDbLayerTableRecord
  2
c-7
 70
    0
 62
250
  6
CONTINUOUS
  0
LAYER
  5
103
100
AcDbSymbolTableRecord
100
AcDbLayerTableRecord
  2
c-8
 70
    0
 62
250
  6
CONTINUOUS
  0
LAYER
  5
104
100
AcDbSymbolTableRecord
100
AcDbLayerTableRecord
  2
c-9
 70
    0
 62
250
  6
CONTINUOUS
  0
LAYER
  5
105
100
AcDbSymbolTableRecord
100
AcDbLayerTableRecord
  2
c-a
 70
    0
 62
250
  6
CONTINUOUS
  0
LAYER
  5
106
100
AcDbSymbolTableRecord
100
AcDbLayerTableRecord
  2
c-b
 70
    0
 62
250
  6
CONTINUOUS
  0
LAYER
  5
107
100
AcDbSymbolTableRecord
100
AcDbLayerTableRecord
  2
c-c
 70
    0
 62
250
  6
CONTINUOUS
  0
LAYER
  5
108
100
AcDbSymbolTableRecord
100
AcDbLayerTableRecord
  2
c-d
 70
    0
 62
250
  6
CONTINUOUS
  0
LAYER
  5
109
100
AcDbSymbolTableRecord
100
AcDbLayerTableRecord
  2
c-e
 70
    0
 62
250
  6
CONTINUOUS
  0
LAYER
  5
10A
100
AcDbSymbolTableRecord
100
AcDbLayerTableRecord
  2
c-f
 70
    0
 62
250
  6
CONTINUOUS
  0
LAYER
  5
10B
100
AcDbSymbolTableRecord
100
AcDbLayerTableRecord
  2
d-0
 70
    0
 62
250
  6
CONTINUOUS
  0
LAYER
  5
10C
100
AcDbSymbolTableRecord
100
AcDbLayerTableRecord
  2
d-1
 70
    0
 62
250
  6
CONTINUOUS
  0
LAYER
  5
10D
100
AcDbSymbolTableRecord
100
AcDbLayerTableRecord
  2
d-2
 70
    0
 62
250
  6
CONTINUOUS
  0
LAYER
  5
10E
100
AcDbSymbolTableRecord
100
AcDbLayerTableRecord
  2
d-3
 70
    0
 62
250
  6
CONTINUOUS
  0
LAYER
  5
10F
100
AcDbSymbolTableRecord
100
AcDbLayerTableRecord
  2
d-4
 70
    0
 62
250
  6
CONTINUOUS
  0
LAYER
  5
110
100
AcDbSymbolTableRecord
100
AcDbLayerTableRecord
  2
d-5
 70
    0
 62
250
  6
CONTINUOUS
  0
LAYER
  5
111
100
AcDbSymbolTableRecord
100
AcDbLayerTableRecord
  2
d-6
 70
    0
 62
250
  6
CONTINUOUS
  0
LAYER
  5
112
100
AcDbSymbolTableRecord
100
AcDbLayerTableRecord
  2
d-7
 70
    0
 62
250
  6
CONTINUOUS
  0
LAYER
  5
113
100
AcDbSymbolTableRecord
100
AcDbLayerTableRecord
  2
d-8
 70
    0
 62
250
  6
CONTINUOUS
  0
LAYER
  5
114
100
AcDbSymbolTableRecord
100
AcDbLayerTableRecord
  2
d-9
 70
    0
 62
250
  6
CONTINUOUS
  0
LAYER
  5
115
100
AcDbSymbolTableRecord
100
AcDbLayerTableRecord
  2
d-a
 70
    0
 62
250
  6
CONTINUOUS
  0
LAYER
  5
116
100
AcDbSymbolTableRecord
100
AcDbLayerTableRecord
  2
d-b
 70
    0
 62
250
  6
CONTINUOUS
  0
LAYER
  5
117
100
AcDbSymbolTableRecord
100
AcDbLayerTableRecord
  2
d-c
 70
    0
 62
250
  6
CONTINUOUS
  0
LAYER
  5
118
100
AcDbSymbolTableRecord
100
AcDbLayerTableRecord
  2
d-d
 70
    0
 62
250
  6
CONTINUOUS
  0
LAYER
  5
119
100
AcDbSymbolTableRecord
100
AcDbLayerTableRecord
  2
d-e
 70
    0
 62
250
  6
CONTINUOUS
  0
LAYER
  5
11A
100
AcDbSymbolTableRecord
100
AcDbLayerTableRecord
  2
d-f
 70
    0
 62
250
  6
CONTINUOUS
  0
LAYER
  5
11B
100
AcDbSymbolTableRecord
100
AcDbLayerTableRecord
  2
e-0
 70
    0
 62
250
  6
CONTINUOUS
  0
LAYER
  5
11C
100
AcDbSymbolTableRecord
100
AcDbLayerTableRecord
  2
e-1
 70
    0
 62
250
  6
CONTINUOUS
  0
LAYER
  5
11D
100
AcDbSymbolTableRecord
100
AcDbLayerTableRecord
  2
e-2
 70
    0
 62
250
  6
CONTINUOUS
  0
LAYER
  5
11E
100
AcDbSymbolTableRecord
100
AcDbLayerTableRecord
  2
e-3
 70
    0
 62
250
  6
CONTINUOUS
  0
LAYER
  5
11F
100
AcDbSymbolTableRecord
100
AcDbLayerTableRecord
  2
e-4
 70
    0
 62
250
  6
CONTINUOUS
  0
LAYER
  5
120
100
AcDbSymbolTableRecord
100
AcDbLayerTableRecord
  2
e-5
 70
    0
 62
250
  6
CONTINUOUS
  0
LAYER
  5
121
100
AcDbSymbolTableRecord
100
AcDbLayerTableRecord
  2
e-6
 70
    0
 62
250
  6
CONTINUOUS
  0
LAYER
  5
122
100
AcDbSymbolTableRecord
100
AcDbLayerTableRecord
  2
e-7
 70
    0
 62
250
  6
CONTINUOUS
  0
LAYER
  5
123
100
AcDbSymbolTableRecord
100
AcDbLayerTableRecord
  2
e-8
 70
    0
 62
250
  6
CONTINUOUS
  0
LAYER
  5
124
100
AcDbSymbolTableRecord
100
AcDbLayerTableRecord
  2
e-9
 70
    0
 62
250
  6
CONTINUOUS
  0
LAYER
  5
125
100
AcDbSymbolTableRecord
100
AcDbLayerTableRecord
  2
e-a
 70
    0
 62
250
  6
CONTINUOUS
  0
LAYER
  5
126
100
AcDbSymbolTableRecord
100
AcDbLayerTableRecord
  2
e-b
 70
    0
 62
250
  6
CONTINUOUS
  0
LAYER
  5
127
100
AcDbSymbolTableRecord
100
AcDbLayerTableRecord
  2
e-c
 70
    0
 62
250
  6
CONTINUOUS
  0
LAYER
  5
128
100
AcDbSymbolTableRecord
100
AcDbLayerTableRecord
  2
e-d
 70
    0
 62
250
  6
CONTINUOUS
  0
LAYER
  5
129
100
AcDbSymbolTableRecord
100
AcDbLayerTableRecord
  2
e-e
 70
    0
 62
250
  6
CONTINUOUS
  0
LAYER
  5
12A
100
AcDbSymbolTableRecord
100
AcDbLayerTableRecord
  2
e-f
 70
    0
 62
250
  6
CONTINUOUS
  0
LAYER
  5
12B
100
AcDbSymbolTableRecord
100
AcDbLayerTableRecord
  2
f-0
 70
    0
 62
250
  6
CONTINUOUS
  0
LAYER
  5
12C
100
AcDbSymbolTableRecord
100
AcDbLayerTableRecord
  2
f-1
 70
    0
 62
250
  6
CONTINUOUS
  0
LAYER
  5
12D
100
AcDbSymbolTableRecord
100
AcDbLayerTableRecord
  2
f-2
 70
    0
 62
250
  6
CONTINUOUS
  0
LAYER
  5
12E
100
AcDbSymbolTableRecord
100
AcDbLayerTableRecord
  2
f-3
 70
    0
 62
250
  6
CONTINUOUS
  0
LAYER
  5
12F
100
AcDbSymbolTableRecord
100
AcDbLayerTableRecord
  2
f-4
 70
    0
 62
250
  6
CONTINUOUS
  0
LAYER
  5
130
100
AcDbSymbolTableRecord
100
AcDbLayerTableRecord
  2
f-5
 70
    0
 62
250
  6
CONTINUOUS
  0
LAYER
  5
131
100
AcDbSymbolTableRecord
100
AcDbLayerTableRecord
  2
f-6
 70
    0
 62
250
  6
CONTINUOUS
  0
LAYER
  5
132
100
AcDbSymbolTableRecord
100
AcDbLayerTableRecord
  2
f-7
 70
    0
 62
250
  6
CONTINUOUS
  0
LAYER
  5
133
100
AcDbSymbolTableRecord
100
AcDbLayerTableRecord
  2
f-8
 70
    0
 62
250
  6
CONTINUOUS
  0
LAYER
  5
134
100
AcDbSymbolTableRecord
100
AcDbLayerTableRecord
  2
f-9
 70
    0
 62
250
  6
CONTINUOUS
  0
LAYER
  5
135
100
AcDbSymbolTableRecord
100
AcDbLayerTableRecord
  2
f-a
 70
    0
 62
250
  6
CONTINUOUS
  0
LAYER
  5
136
100
AcDbSymbolTableRecord
100
AcDbLayerTableRecord
  2
f-b
 70
    0
 62
250
  6
CONTINUOUS
  0
LAYER
  5
137
100
AcDbSymbolTableRecord
100
AcDbLayerTableRecord
  2
f-c
 70
    0
 62
250
  6
CONTINUOUS
  0
LAYER
  5
138
100
AcDbSymbolTableRecord
100
AcDbLayerTableRecord
  2
f-d
 70
    0
 62
250
  6
CONTINUOUS
  0
LAYER
  5
139
100
AcDbSymbolTableRecord
100
AcDbLayerTableRecord
  2
f-e
 70
    0
 62
250
  6
CONTINUOUS
  0
LAYER
  5
13A
100
AcDbSymbolTableRecord
100
AcDbLayerTableRecord
  2
f-f
 70
    0
 62
250
  6
CONTINUOUS
  0
LAYER
  5
13B
100
AcDbSymbolTableRecord
100
AcDbLayerTableRecord
  2
0
 70
   64
 62
    7
  6
CONTINUOUS
  0
ENDTAB
  0
TABLE
  2
STYLE
  5
4
100
AcDbSymbolTable
 70
     1
  0
STYLE
  5
13C
100
AcDbSymbolTableRecord
100
AcDbTextStyleTableRecord
  2
Standard
 70
     0
 40
0.0
 41
1.0
 50
0.0
 71
     0
 42
3.2
  3
TXT
  4
BIGFONT
  0
STYLE
  5
13D
100
AcDbSymbolTableRecord
100
AcDbTextStyleTableRecord
  2
Font_0
 70
     0
 40
0.0
 41
1.0
 50
0.0
 71
     0
 42
3.2
  3
MS Gothic.ttf
  4

1001
ACAD
1000
MS Gothic
1071
  32817
  0
ENDTAB
  0
TABLE
  2
VIEW
  5
5
100
AcDbSymbolTable
 70
     0
  0
ENDTAB
  0
TABLE
  2
UCS
  5
6
100
AcDbSymbolTable
 70
     0
  0
ENDTAB
  0
TABLE
  2
APPID
  5
7
100
AcDbSymbolTable
 70
     1
  0
APPID
  5
13E
100
AcDbSymbolTableRecord
100
AcDbRegAppTableRecord
  2
ACAD
 70
     0
  0
ENDTAB
  0
TABLE
  2
DIMSTYLE
  5
8
100
AcDbSymbolTable
 70
     1
  0
DIMSTYLE
105
2A
100
AcDbSymbolTableRecord
100
AcDbDimStyleTableRecord
  2
STANDARD
 70
     0
  3

  4

  5

  6

  7

 40
1.0
 41
2.5
 42
2.0
 43
7.0
 44
1.25
 45
0.0
 46
0.0
 47
0.0
 48
0.0
 71
     0
 72
     0
 73
     0
 74
     0
 75
     0
 76
     0
 77
     1
 78
     0
140
2.5
141
2.5
142
0.0
143
0.0394
144
1.0
145
0.0
146
1.0
147
1.0
170
     0
171
     2
172
     0
173
     0
174
     1
175
     0
176
     0
177
     0
178
     0
270
     2
271
     2
272
     4
273
     2
274
     2
275
     0
280
     0
281
     0
282
     0
283
     1
284
     0
285
     0
286
     0
287
     3
288
     0
  0
ENDTAB
  0
TABLE
  2
BLOCK_RECORD
  5
9
100
AcDbSymbolTable
 70
     0
  0
BLOCK_RECORD
  5
13F
100
AcDbSymbolTableRecord
100
AcDbBlockTableRecord
  2
*MODEL_SPACE
  0
BLOCK_RECORD
  5
140
100
AcDbSymbolTableRecord
100
AcDbBlockTableRecord
  2
*PAPER_SPACE
  0
ENDTAB
  0
ENDSEC
  0
SECTION
  2
BLOCKS
  0
BLOCK
  5
142
100
AcDbEntity
  8
0
100
AcDbBlockBegin
2
*MODEL_SPACE
 70
     0
 10
0.0
 20
0.0
 30
0.0
  3
*MODEL_SPACE
  1

  0
ENDBLK
  5
143
100
AcDbEntity
  8
0-0
100
AcDbBlockEnd
  0
BLOCK
  5
144
100
AcDbEntity
 67
     1
  8
0-0
100
AcDbBlockBegin
  2
*PAPER_SPACE
 70
     0
 10
0.0
 20
0.0
 30
0.0
  3
*PAPER_SPACE
  1

  0
ENDBLK
  5
145
100
AcDbEntity
 67
     1
  8
0-0
100
AcDbBlockEnd
  0
ENDSEC
  0
SECTION
  2
ENTITIES
  0
LINE
  5
146
100
AcDbEntity
  8
0-0
100
AcDbLine
  6
CONTINUOUS
 62
7
370
30
 10
5
 20
11.391351
 11
822.6009494163
 21
11.391351
  0
MTEXT
  5
147
100
AcDbEntity
  8
0-0
100
AcDbMText
 10
385.627462459831
 20
9.98681123688251
 40
6
 41
  0.0
  1
{\fMS Gothic|b1;MinatoConcept,Inc.}
  7
Font_0
  0
LINE
  5
148
100
AcDbEntity
  8
0-0
100
AcDbLine
  6
CONTINUOUS
 62
7
370
30
 10
835.6009494163
 20
588.414092069289
 11
835.6009494163
 21
11.3938553942484
  0
LINE
  5
149
100
AcDbEntity
  8
0-0
100
AcDbLine
  6
CONTINUOUS
 62
7
370
30
 10
637.401604845416
 20
11.3938553942484
 11
835.6009494163
 21
11.3938553942484
  0
LINE
  5
14A
100
AcDbEntity
  8
0-0
100
AcDbLine
  6
CONTINUOUS
 62
7
370
30
 10
637.401604845416
 20
54.3938753942484
 11
637.401604845416
 21
11.3938553942484
  0
LINE
  5
14B
100
AcDbEntity
  8
0-0
100
AcDbLine
  6
CONTINUOUS
 62
7
370
30
 10
637.401604845416
 20
29.3938553942484
 11
835.59914371769
 21
29.3938553942484
  0
LINE
  5
14C
100
AcDbEntity
  8
0-0
100
AcDbLine
  6
CONTINUOUS
 62
7
370
30
 10
637.401604845416
 20
34.3938553942484
 11
835.59914371769
 21
34.3938553942484
  0
LINE
  5
14D
100
AcDbEntity
  8
0-0
100
AcDbLine
  6
CONTINUOUS
 62
7
370
30
 10
637.401604845416
 20
54.3938753942484
 11
835.59914371769
 21
54.3938753942484
  0
LINE
  5
14E
100
AcDbEntity
  8
0-0
100
AcDbLine
  6
CONTINUOUS
 62
7
370
30
 10
646.401604845416
 20
54.3938753942484
 11
646.401604845416
 21
29.3938553942484
  0
LINE
  5
14F
100
AcDbEntity
  8
0-0
100
AcDbLine
  6
CONTINUOUS
 62
7
370
30
 10
651.401604845416
 20
29.3938553942484
 11
651.401604845416
 21
11.3938553942484
  0
LINE
  5
150
100
AcDbEntity
  8
0-0
100
AcDbLine
  6
CONTINUOUS
 62
7
370
30
 10
665.401604845416
 20
29.3938553942484
 11
665.401604845416
 21
11.3938553942484
  0
LINE
  5
151
100
AcDbEntity
  8
0-0
100
AcDbLine
  6
CONTINUOUS
 62
7
370
30
 10
679.401604845416
 20
29.3938553942484
 11
679.401604845416
 21
11.3938553942484
  0
LINE
  5
152
100
AcDbEntity
  8
0-0
100
AcDbLine
  6
CONTINUOUS
 62
7
370
30
 10
693.401604845416
 20
29.3938553942484
 11
693.401604845416
 21
11.3938553942484
  0
LINE
  5
153
100
AcDbEntity
  8
0-0
100
AcDbLine
  6
CONTINUOUS
 62
7
370
30
 10
707.401604845416
 20
54.3938753942484
 11
707.401604845416
 21
11.3938553942484
  0
LINE
  5
154
100
AcDbEntity
  8
0-0
100
AcDbLine
  6
CONTINUOUS
 62
7
370
30
 10
781.401604845415
 20
29.3938553942484
 11
781.401604845415
 21
11.3938553942484
  0
LINE
  5
155
100
AcDbEntity
  8
0-0
100
AcDbLine
  6
CONTINUOUS
 62
7
370
30
 10
776.137003845415
 20
13.3938553942484
 11
712.240503845416
 21
13.3938553942484
  0
TEXT
  5
156
100
AcDbEntity
  8
0-0
 62
7
100
AcDbText
  6
BYLAYER
 62
7
 10
651.561284497264
 20
29.8938543942484
 40
4
  1
年月日
  7
Font_0
100
AcDbText
  0
TEXT
  5
157
100
AcDbEntity
  8
0-0
 62
7
100
AcDbText
  6
BYLAYER
 62
7
 10
682.325276306798
 20
29.8938543942484
 40
4
  1
記  事
  7
Font_0
100
AcDbText
  0
LINE
  5
158
100
AcDbEntity
  8
0-0
100
AcDbLine
  6
CONTINUOUS
 62
7
370
30
 10
639.592204845416
 20
50.0468753942484
 11
644.211003845416
 21
50.0468753942484
  0
LINE
  5
159
100
AcDbEntity
  8
0-0
100
AcDbLine
  6
CONTINUOUS
 62
7
370
30
 10
641.901604845416
 20
54.0468753942484
 11
644.211004845416
 21
50.0468753942484
  0
LINE
  5
15A
100
AcDbEntity
  8
0-0
100
AcDbLine
  6
CONTINUOUS
 62
7
370
30
 10
641.901604845416
 20
54.0468743942484
 11
639.592204845416
 21
50.0468743942484
  0
LINE
  5
15B
100
AcDbEntity
  8
0-0
100
AcDbLine
  6
CONTINUOUS
 62
7
370
30
 10
641.901604845416
 20
49.0468753942484
 11
639.592204845416
 21
45.0468753942484
  0
LINE
  5
15C
100
AcDbEntity
  8
0-0
100
AcDbLine
  6
CONTINUOUS
 62
7
370
30
 10
639.592204845416
 20
45.0468753942484
 11
644.211003845416
 21
45.0468753942484
  0
LINE
  5
15D
100
AcDbEntity
  8
0-0
100
AcDbLine
  6
CONTINUOUS
 62
7
370
30
 10
641.901604845416
 20
49.0468753942484
 11
644.211004845416
 21
45.0468753942484
  0
LINE
  5
15E
100
AcDbEntity
  8
0-0
100
AcDbLine
  6
CONTINUOUS
 62
7
370
30
 10
641.901603845416
 20
44.0468753942484
 11
639.592203845416
 21
40.0469153942484
  0
LINE
  5
15F
100
AcDbEntity
  8
0-0
100
AcDbLine
  6
CONTINUOUS
 62
7
370
30
 10
639.592204845416
 20
40.0469143942484
 11
644.211003845416
 21
40.0469143942484
  0
LINE
  5
160
100
AcDbEntity
  8
0-0
100
AcDbLine
  6
CONTINUOUS
 62
7
370
30
 10
641.901604845416
 20
44.0468753942484
 11
644.211003845416
 21
40.0469153942484
  0
LINE
  5
161
100
AcDbEntity
  8
0-0
100
AcDbLine
  6
CONTINUOUS
 62
7
370
30
 10
641.901604845416
 20
39.0469153942484
 11
639.592204845416
 21
35.0469153942484
  0
LINE
  5
162
100
AcDbEntity
  8
0-0
100
AcDbLine
  6
CONTINUOUS
 62
7
370
30
 10
639.592204845416
 20
35.0469143942484
 11
644.211003845416
 21
35.0469143942484
  0
LINE
  5
163
100
AcDbEntity
  8
0-0
100
AcDbLine
  6
CONTINUOUS
 62
7
370
30
 10
641.901604845416
 20
39.0469153942484
 11
644.211004845416
 21
35.0469153942484
  0
TEXT
  5
164
100
AcDbEntity
  8
0-0
 62
7
100
AcDbText
  6
BYLAYER
 62
7
 10
638.608500845416
 20
30.3421303942484
 40
3.103449
  1
来歴
  7
Font_0
100
AcDbText
  0
TEXT
  5
165
100
AcDbEntity
  8
0-0
 62
7
100
AcDbText
  6
BYLAYER
 62
7
 10
697.384178500927
 20
25.3938553942484
 40
3
  1
製図
  7
Font_0
100
AcDbText
  0
TEXT
  5
166
100
AcDbEntity
  8
0-0
 62
7
100
AcDbText
  6
BYLAYER
 62
7
 10
669.50055363765
 20
25.3938553942484
 40
3
  1
検図
  7
Font_0
100
AcDbText
  0
TEXT
  5
167
100
AcDbEntity
  8
0-0
 62
7
100
AcDbText
  6
BYLAYER
 62
7
 10
655.643781916873
 20
25.3938553942484
 40
3
  1
承認
  7
Font_0
100
AcDbText
  0
TEXT
  5
168
100
AcDbEntity
  8
0-0
 62
7
100
AcDbText
  6
BYLAYER
 62
7
 10
712.401604845416
 20
24.3938553942484
 40
3
  1
品名
  7
Font_0
100
AcDbText
  0
POINT
  5
169
100
AcDbEntity
  8
0-0
100
AcDbPoint
 62
7
 10
722.401604845415
 20
24.1074153942484
  0
POINT
  5
16A
100
AcDbEntity
  8
0-0
100
AcDbPoint
 62
7
 10
722.401604845415
 20
15.6587453942484
  0
TEXT
  5
16B
100
AcDbEntity
  8
0-0
 62
7
100
AcDbText
  6
BYLAYER
 62
7
 10
640.793704845416
 20
25.1616853942484
 40
3
  1
尺度
  7
Font_0
100
AcDbText
  0
LINE
  5
16C
100
AcDbEntity
  8
0-0
100
AcDbLine
  6
CONTINUOUS
 62
7
370
30
 10
641.289508845416
 20
14.1093653212403
 11
647.937103845416
 21
20.7570173212404
  0
POINT
  5
16D
100
AcDbEntity
  8
0-0
100
AcDbPoint
 62
7
 10
658.401604845416
 20
18.3938553942484
  0
POINT
  5
16E
100
AcDbEntity
  8
0-0
100
AcDbPoint
 62
7
 10
686.401604845416
 20
18.3938553942484
  0
POINT
  5
16F
100
AcDbEntity
  8
0-0
100
AcDbPoint
 62
7
 10
700.401604845416
 20
18.3938553942484
  0
LINE
  5
170
100
AcDbEntity
  8
0-0
100
AcDbLine
  6
CONTINUOUS
 62
7
370
30
 10
637.401604845416
 20
39.3938553942484
 11
835.59914371769
 21
39.3938553942484
  0
LINE
  5
171
100
AcDbEntity
  8
0-0
100
AcDbLine
  6
CONTINUOUS
 62
7
370
30
 10
637.401604845416
 20
44.3938553942484
 11
835.59914371769
 21
44.3938553942484
  0
LINE
  5
172
100
AcDbEntity
  8
0-0
100
AcDbLine
  6
CONTINUOUS
 62
7
370
30
 10
637.401604845416
 20
49.3938553942484
 11
835.59914371769
 21
49.3938553942484
  0
POINT
  5
173
100
AcDbEntity
  8
0-0
100
AcDbPoint
 62
7
 10
672.401604845416
 20
18.3938553942484
  0
TEXT
  5
174
100
AcDbEntity
  8
0-0
 62
7
100
AcDbText
  6
BYLAYER
 62
7
 10
709.589671715182
 20
30.3438543942484
 40
3.1
  1
品番
  7
Font_0
 11
709.589671715182
 21
33.4438543942484
100
AcDbText
 73
3
  0
TEXT
  5
175
100
AcDbEntity
  8
0-0
 62
7
100
AcDbText
  6
BYLAYER
 62
7
 10
732.979991409695
 20
30.3438543942484
 40
3.1
  1
部品名
  7
Font_0
 11
732.979991409695
 21
33.4438543942484
100
AcDbText
 73
3
  0
TEXT
  5
176
100
AcDbEntity
  8
0-0
 62
7
100
AcDbText
  6
BYLAYER
 62
7
 10
766.75072460138
 20
30.3438543942484
 40
3.1
  1
材　質
  7
Font_0
 11
766.75072460138
 21
33.4438543942484
100
AcDbText
 73
3
  0
TEXT
  5
177
100
AcDbEntity
  8
0-0
 62
7
100
AcDbText
  6
BYLAYER
 62
7
 10
788.50638152951
 20
30.3438543942484
 40
3.1
  1
数量
  7
Font_0
 11
788.50638152951
 21
33.4438543942484
100
AcDbText
 73
3
  0
TEXT
  5
178
100
AcDbEntity
  8
0-0
 62
7
100
AcDbText
  6
BYLAYER
 62
7
 10
811.728523073341
 20
30.3438543942484
 40
3.1
  1
備　考
  7
Font_0
 11
811.728523073341
 21
33.4438543942484
100
AcDbText
 73
3
  0
TEXT
  5
179
100
AcDbEntity
  8
0-0
 62
7
100
AcDbText
  6
BYLAYER
 62
7
 10
683.334607782825
 20
25.3938553942484
 40
3
  1
検図
  7
Font_0
100
AcDbText
  0
TEXT
  5
17A
100
AcDbEntity
  8
0-0
 62
5
100
AcDbText
  6
CONTINUOUS
 62
5
 10
711.594491350087
 20
34.8938553942484
 40
4
  1
1
  7
Font_0
 11
711.594491350087
 21
38.8938553942484
100
AcDbText
 73
3
  0
TEXT
  5
17B
100
AcDbEntity
  8
0-0
100
AcDbText
  6
CONTINUOUS
 10
638.607341231261
 20
16.0903946608341
 40
5
  1
１
  7
Font_0
 11
638.607341231261
 21
21.0903946608341
100
AcDbText
 73
3
  0
TEXT
  5
17C
100
AcDbEntity
  8
0-0
100
AcDbText
  6
CONTINUOUS
 10
645.259988006635
 20
14.0865853911432
 40
5
  1
１
  7
Font_0
 11
645.259988006635
 21
19.0865853911432
100
AcDbText
 73
3
  0
LINE
  5
17D
100
AcDbEntity
  8
0-0
100
AcDbLine
  6
CONTINUOUS
 62
7
370
30
 10
668.400715250251
 20
54.3938753942484
 11
668.400715250251
 21
29.3938553942484
  0
LINE
  5
17E
100
AcDbEntity
  8
0-0
100
AcDbLine
  6
DOT
 62
7
370
30
 10
637.401604845416
 20
24.3938553942484
 11
707.401604845416
 21
24.3938553942484
  0
LINE
  5
17F
100
AcDbEntity
  8
0-0
100
AcDbLine
  6
CONTINUOUS
 62
7
370
30
 10
717.401150509031
 20
54.3938753942484
 11
717.401150509031
 21
29.3938553942484
  0
LINE
  5
180
100
AcDbEntity
  8
0-0
100
AcDbLine
  6
CONTINUOUS
 62
7
370
30
 10
756.404311887724
 20
54.3938753942484
 11
756.404311887724
 21
29.3938553942484
  0
LINE
  5
181
100
AcDbEntity
  8
0-0
100
AcDbLine
  6
CONTINUOUS
 62
7
370
30
 10
786.404943759105
 20
54.3938753942484
 11
786.404943759105
 21
29.3938553942484
  0
LINE
  5
182
100
AcDbEntity
  8
0-0
100
AcDbLine
  6
CONTINUOUS
 62
7
370
30
 10
796.403360967947
 20
54.3938753942484
 11
796.403360967947
 21
29.3938553942484
  0
LINE
  5
183
100
AcDbEntity
  8
0-0
100
AcDbLine
  6
CONTINUOUS
 62
7
370
30
 10
5.00000000000001
 20
588.414092069289
 11
5
 21
11.391351
  0
LINE
  5
184
100
AcDbEntity
  8
0-0
100
AcDbLine
  6
CONTINUOUS
 62
7
370
30
 10
5.00000000000001
 20
588.414092069289
 11
835.6009494163
 21
588.414092069289
  0
LINE
  5
185
100
AcDbEntity
  8
0-0
100
AcDbLine
  6
CONTINUOUS
370
13
 10
401.105667121388
 20
236.076813500058
 11
401.105667121388
 21
119.079480342881
  0
LINE
  5
186
100
AcDbEntity
  8
0-0
100
AcDbLine
  6
CONTINUOUS
370
13
 10
105.165821773762
 20
358.622539940767
 11
225.165821773762
 21
358.622539940767
  0
ARC
  5
187
100
AcDbEntity
  8
0-0
100
AcDbCircle
  6
CONTINUOUS
370
13
 10
479.105667121388
 20
219.579480342881
 40
1.5
100
AcDbArc
 50
0
 51
180
  0
ARC
  5
188
100
AcDbEntity
  8
0-0
100
AcDbCircle
  6
CONTINUOUS
370
13
 10
479.105667121388
 20
192.579480342881
 40
1.5
100
AcDbArc
 50
180
 51
0
  0
LINE
  5
189
100
AcDbEntity
  8
0-0
100
AcDbLine
  6
CONTINUOUS
370
13
 10
477.605667121388
 20
219.579480342881
 11
477.605667121388
 21
192.579480342881
  0
LINE
  5
18A
100
AcDbEntity
  8
0-0
100
AcDbLine
  6
CONTINUOUS
370
13
 10
480.605667121388
 20
219.579480342881
 11
480.605667121388
 21
192.579480342881
  0
ARC
  5
18B
100
AcDbEntity
  8
0-0
100
AcDbCircle
  6
CONTINUOUS
370
13
 10
485.105667121388
 20
219.579480342881
 40
1.5
100
AcDbArc
 50
0
 51
180
  0
ARC
  5
18C
100
AcDbEntity
  8
0-0
100
AcDbCircle
  6
CONTINUOUS
370
13
 10
485.105667121388
 20
192.579480342881
 40
1.5
100
AcDbArc
 50
180
 51
0
  0
LINE
  5
18D
100
AcDbEntity
  8
0-0
100
AcDbLine
  6
CONTINUOUS
370
13
 10
483.605667121388
 20
219.579480342881
 11
483.605667121388
 21
192.579480342881
  0
LINE
  5
18E
100
AcDbEntity
  8
0-0
100
AcDbLine
  6
CONTINUOUS
370
13
 10
486.605667121388
 20
219.579480342881
 11
486.605667121388
 21
192.579480342881
  0
ARC
  5
18F
100
AcDbEntity
  8
0-0
100
AcDbCircle
  6
CONTINUOUS
370
13
 10
491.105667121388
 20
219.579480342881
 40
1.5
100
AcDbArc
 50
0
 51
180
  0
ARC
  5
190
100
AcDbEntity
  8
0-0
100
AcDbCircle
  6
CONTINUOUS
370
13
 10
491.105667121388
 20
192.579480342881
 40
1.5
100
AcDbArc
 50
180
 51
0
  0
LINE
  5
191
100
AcDbEntity
  8
0-0
100
AcDbLine
  6
CONTINUOUS
370
13
 10
489.605667121388
 20
219.579480342881
 11
489.605667121388
 21
192.579480342881
  0
LINE
  5
192
100
AcDbEntity
  8
0-0
100
AcDbLine
  6
CONTINUOUS
370
13
 10
492.605667121388
 20
219.579480342881
 11
492.605667121388
 21
192.579480342881
  0
ARC
  5
193
100
AcDbEntity
  8
0-0
100
AcDbCircle
  6
CONTINUOUS
370
13
 10
497.105667121388
 20
219.579480342881
 40
1.5
100
AcDbArc
 50
0
 51
180
  0
ARC
  5
194
100
AcDbEntity
  8
0-0
100
AcDbCircle
  6
CONTINUOUS
370
13
 10
497.105667121388
 20
192.579480342881
 40
1.5
100
AcDbArc
 50
180
 51
0
  0
LINE
  5
195
100
AcDbEntity
  8
0-0
100
AcDbLine
  6
CONTINUOUS
370
13
 10
495.605667121388
 20
219.579480342881
 11
495.605667121388
 21
192.579480342881
  0
LINE
  5
196
100
AcDbEntity
  8
0-0
100
AcDbLine
  6
CONTINUOUS
370
13
 10
498.605667121388
 20
219.579480342881
 11
498.605667121388
 21
192.579480342881
  0
ARC
  5
197
100
AcDbEntity
  8
0-0
100
AcDbCircle
  6
CONTINUOUS
370
13
 10
503.105667121388
 20
219.579480342881
 40
1.5
100
AcDbArc
 50
0
 51
180
  0
ARC
  5
198
100
AcDbEntity
  8
0-0
100
AcDbCircle
  6
CONTINUOUS
370
13
 10
503.105667121388
 20
192.579480342881
 40
1.5
100
AcDbArc
 50
180
 51
0
  0
LINE
  5
199
100
AcDbEntity
  8
0-0
100
AcDbLine
  6
CONTINUOUS
370
13
 10
501.605667121388
 20
219.579480342881
 11
501.605667121388
 21
192.579480342881
  0
LINE
  5
19A
100
AcDbEntity
  8
0-0
100
AcDbLine
  6
CONTINUOUS
370
13
 10
504.605667121388
 20
219.579480342881
 11
504.605667121388
 21
192.579480342881
  0
ARC
  5
19B
100
AcDbEntity
  8
0-0
100
AcDbCircle
  6
CONTINUOUS
370
13
 10
509.105667121388
 20
219.579480342881
 40
1.5
100
AcDbArc
 50
0
 51
180
  0
ARC
  5
19C
100
AcDbEntity
  8
0-0
100
AcDbCircle
  6
CONTINUOUS
370
13
 10
509.105667121388
 20
192.579480342881
 40
1.5
100
AcDbArc
 50
180
 51
0
  0
LINE
  5
19D
100
AcDbEntity
  8
0-0
100
AcDbLine
  6
CONTINUOUS
370
13
 10
507.605667121388
 20
219.579480342881
 11
507.605667121388
 21
192.579480342881
  0
LINE
  5
19E
100
AcDbEntity
  8
0-0
100
AcDbLine
  6
CONTINUOUS
370
13
 10
510.605667121388
 20
219.579480342881
 11
510.605667121388
 21
192.579480342881
  0
LINE
  5
19F
100
AcDbEntity
  8
0-0
100
AcDbLine
  6
CONTINUOUS
370
13
 10
225.165821773762
 20
119.079480342881
 11
105.165821773762
 21
119.079480342881
  0
LINE
  5
1A0
100
AcDbEntity
  8
0-0
100
AcDbLine
  6
CONTINUOUS
370
13
 10
541.105667121388
 20
145.279480342881
 11
541.105667121388
 21
131.27948034288
  0
LINE
  5
1A1
100
AcDbEntity
  8
0-0
100
AcDbLine
  6
CONTINUOUS
370
13
 10
542.805667121388
 20
145.279480342881
 11
541.105667121388
 21
145.279480342881
  0
LINE
  5
1A2
100
AcDbEntity
  8
0-0
100
AcDbLine
  6
CONTINUOUS
370
13
 10
542.805667121388
 20
131.27948034288
 11
541.105667121388
 21
131.27948034288
  0
LINE
  5
1A3
100
AcDbEntity
  8
0-0
100
AcDbLine
  6
CONTINUOUS
370
13
 10
543.105667121388
 20
144.97948034288
 11
543.105667121388
 21
131.579480342881
  0
ARC
  5
1A4
100
AcDbEntity
  8
0-0
100
AcDbCircle
  6
CONTINUOUS
370
13
 10
542.805667121388
 20
131.579480342881
 40
0.299999999999954
100
AcDbArc
 50
270
 51
0
  0
ARC
  5
1A5
100
AcDbEntity
  8
0-0
100
AcDbCircle
  6
CONTINUOUS
370
13
 10
542.805667121388
 20
144.97948034288
 40
0.299999999999954
100
AcDbArc
 50
0
 51
90
  0
LINE
  5
1A6
100
AcDbEntity
  8
0-0
100
AcDbLine
  6
CONTINUOUS
370
13
 10
122.915821773762
 20
113.579480342881
 11
123.265821773762
 21
119.079480342881
  0
LINE
  5
1A7
100
AcDbEntity
  8
0-0
100
AcDbLine
  6
CONTINUOUS
370
13
 10
123.265821773762
 20
119.079480342881
 11
109.065821773762
 21
119.079480342881
  0
LINE
  5
1A8
100
AcDbEntity
  8
0-0
100
AcDbLine
  6
CONTINUOUS
370
13
 10
109.065821773762
 20
119.079480342881
 11
109.415821773762
 21
113.579480342881
  0
LINE
  5
1A9
100
AcDbEntity
  8
0-0
100
AcDbLine
  6
CONTINUOUS
370
13
 10
109.415821773762
 20
113.579480342881
 11
122.915821773762
 21
113.579480342881
  0
LINE
  5
1AA
100
AcDbEntity
  8
0-0
100
AcDbLine
  6
CONTINUOUS
370
13
 10
220.915821773762
 20
113.579480342881
 11
221.265821773762
 21
119.079480342881
  0
LINE
  5
1AB
100
AcDbEntity
  8
0-0
100
AcDbLine
  6
CONTINUOUS
370
13
 10
221.265821773762
 20
119.079480342881
 11
207.065821773762
 21
119.079480342881
  0
LINE
  5
1AC
100
AcDbEntity
  8
0-0
100
AcDbLine
  6
CONTINUOUS
370
13
 10
207.065821773762
 20
119.079480342881
 11
207.415821773762
 21
113.579480342881
  0
LINE
  5
1AD
100
AcDbEntity
  8
0-0
100
AcDbLine
  6
CONTINUOUS
370
13
 10
207.415821773762
 20
113.579480342881
 11
220.915821773762
 21
113.579480342881
  0
LINE
  5
1AE
100
AcDbEntity
  8
0-0
100
AcDbLine
  6
CONTINUOUS
370
13
 10
417.844049867134
 20
113.579480342881
 11
418.130413503498
 21
118.079480342881
  0
LINE
  5
1AF
100
AcDbEntity
  8
0-0
100
AcDbLine
  6
CONTINUOUS
370
13
 10
404.057686230771
 20
118.079480342881
 11
404.344049867134
 21
113.579480342881
  0
LINE
  5
1B0
100
AcDbEntity
  8
0-0
100
AcDbLine
  6
CONTINUOUS
370
13
 10
404.344049867134
 20
113.579480342881
 11
417.844049867134
 21
113.579480342881
  0
LINE
  5
1B1
100
AcDbEntity
  8
0-0
100
AcDbLine
  6
CONTINUOUS
370
13
 10
533.855667121388
 20
113.579480342881
 11
534.142030757752
 21
118.079480342881
  0
LINE
  5
1B2
100
AcDbEntity
  8
0-0
100
AcDbLine
  6
CONTINUOUS
370
13
 10
520.069303485025
 20
118.079480342881
 11
520.355667121388
 21
113.579480342881
  0
LINE
  5
1B3
100
AcDbEntity
  8
0-0
100
AcDbLine
  6
CONTINUOUS
370
13
 10
520.355667121388
 20
113.579480342881
 11
533.855667121388
 21
113.579480342881
  0
LINE
  5
1B4
100
AcDbEntity
  8
0-0
100
AcDbLine
  6
CONTINUOUS
370
13
 10
541.105667121388
 20
259.876813500058
 11
541.105667121388
 21
120.279480342881
  0
CIRCLE
  5
1B5
100
AcDbEntity
  8
0-0
100
AcDbCircle
  6
CONTINUOUS
370
13
 10
130.165821773762
 20
428.622539940767
 40
3.25
  0
CIRCLE
  5
1B6
100
AcDbEntity
  8
0-0
100
AcDbCircle
  6
CONTINUOUS
370
13
 10
152.165821773762
 20
428.622539940767
 40
3.25
  0
LINE
  5
1B7
100
AcDbEntity
  8
0-0
100
AcDbLine
  6
CONTINUOUS
370
13
 10
194.065821773762
 20
434.722539940767
 11
194.065821773762
 21
422.522539940767
  0
LINE
  5
1B8
100
AcDbEntity
  8
0-0
100
AcDbLine
  6
CONTINUOUS
370
13
 10
206.265821773762
 20
434.722539940767
 11
206.265821773762
 21
422.522539940767
  0
LINE
  5
1B9
100
AcDbEntity
  8
0-0
100
AcDbLine
  6
CONTINUOUS
370
13
 10
194.065821773762
 20
418.722539940767
 11
194.065821773762
 21
406.522539940767
  0
LINE
  5
1BA
100
AcDbEntity
  8
0-0
100
AcDbLine
  6
CONTINUOUS
370
13
 10
206.265821773762
 20
418.722539940767
 11
206.265821773762
 21
406.522539940767
  0
LINE
  5
1BB
100
AcDbEntity
  8
0-0
100
AcDbLine
  6
CONTINUOUS
370
13
 10
194.065821773762
 20
418.722539940767
 11
206.265821773762
 21
418.722539940767
  0
LINE
  5
1BC
100
AcDbEntity
  8
0-0
100
AcDbLine
  6
CONTINUOUS
370
13
 10
194.065821773762
 20
406.522539940767
 11
206.265821773762
 21
406.522539940767
  0
LINE
  5
1BD
100
AcDbEntity
  8
0-0
100
AcDbLine
  6
CONTINUOUS
370
13
 10
194.065821773762
 20
422.522539940767
 11
206.265821773762
 21
422.522539940767
  0
LINE
  5
1BE
100
AcDbEntity
  8
0-0
100
AcDbLine
  6
CONTINUOUS
370
13
 10
194.065821773762
 20
434.722539940767
 11
206.265821773762
 21
434.722539940767
  0
LINE
  5
1BF
100
AcDbEntity
  8
0-0
100
AcDbLine
  6
CONTINUOUS
370
13
 10
123.415821773762
 20
450.372539940767
 11
158.915821773762
 21
450.372539940767
  0
LINE
  5
1C0
100
AcDbEntity
  8
0-0
100
AcDbLine
  6
CONTINUOUS
370
13
 10
123.415821773762
 20
438.872539940767
 11
158.915821773762
 21
438.872539940767
  0
LINE
  5
1C1
100
AcDbEntity
  8
0-0
100
AcDbLine
  6
CONTINUOUS
370
13
 10
123.415821773762
 20
450.372539940767
 11
123.415821773762
 21
438.872539940767
  0
LINE
  5
1C2
100
AcDbEntity
  8
0-0
100
AcDbLine
  6
CONTINUOUS
370
13
 10
158.915821773762
 20
450.372539940767
 11
158.915821773762
 21
438.872539940767
  0
CIRCLE
  5
1C3
100
AcDbEntity
  8
0-0
100
AcDbCircle
  6
CONTINUOUS
370
13
 10
163.165821773762
 20
454.622539940767
 40
1.5
  0
CIRCLE
  5
1C4
100
AcDbEntity
  8
0-0
100
AcDbCircle
  6
CONTINUOUS
370
13
 10
163.165821773762
 20
449.622539940767
 40
1.5
  0
CIRCLE
  5
1C5
100
AcDbEntity
  8
0-0
100
AcDbCircle
  6
CONTINUOUS
370
13
 10
163.165821773762
 20
444.622539940767
 40
1.5
  0
CIRCLE
  5
1C6
100
AcDbEntity
  8
0-0
100
AcDbCircle
  6
CONTINUOUS
370
13
 10
163.165821773762
 20
439.622539940767
 40
1.5
  0
LINE
  5
1C7
100
AcDbEntity
  8
0-0
100
AcDbLine
  6
CONTINUOUS
370
13
 10
105.165821773762
 20
358.622539940767
 11
105.165821773762
 21
498.622539940767
  0
LINE
  5
1C8
100
AcDbEntity
  8
0-0
100
AcDbLine
  6
CONTINUOUS
370
13
 10
225.165821773762
 20
358.622539940767
 11
225.165821773762
 21
498.622539940767
  0
LINE
  5
1C9
100
AcDbEntity
  8
0-0
100
AcDbLine
  6
CONTINUOUS
370
13
 10
426.105667121388
 20
261.076813500058
 11
541.105667121388
 21
261.076813500058
  0
LINE
  5
1CA
100
AcDbEntity
  8
0-0
100
AcDbLine
  6
CONTINUOUS
370
13
 10
225.165821773762
 20
261.076813500058
 11
105.165821773762
 21
261.076813500058
  0
LINE
  5
1CB
100
AcDbEntity
  8
0-0
100
AcDbLine
  6
CONTINUOUS
370
13
 10
426.105667121388
 20
261.076813500058
 11
401.105667121388
 21
236.076813500058
  0
LINE
  5
1CC
100
AcDbEntity
  8
0-0
100
AcDbLine
  6
CONTINUOUS
370
13
 10
105.165821773762
 20
119.079480342881
 11
105.165821773762
 21
261.076813500058
  0
LINE
  5
1CD
100
AcDbEntity
  8
0-0
100
AcDbLine
  6
CONTINUOUS
370
13
 10
105.165821773762
 20
358.622539940767
 11
225.165821773762
 21
358.622539940767
  0
LINE
  5
1CE
100
AcDbEntity
  8
0-0
100
AcDbLine
  6
CONTINUOUS
370
13
 10
105.165821773762
 20
498.622539940767
 11
225.165821773762
 21
498.622539940767
  0
LINE
  5
1CF
100
AcDbEntity
  8
0-0
100
AcDbLine
  6
CONTINUOUS
370
13
 10
540.605667121388
 20
261.076813500058
 11
426.105667121388
 21
261.076813500058
  0
LINE
  5
1D0
100
AcDbEntity
  8
0-0
100
AcDbLine
  6
CONTINUOUS
370
13
 10
426.105667121388
 20
261.076813500058
 11
401.105667121388
 21
236.076813500058
  0
LINE
  5
1D1
100
AcDbEntity
  8
0-0
100
AcDbLine
  6
CONTINUOUS
370
13
 10
401.105667121388
 20
118.579480342881
 11
401.105667121388
 21
236.076813500058
  0
LINE
  5
1D2
100
AcDbEntity
  8
0-0
100
AcDbLine
  6
CONTINUOUS
370
13
 10
541.105667121388
 20
118.579480342881
 11
541.105667121388
 21
260.576813500058
  0
CIRCLE
  5
1D3
100
AcDbEntity
  8
0-0
100
AcDbCircle
  6
CONTINUOUS
370
13
 10
421.105667121388
 20
125.079480342881
 40
2.75
  0
CIRCLE
  5
1D4
100
AcDbEntity
  8
0-0
100
AcDbCircle
  6
CONTINUOUS
370
13
 10
521.105667121388
 20
125.079480342881
 40
2.75
  0
CIRCLE
  5
1D5
100
AcDbEntity
  8
0-0
100
AcDbCircle
  6
CONTINUOUS
370
13
 10
521.105667121388
 20
255.076813500058
 40
2.75
  0
CIRCLE
  5
1D6
100
AcDbEntity
  8
0-0
100
AcDbCircle
  6
CONTINUOUS
370
13
 10
436.105667121388
 20
255.076813500058
 40
2.75
  0
CIRCLE
  5
1D7
100
AcDbEntity
  8
0-0
100
AcDbCircle
  6
CONTINUOUS
370
13
 10
535.105667121388
 20
195.079480342881
 40
2.75
  0
LINE
  5
1D8
100
AcDbEntity
  8
0-0
100
AcDbLine
  6
CONTINUOUS
370
13
 10
105.165821773762
 20
383.622539940767
 11
225.165821773762
 21
383.622539940767
  0
LWPOLYLINE
  5
1D9
100
AcDbEntity
  8
0-0
100
AcDbPolyline
  6
CONTINUOUS
370
13
 90
     4
 70
     1
 10
105.165821773762
  20
261.076813500058
 10
103.965821773762
  20
261.076813500058
 10
103.965821773762
  20
118.076813500057
 10
105.165821773762
  20
118.076813500057
  0
LINE
  5
1DA
100
AcDbEntity
  8
0-0
100
AcDbLine
  6
CONTINUOUS
370
13
 10
226.365821773762
 20
261.076813500058
 11
225.165821773762
 21
261.076813500058
  0
LINE
  5
1DB
100
AcDbEntity
  8
0-0
100
AcDbLine
  6
CONTINUOUS
370
13
 10
225.165821773762
 20
118.076813500057
 11
226.365821773762
 21
118.076813500057
  0
LINE
  5
1DC
100
AcDbEntity
  8
0-0
100
AcDbLine
  6
CONTINUOUS
370
13
 10
540.605667121388
 20
118.079480342881
 11
401.605667121388
 21
118.079480342881
  0
LINE
  5
1DD
100
AcDbEntity
  8
0-0
100
AcDbLine
  6
CONTINUOUS
370
13
 10
401.605667121388
 20
118.079480342881
 11
401.105667121388
 21
118.579480342881
  0
LINE
  5
1DE
100
AcDbEntity
  8
0-0
100
AcDbLine
  6
CONTINUOUS
370
13
 10
540.605667121388
 20
118.079480342881
 11
541.105667121388
 21
118.579480342881
  0
LWPOLYLINE
  5
1DF
100
AcDbEntity
  8
0-0
100
AcDbPolyline
  6
CONTINUOUS
370
13
 90
     4
 70
     1
 10
226.365821773762
  20
498.622539940767
 10
225.165821773762
  20
498.622539940767
 10
225.165821773762
  20
358.622539940767
 10
226.365821773762
  20
358.622539940767
  0
LWPOLYLINE
  5
1E0
100
AcDbEntity
  8
0-0
100
AcDbPolyline
  6
CONTINUOUS
370
13
 90
     4
 70
     1
 10
105.165821773762
  20
498.622539940767
 10
103.965821773762
  20
498.622539940767
 10
103.965821773762
  20
358.622539940767
 10
105.165821773762
  20
358.622539940767
  0
CIRCLE
  5
1E1
100
AcDbEntity
  8
0-0
100
AcDbCircle
  6
CONTINUOUS
370
13
 10
202.165821773762
 20
492.622539940767
 40
2.75
  0
CIRCLE
  5
1E2
100
AcDbEntity
  8
0-0
100
AcDbCircle
  6
CONTINUOUS
370
13
 10
128.165821773762
 20
492.622539940767
 40
2.75
  0
LINE
  5
1E3
100
AcDbEntity
  8
0-0
100
AcDbLine
  6
CONTINUOUS
370
13
 10
401.650044738077
 20
352.364107353368
 11
521.650044738077
 21
352.364107353368
  0
LINE
  5
1E4
100
AcDbEntity
  8
0-0
100
AcDbLine
  6
DASHED
370
13
 10
401.650044738077
 20
353.564107353368
 11
521.650044738077
 21
353.564107353368
  0
LINE
  5
1E5
100
AcDbEntity
  8
0-0
100
AcDbLine
  6
HIDDEN
370
13
 10
513.750044738077
 20
347.864107353368
 11
513.191027738077
 21
347.864107353368
  0
LINE
  5
1E6
100
AcDbEntity
  8
0-0
100
AcDbLine
  6
HIDDEN
370
13
 10
513.191027738077
 20
347.864107353368
 11
512.841027738077
 21
347.164107353368
  0
LINE
  5
1E7
100
AcDbEntity
  8
0-0
100
AcDbLine
  6
HIDDEN
370
13
 10
512.841027738077
 20
347.164107353368
 11
511.650044738077
 21
347.164107353368
  0
LINE
  5
1E8
100
AcDbEntity
  8
0-0
100
AcDbLine
  6
HIDDEN
370
13
 10
512.900044738077
 20
350.364107353368
 11
512.650044738077
 21
349.564107353368
  0
LINE
  5
1E9
100
AcDbEntity
  8
0-0
100
AcDbLine
  6
HIDDEN
370
13
 10
512.650044738077
 20
349.564107353368
 11
511.650044738077
 21
349.564107353368
  0
LINE
  5
1EA
100
AcDbEntity
  8
0-0
100
AcDbLine
  6
HIDDEN
370
13
 10
508.400044738077
 20
350.364107353368
 11
509.650044738077
 21
350.364107353368
  0
LINE
  5
1EB
100
AcDbEntity
  8
0-0
100
AcDbLine
  6
CONTINUOUS
370
13
 10
513.150044738077
 20
346.664107353368
 11
508.150044738077
 21
346.664107353368
  0
LINE
  5
1EC
100
AcDbEntity
  8
0-0
100
AcDbLine
  6
CONTINUOUS
370
13
 10
503.900044738077
 20
346.864107353368
 11
503.550044738077
 21
352.364107353368
  0
LINE
  5
1ED
100
AcDbEntity
  8
0-0
100
AcDbLine
  6
CONTINUOUS
370
13
 10
503.550044738077
 20
352.364107353368
 11
517.750044738077
 21
352.364107353368
  0
LINE
  5
1EE
100
AcDbEntity
  8
0-0
100
AcDbLine
  6
HIDDEN
370
13
 10
512.150044738077
 20
350.364107353368
 11
512.150044738077
 21
352.364107353368
  0
LINE
  5
1EF
100
AcDbEntity
  8
0-0
100
AcDbLine
  6
CONTINUOUS
370
13
 10
508.150044738077
 20
346.664107353368
 11
508.050044738077
 21
346.864107353368
  0
LINE
  5
1F0
100
AcDbEntity
  8
0-0
100
AcDbLine
  6
HIDDEN
370
13
 10
513.750044738077
 20
347.864107353368
 11
513.250044738077
 21
346.864107353368
  0
LINE
  5
1F1
100
AcDbEntity
  8
0-0
100
AcDbLine
  6
HIDDEN
370
13
 10
512.200044738077
 20
350.464107353368
 11
514.050044738077
 21
350.464107353368
  0
LINE
  5
1F2
100
AcDbEntity
  8
0-0
100
AcDbLine
  6
HIDDEN
370
13
 10
508.650044738077
 20
349.564107353368
 11
508.400044738077
 21
350.364107353368
  0
LINE
  5
1F3
100
AcDbEntity
  8
0-0
100
AcDbLine
  6
HIDDEN
370
13
 10
512.200044738077
 20
352.364107353368
 11
512.200044738077
 21
350.464107353368
  0
LINE
  5
1F4
100
AcDbEntity
  8
0-0
100
AcDbLine
  6
HIDDEN
370
13
 10
509.100044738077
 20
352.364107353368
 11
509.100044738077
 21
350.464107353368
  0
LINE
  5
1F5
100
AcDbEntity
  8
0-0
100
AcDbLine
  6
HIDDEN
370
13
 10
507.250044738077
 20
346.864107353368
 11
507.250044738077
 21
350.464107353368
  0
LINE
  5
1F6
100
AcDbEntity
  8
0-0
100
AcDbLine
  6
HIDDEN
370
13
 10
507.250044738077
 20
350.464107353368
 11
509.100044738077
 21
350.464107353368
  0
LINE
  5
1F7
100
AcDbEntity
  8
0-0
100
AcDbLine
  6
HIDDEN
370
13
 10
514.050044738077
 20
350.464107353368
 11
514.050044738077
 21
346.864107353368
  0
LINE
  5
1F8
100
AcDbEntity
  8
0-0
100
AcDbLine
  6
CONTINUOUS
370
13
 10
512.050044738076
 20
355.864107353368
 11
510.900044738077
 21
355.864107353368
  0
LINE
  5
1F9
100
AcDbEntity
  8
0-0
100
AcDbLine
  6
CONTINUOUS
370
13
 10
517.750044738077
 20
352.364107353368
 11
517.400044738077
 21
346.864107353368
  0
LINE
  5
1FA
100
AcDbEntity
  8
0-0
100
AcDbLine
  6
HIDDEN
370
13
 10
508.050044738077
 20
346.864107353368
 11
507.550044738077
 21
347.864107353368
  0
LINE
  5
1FB
100
AcDbEntity
  8
0-0
100
AcDbLine
  6
HIDDEN
370
13
 10
509.650044738077
 20
349.564107353368
 11
508.650044738077
 21
349.564107353368
  0
LINE
  5
1FC
100
AcDbEntity
  8
0-0
100
AcDbLine
  6
HIDDEN
370
13
 10
511.650044738077
 20
350.364107353368
 11
512.900044738077
 21
350.364107353368
  0
LINE
  5
1FD
100
AcDbEntity
  8
0-0
100
AcDbLine
  6
HIDDEN
370
13
 10
509.650044738077
 20
347.164107353368
 11
508.459061738077
 21
347.164107353368
  0
LINE
  5
1FE
100
AcDbEntity
  8
0-0
100
AcDbLine
  6
CONTINUOUS
370
13
 10
517.400044738077
 20
346.864107353368
 11
503.900044738077
 21
346.864107353368
  0
ARC
  5
1FF
100
AcDbEntity
  8
0-0
100
AcDbCircle
  6
CONTINUOUS
370
13
 10
511.550044738076
 20
353.764107353368
 40
0.100000000000023
100
AcDbArc
 50
3.25689E-11
 51
89.9999999999674
  0
ARC
  5
200
100
AcDbEntity
  8
0-0
100
AcDbCircle
  6
CONTINUOUS
370
13
 10
509.750044738077
 20
353.764107353368
 40
0.100000000000023
100
AcDbArc
 50
90
 51
180
  0
LINE
  5
201
100
AcDbEntity
  8
0-0
100
AcDbLine
  6
CONTINUOUS
370
13
 10
510.400044738077
 20
355.864107353368
 11
510.400044738077
 21
354.464107353368
  0
LINE
  5
202
100
AcDbEntity
  8
0-0
100
AcDbLine
  6
CONTINUOUS
370
13
 10
510.400044738077
 20
355.864107353368
 11
509.250044738077
 21
355.864107353368
  0
LINE
  5
203
100
AcDbEntity
  8
0-0
100
AcDbLine
  6
CONTINUOUS
370
13
 10
512.150044738077
 20
352.364107353368
 11
512.150044738077
 21
355.764107353368
  0
LINE
  5
204
100
AcDbEntity
  8
0-0
100
AcDbLine
  6
CONTINUOUS
370
13
 10
510.900044738077
 20
354.464107353368
 11
511.650044738077
 21
354.464107353368
  0
LINE
  5
205
100
AcDbEntity
  8
0-0
100
AcDbLine
  6
HIDDEN
370
13
 10
509.650044738077
 20
352.364107353368
 11
509.650044738077
 21
347.164107353368
  0
LINE
  5
206
100
AcDbEntity
  8
0-0
100
AcDbLine
  6
CONTINUOUS
370
13
 10
511.550044738077
 20
353.864107353368
 11
509.750044738077
 21
353.864107353368
  0
LINE
  5
207
100
AcDbEntity
  8
0-0
100
AcDbLine
  6
CONTINUOUS
370
13
 10
510.900044738077
 20
355.864107353368
 11
510.900044738077
 21
354.464107353368
  0
LINE
  5
208
100
AcDbEntity
  8
0-0
100
AcDbLine
  6
CONTINUOUS
370
13
 10
511.650044738077
 20
352.364107353368
 11
511.650044738077
 21
354.464107353368
  0
LINE
  5
209
100
AcDbEntity
  8
0-0
100
AcDbLine
  6
HIDDEN
370
13
 10
509.150044738077
 20
352.364107353368
 11
509.150044738077
 21
350.364107353368
  0
LINE
  5
20A
100
AcDbEntity
  8
0-0
100
AcDbLine
  6
CONTINUOUS
370
13
 10
510.400044738077
 20
354.464107353368
 11
509.650044738077
 21
354.464107353368
  0
LINE
  5
20B
100
AcDbEntity
  8
0-0
100
AcDbLine
  6
CONTINUOUS
370
13
 10
513.250044738077
 20
346.864107353368
 11
513.150044738077
 21
346.664107353368
  0
LINE
  5
20C
100
AcDbEntity
  8
0-0
100
AcDbLine
  6
HIDDEN
370
13
 10
508.109061738077
 20
347.864107353368
 11
507.550044738077
 21
347.864107353368
  0
LINE
  5
20D
100
AcDbEntity
  8
0-0
100
AcDbLine
  6
HIDDEN
370
13
 10
508.459061738077
 20
347.164107353368
 11
508.109061738077
 21
347.864107353368
  0
LINE
  5
20E
100
AcDbEntity
  8
0-0
100
AcDbLine
  6
HIDDEN
370
13
 10
508.461504738077
 20
347.164107353368
 11
508.459061738077
 21
347.164107353368
  0
LINE
  5
20F
100
AcDbEntity
  8
0-0
100
AcDbLine
  6
CONTINUOUS
370
13
 10
509.650044738077
 20
354.464107353368
 11
509.650044738077
 21
352.364107353368
  0
LINE
  5
210
100
AcDbEntity
  8
0-0
100
AcDbLine
  6
HIDDEN
370
13
 10
511.650044738077
 20
347.164107353368
 11
511.650044738077
 21
352.364107353368
  0
ARC
  5
211
100
AcDbEntity
  8
0-0
100
AcDbCircle
  6
CONTINUOUS
370
13
 10
509.250044738077
 20
355.764107353368
 40
0.100000000000023
100
AcDbArc
 50
90
 51
180
  0
ARC
  5
212
100
AcDbEntity
  8
0-0
100
AcDbCircle
  6
CONTINUOUS
370
13
 10
512.050044738077
 20
355.764107353368
 40
0.100000000000023
100
AcDbArc
 50
359.999999999984
 51
90.0000000000326
  0
LINE
  5
213
100
AcDbEntity
  8
0-0
100
AcDbLine
  6
CONTINUOUS
370
13
 10
509.150044738077
 20
355.764107353368
 11
509.150044738077
 21
352.364107353368
  0
LINE
  5
214
100
AcDbEntity
  8
0-0
100
AcDbLine
  6
HIDDEN
370
13
 10
415.750044738077
 20
347.864107353368
 11
415.191027738077
 21
347.864107353368
  0
LINE
  5
215
100
AcDbEntity
  8
0-0
100
AcDbLine
  6
HIDDEN
370
13
 10
415.191027738077
 20
347.864107353368
 11
414.841027738077
 21
347.164107353368
  0
LINE
  5
216
100
AcDbEntity
  8
0-0
100
AcDbLine
  6
HIDDEN
370
13
 10
414.841027738077
 20
347.164107353368
 11
413.650044738077
 21
347.164107353368
  0
LINE
  5
217
100
AcDbEntity
  8
0-0
100
AcDbLine
  6
HIDDEN
370
13
 10
414.900044738077
 20
350.364107353368
 11
414.650044738077
 21
349.564107353368
  0
LINE
  5
218
100
AcDbEntity
  8
0-0
100
AcDbLine
  6
HIDDEN
370
13
 10
414.650044738077
 20
349.564107353368
 11
413.650044738077
 21
349.564107353368
  0
LINE
  5
219
100
AcDbEntity
  8
0-0
100
AcDbLine
  6
HIDDEN
370
13
 10
410.400044738077
 20
350.364107353368
 11
411.650044738077
 21
350.364107353368
  0
LINE
  5
21A
100
AcDbEntity
  8
0-0
100
AcDbLine
  6
CONTINUOUS
370
13
 10
415.150044738077
 20
346.664107353368
 11
410.150044738077
 21
346.664107353368
  0
LINE
  5
21B
100
AcDbEntity
  8
0-0
100
AcDbLine
  6
CONTINUOUS
370
13
 10
405.900044738077
 20
346.864107353368
 11
405.550044738077
 21
352.364107353368
  0
LINE
  5
21C
100
AcDbEntity
  8
0-0
100
AcDbLine
  6
CONTINUOUS
370
13
 10
405.550044738077
 20
352.364107353368
 11
419.750044738077
 21
352.364107353368
  0
LINE
  5
21D
100
AcDbEntity
  8
0-0
100
AcDbLine
  6
HIDDEN
370
13
 10
414.150044738077
 20
350.364107353368
 11
414.150044738077
 21
352.364107353368
  0
LINE
  5
21E
100
AcDbEntity
  8
0-0
100
AcDbLine
  6
CONTINUOUS
370
13
 10
410.150044738077
 20
346.664107353368
 11
410.050044738077
 21
346.864107353368
  0
LINE
  5
21F
100
AcDbEntity
  8
0-0
100
AcDbLine
  6
HIDDEN
370
13
 10
415.750044738077
 20
347.864107353368
 11
415.250044738077
 21
346.864107353368
  0
LINE
  5
220
100
AcDbEntity
  8
0-0
100
AcDbLine
  6
HIDDEN
370
13
 10
414.200044738077
 20
350.464107353368
 11
416.050044738077
 21
350.464107353368
  0
LINE
  5
221
100
AcDbEntity
  8
0-0
100
AcDbLine
  6
HIDDEN
370
13
 10
410.650044738077
 20
349.564107353368
 11
410.400044738077
 21
350.364107353368
  0
LINE
  5
222
100
AcDbEntity
  8
0-0
100
AcDbLine
  6
HIDDEN
370
13
 10
414.200044738077
 20
352.364107353368
 11
414.200044738077
 21
350.464107353368
  0
LINE
  5
223
100
AcDbEntity
  8
0-0
100
AcDbLine
  6
HIDDEN
370
13
 10
411.100044738077
 20
352.364107353368
 11
411.100044738077
 21
350.464107353368
  0
LINE
  5
224
100
AcDbEntity
  8
0-0
100
AcDbLine
  6
HIDDEN
370
13
 10
409.250044738077
 20
346.864107353368
 11
409.250044738077
 21
350.464107353368
  0
LINE
  5
225
100
AcDbEntity
  8
0-0
100
AcDbLine
  6
HIDDEN
370
13
 10
409.250044738077
 20
350.464107353368
 11
411.100044738077
 21
350.464107353368
  0
LINE
  5
226
100
AcDbEntity
  8
0-0
100
AcDbLine
  6
HIDDEN
370
13
 10
416.050044738077
 20
350.464107353368
 11
416.050044738077
 21
346.864107353368
  0
LINE
  5
227
100
AcDbEntity
  8
0-0
100
AcDbLine
  6
CONTINUOUS
370
13
 10
414.050044738077
 20
355.864107353368
 11
412.900044738077
 21
355.864107353368
  0
LINE
  5
228
100
AcDbEntity
  8
0-0
100
AcDbLine
  6
CONTINUOUS
370
13
 10
419.750044738077
 20
352.364107353368
 11
419.400044738077
 21
346.864107353368
  0
LINE
  5
229
100
AcDbEntity
  8
0-0
100
AcDbLine
  6
HIDDEN
370
13
 10
410.050044738077
 20
346.864107353368
 11
409.550044738077
 21
347.864107353368
  0
LINE
  5
22A
100
AcDbEntity
  8
0-0
100
AcDbLine
  6
HIDDEN
370
13
 10
411.650044738077
 20
349.564107353368
 11
410.650044738077
 21
349.564107353368
  0
LINE
  5
22B
100
AcDbEntity
  8
0-0
100
AcDbLine
  6
HIDDEN
370
13
 10
413.650044738077
 20
350.364107353368
 11
414.900044738077
 21
350.364107353368
  0
LINE
  5
22C
100
AcDbEntity
  8
0-0
100
AcDbLine
  6
HIDDEN
370
13
 10
411.650044738077
 20
347.164107353368
 11
410.459061738077
 21
347.164107353368
  0
LINE
  5
22D
100
AcDbEntity
  8
0-0
100
AcDbLine
  6
CONTINUOUS
370
13
 10
419.400044738077
 20
346.864107353368
 11
405.900044738077
 21
346.864107353368
  0
ARC
  5
22E
100
AcDbEntity
  8
0-0
100
AcDbCircle
  6
CONTINUOUS
370
13
 10
413.550044738077
 20
353.764107353368
 40
0.100000000000023
100
AcDbArc
 50
0
 51
90
  0
ARC
  5
22F
100
AcDbEntity
  8
0-0
100
AcDbCircle
  6
CONTINUOUS
370
13
 10
411.750044738077
 20
353.764107353368
 40
0.100000000000023
100
AcDbArc
 50
90.0000000000326
 51
179.999999999984
  0
LINE
  5
230
100
AcDbEntity
  8
0-0
100
AcDbLine
  6
CONTINUOUS
370
13
 10
412.400044738077
 20
355.864107353368
 11
412.400044738077
 21
354.464107353368
  0
LINE
  5
231
100
AcDbEntity
  8
0-0
100
AcDbLine
  6
CONTINUOUS
370
13
 10
412.400044738077
 20
355.864107353368
 11
411.250044738077
 21
355.864107353368
  0
LINE
  5
232
100
AcDbEntity
  8
0-0
100
AcDbLine
  6
CONTINUOUS
370
13
 10
414.150044738077
 20
352.364107353368
 11
414.150044738077
 21
355.764107353368
  0
LINE
  5
233
100
AcDbEntity
  8
0-0
100
AcDbLine
  6
CONTINUOUS
370
13
 10
412.900044738077
 20
354.464107353368
 11
413.650044738077
 21
354.464107353368
  0
LINE
  5
234
100
AcDbEntity
  8
0-0
100
AcDbLine
  6
HIDDEN
370
13
 10
411.650044738077
 20
352.364107353368
 11
411.650044738077
 21
347.164107353368
  0
LINE
  5
235
100
AcDbEntity
  8
0-0
100
AcDbLine
  6
CONTINUOUS
370
13
 10
413.550044738077
 20
353.864107353368
 11
411.750044738077
 21
353.864107353368
  0
LINE
  5
236
100
AcDbEntity
  8
0-0
100
AcDbLine
  6
CONTINUOUS
370
13
 10
412.900044738077
 20
355.864107353368
 11
412.900044738077
 21
354.464107353368
  0
LINE
  5
237
100
AcDbEntity
  8
0-0
100
AcDbLine
  6
CONTINUOUS
370
13
 10
413.650044738077
 20
352.364107353368
 11
413.650044738077
 21
354.464107353368
  0
LINE
  5
238
100
AcDbEntity
  8
0-0
100
AcDbLine
  6
HIDDEN
370
13
 10
411.150044738077
 20
352.364107353368
 11
411.150044738077
 21
350.364107353368
  0
LINE
  5
239
100
AcDbEntity
  8
0-0
100
AcDbLine
  6
CONTINUOUS
370
13
 10
412.400044738077
 20
354.464107353368
 11
411.650044738077
 21
354.464107353368
  0
LINE
  5
23A
100
AcDbEntity
  8
0-0
100
AcDbLine
  6
CONTINUOUS
370
13
 10
415.250044738077
 20
346.864107353368
 11
415.150044738077
 21
346.664107353368
  0
LINE
  5
23B
100
AcDbEntity
  8
0-0
100
AcDbLine
  6
HIDDEN
370
13
 10
410.109061738077
 20
347.864107353368
 11
409.550044738077
 21
347.864107353368
  0
LINE
  5
23C
100
AcDbEntity
  8
0-0
100
AcDbLine
  6
HIDDEN
370
13
 10
410.459061738077
 20
347.164107353368
 11
410.109061738077
 21
347.864107353368
  0
LINE
  5
23D
100
AcDbEntity
  8
0-0
100
AcDbLine
  6
HIDDEN
370
13
 10
410.461504738077
 20
347.164107353368
 11
410.459061738077
 21
347.164107353368
  0
LINE
  5
23E
100
AcDbEntity
  8
0-0
100
AcDbLine
  6
CONTINUOUS
370
13
 10
411.650044738077
 20
354.464107353368
 11
411.650044738077
 21
352.364107353368
  0
LINE
  5
23F
100
AcDbEntity
  8
0-0
100
AcDbLine
  6
HIDDEN
370
13
 10
413.650044738077
 20
347.164107353368
 11
413.650044738077
 21
352.364107353368
  0
ARC
  5
240
100
AcDbEntity
  8
0-0
100
AcDbCircle
  6
CONTINUOUS
370
13
 10
411.250044738077
 20
355.764107353368
 40
0.100000000000023
100
AcDbArc
 50
90
 51
180
  0
ARC
  5
241
100
AcDbEntity
  8
0-0
100
AcDbCircle
  6
CONTINUOUS
370
13
 10
414.050044738077
 20
355.764107353368
 40
0.100000000000023
100
AcDbArc
 50
0
 51
90
  0
LINE
  5
242
100
AcDbEntity
  8
0-0
100
AcDbLine
  6
CONTINUOUS
370
13
 10
411.150044738077
 20
355.764107353368
 11
411.150044738077
 21
352.364107353368
  0
LINE
  5
243
100
AcDbEntity
  8
0-0
100
AcDbLine
  6
DASHED
370
13
 10
401.650044738077
 20
493.161440510545
 11
521.650044738077
 21
493.161440510545
  0
LINE
  5
244
100
AcDbEntity
  8
0-0
100
AcDbLine
  6
CONTINUOUS
370
13
 10
401.650044738077
 20
494.361440510545
 11
521.650044738077
 21
494.361440510545
  0
LINE
  5
245
100
AcDbEntity
  8
0-0
100
AcDbLine
  6
CONTINUOUS
370
13
 10
521.650044738077
 20
352.364107353368
 11
521.650044738077
 21
494.361440510545
  0
LINE
  5
246
100
AcDbEntity
  8
0-0
100
AcDbLine
  6
CONTINUOUS
370
13
 10
401.650044738077
 20
352.364107353368
 11
401.650044738077
 21
494.361440510545
  0
CIRCLE
  5
247
100
AcDbEntity
  8
0-0
100
AcDbCircle
  6
CONTINUOUS
370
13
 10
449.210493484171
 20
371.564107353368
 40
1.54999999999995
  0
LINE
  5
248
100
AcDbEntity
  8
0-0
100
AcDbLine
  6
CONTINUOUS
370
13
 10
455.800493484171
 20
374.914107353368
 11
467.62049348417
 21
374.914107353368
  0
LINE
  5
249
100
AcDbEntity
  8
0-0
100
AcDbLine
  6
CONTINUOUS
370
13
 10
455.560493484171
 20
375.514107353368
 11
467.860493484171
 21
375.514107353368
  0
LINE
  5
24A
100
AcDbEntity
  8
0-0
100
AcDbLine
  6
CONTINUOUS
370
13
 10
469.590108990195
 20
372.566810998034
 11
469.114026142282
 21
369.866810998034
  0
LINE
  5
24B
100
AcDbEntity
  8
0-0
100
AcDbLine
  6
CONTINUOUS
370
13
 10
469.830108990195
 20
373.166810998034
 11
469.142433765432
 21
369.266810998034
  0
CIRCLE
  5
24C
100
AcDbEntity
  8
0-0
100
AcDbCircle
  6
CONTINUOUS
370
13
 10
474.210493484171
 20
371.564107353368
 40
1.54999999999995
  0
CIRCLE
  5
24D
100
AcDbEntity
  8
0-0
100
AcDbCircle
  6
CONTINUOUS
370
13
 10
467.250493484171
 20
373.562134947444
 40
0.5
  0
ARC
  5
24E
100
AcDbEntity
  8
0-0
100
AcDbCircle
  6
CONTINUOUS
370
13
 10
467.172818259408
 20
369.614107353368
 40
2
100
AcDbArc
 50
270
 51
350.000000000001
  0
ARC
  5
24F
100
AcDbEntity
  8
0-0
100
AcDbCircle
  6
CONTINUOUS
370
13
 10
467.144410636257
 20
370.214107353368
 40
2
100
AcDbArc
 50
270
 51
350.000000000001
  0
LINE
  5
250
100
AcDbEntity
  8
0-0
100
AcDbLine
  6
CONTINUOUS
370
13
 10
453.590877978146
 20
373.166810998034
 11
454.278553202909
 21
369.266810998034
  0
LINE
  5
251
100
AcDbEntity
  8
0-0
100
AcDbLine
  6
CONTINUOUS
370
13
 10
453.830877978147
 20
372.566810998034
 11
454.306960826059
 21
369.866810998035
  0
CIRCLE
  5
252
100
AcDbEntity
  8
0-0
100
AcDbCircle
  6
CONTINUOUS
370
13
 10
463.095493484171
 20
369.566079759293
 40
0.5
  0
CIRCLE
  5
253
100
AcDbEntity
  8
0-0
100
AcDbCircle
  6
CONTINUOUS
370
13
 10
457.555493484171
 20
369.566079759293
 40
0.5
  0
CIRCLE
  5
254
100
AcDbEntity
  8
0-0
100
AcDbCircle
  6
CONTINUOUS
370
13
 10
460.325493484171
 20
369.566079759293
 40
0.5
  0
CIRCLE
  5
255
100
AcDbEntity
  8
0-0
100
AcDbCircle
  6
CONTINUOUS
370
13
 10
464.48049348417
 20
373.562134947444
 40
0.5
  0
CIRCLE
  5
256
100
AcDbEntity
  8
0-0
100
AcDbCircle
  6
CONTINUOUS
370
13
 10
461.71049348417
 20
373.562134947444
 40
0.5
  0
CIRCLE
  5
257
100
AcDbEntity
  8
0-0
100
AcDbCircle
  6
CONTINUOUS
370
13
 10
458.94049348417
 20
373.562134947444
 40
0.5
  0
CIRCLE
  5
258
100
AcDbEntity
  8
0-0
100
AcDbCircle
  6
CONTINUOUS
370
13
 10
456.17049348417
 20
373.562134947444
 40
0.5
  0
ARC
  5
259
100
AcDbEntity
  8
0-0
100
AcDbCircle
  6
CONTINUOUS
370
13
 10
456.276576332084
 20
370.214107353368
 40
2
100
AcDbArc
 50
189.999999999999
 51
270
  0
ARC
  5
25A
100
AcDbEntity
  8
0-0
100
AcDbCircle
  6
CONTINUOUS
370
13
 10
456.248168708934
 20
369.614107353368
 40
2
100
AcDbArc
 50
189.999999999999
 51
270
  0
CIRCLE
  5
25B
100
AcDbEntity
  8
0-0
100
AcDbCircle
  6
CONTINUOUS
370
13
 10
463.095493484171
 20
369.566079759293
 40
0.740688034259961
  0
CIRCLE
  5
25C
100
AcDbEntity
  8
0-0
100
AcDbCircle
  6
CONTINUOUS
370
13
 10
460.325493484171
 20
369.566079759293
 40
0.740688034259961
  0
CIRCLE
  5
25D
100
AcDbEntity
  8
0-0
100
AcDbCircle
  6
CONTINUOUS
370
13
 10
457.555493484171
 20
369.566079759293
 40
0.740688034259961
  0
LINE
  5
25E
100
AcDbEntity
  8
0-0
100
AcDbLine
  6
CONTINUOUS
370
13
 10
456.248168708934
 20
367.614107353368
 11
467.172818259408
 21
367.614107353368
  0
LINE
  5
25F
100
AcDbEntity
  8
0-0
100
AcDbLine
  6
CONTINUOUS
370
13
 10
456.276576332084
 20
368.214107353368
 11
467.144410636257
 21
368.214107353368
  0
CIRCLE
  5
260
100
AcDbEntity
  8
0-0
100
AcDbCircle
  6
CONTINUOUS
370
13
 10
465.865493484171
 20
369.566079759293
 40
0.5
  0
CIRCLE
  5
261
100
AcDbEntity
  8
0-0
100
AcDbCircle
  6
CONTINUOUS
370
13
 10
465.865493484171
 20
369.566079759293
 40
0.740688034259961
  0
ARC
  5
262
100
AcDbEntity
  8
0-0
100
AcDbCircle
  6
CONTINUOUS
370
13
 10
455.800493484171
 20
372.914107353368
 40
2
100
AcDbArc
 50
90
 51
189.999999999999
  0
ARC
  5
263
100
AcDbEntity
  8
0-0
100
AcDbCircle
  6
CONTINUOUS
370
13
 10
455.560493484171
 20
373.514107353368
 40
2
100
AcDbArc
 50
90
 51
189.999999999999
  0
ARC
  5
264
100
AcDbEntity
  8
0-0
100
AcDbCircle
  6
CONTINUOUS
370
13
 10
467.62049348417
 20
372.914107353368
 40
2
100
AcDbArc
 50
350.000000000001
 51
90
  0
ARC
  5
265
100
AcDbEntity
  8
0-0
100
AcDbCircle
  6
CONTINUOUS
370
13
 10
467.860493484171
 20
373.514107353368
 40
2
100
AcDbArc
 50
350.000000000001
 51
90
  0
CIRCLE
  5
266
100
AcDbEntity
  8
0-0
100
AcDbCircle
  6
CONTINUOUS
370
13
 10
456.17049348417
 20
373.562134947444
 40
0.740688034259961
  0
CIRCLE
  5
267
100
AcDbEntity
  8
0-0
100
AcDbCircle
  6
CONTINUOUS
370
13
 10
458.94049348417
 20
373.562134947444
 40
0.740688034259961
  0
CIRCLE
  5
268
100
AcDbEntity
  8
0-0
100
AcDbCircle
  6
CONTINUOUS
370
13
 10
461.71049348417
 20
373.562134947444
 40
0.740688034259961
  0
CIRCLE
  5
269
100
AcDbEntity
  8
0-0
100
AcDbCircle
  6
CONTINUOUS
370
13
 10
464.48049348417
 20
373.562134947444
 40
0.740688034259961
  0
CIRCLE
  5
26A
100
AcDbEntity
  8
0-0
100
AcDbCircle
  6
CONTINUOUS
370
13
 10
467.250493484171
 20
373.562134947444
 40
0.740688034259961
  0
CIRCLE
  5
26B
100
AcDbEntity
  8
0-0
100
AcDbCircle
  6
CONTINUOUS
370
13
 10
449.210493484171
 20
371.564107353368
 40
1.54999999999995
  0
CIRCLE
  5
26C
100
AcDbEntity
  8
0-0
100
AcDbCircle
  6
BYLAYER
370
13
 10
449.210493484171
 20
371.564107353369
 40
0.889999999999986
  0
CIRCLE
  5
26D
100
AcDbEntity
  8
0-0
100
AcDbCircle
  6
BYLAYER
370
13
 10
449.210493484171
 20
371.564107353369
 40
1.14999999999998
  0
LWPOLYLINE
  5
26E
100
AcDbEntity
  8
0-0
100
AcDbPolyline
  6
BYLAYER
370
13
 90
     6
 70
     1
 10
447.911455378494
  20
373.814107353369
 10
446.612417272817
  20
371.564107353369
 10
447.911455378494
  20
369.314107353369
 10
450.509531589847
  20
369.314107353369
 10
451.808569695524
  20
371.564107353369
 10
450.509531589847
  20
373.814107353369
  0
CIRCLE
  5
26F
100
AcDbEntity
  8
0-0
100
AcDbCircle
  6
BYLAYER
370
13
 10
449.210493484171
 20
371.564107353369
 40
2.25
  0
CIRCLE
  5
270
100
AcDbEntity
  8
0-0
100
AcDbCircle
  6
BYLAYER
370
13
 10
474.210493484171
 20
371.564107353369
 40
0.889999999999986
  0
CIRCLE
  5
271
100
AcDbEntity
  8
0-0
100
AcDbCircle
  6
BYLAYER
370
13
 10
474.210493484171
 20
371.564107353369
 40
1.14999999999998
  0
LWPOLYLINE
  5
272
100
AcDbEntity
  8
0-0
100
AcDbPolyline
  6
BYLAYER
370
13
 90
     6
 70
     1
 10
472.911455378494
  20
373.814107353369
 10
471.612417272817
  20
371.564107353369
 10
472.911455378494
  20
369.314107353369
 10
475.509531589847
  20
369.314107353369
 10
476.808569695524
  20
371.564107353369
 10
475.509531589847
  20
373.814107353369
  0
CIRCLE
  5
273
100
AcDbEntity
  8
0-0
100
AcDbCircle
  6
BYLAYER
370
13
 10
474.210493484171
 20
371.564107353369
 40
2.25
  0
CIRCLE
  5
274
100
AcDbEntity
  8
0-0
100
AcDbCircle
  6
CONTINUOUS
370
13
 10
503.650044738077
 20
371.564107353368
 40
7.60000000000002
  0
CIRCLE
  5
275
100
AcDbEntity
  8
0-0
100
AcDbCircle
  6
CONTINUOUS
370
13
 10
503.650044738077
 20
371.564107353368
 40
9.5
  0
CIRCLE
  5
276
100
AcDbEntity
  8
0-0
100
AcDbCircle
  6
CONTINUOUS
370
13
 10
503.650044738077
 20
371.564107353368
 40
6.54999999999995
  0
CIRCLE
  5
277
100
AcDbEntity
  8
0-0
100
AcDbCircle
  6
CONTINUOUS
370
13
 10
500.650044738077
 20
374.564107353368
 40
1
  0
CIRCLE
  5
278
100
AcDbEntity
  8
0-0
100
AcDbCircle
  6
CONTINUOUS
370
13
 10
500.650044738077
 20
368.564107353368
 40
1
  0
CIRCLE
  5
279
100
AcDbEntity
  8
0-0
100
AcDbCircle
  6
CONTINUOUS
370
13
 10
506.650044738077
 20
374.564107353368
 40
1
  0
CIRCLE
  5
27A
100
AcDbEntity
  8
0-0
100
AcDbCircle
  6
CONTINUOUS
370
13
 10
506.650044738077
 20
368.564107353368
 40
1
  0
LINE
  5
27B
100
AcDbEntity
  8
0-0
100
AcDbLine
  6
BYLAYER
370
13
 10
412.650044738077
 20
474.06410735337
 11
426.650044738077
 21
474.06410735337
  0
LINE
  5
27C
100
AcDbEntity
  8
0-0
100
AcDbLine
  6
BYLAYER
370
13
 10
412.650044738077
 20
453.06410735337
 11
426.650044738077
 21
453.06410735337
  0
LINE
  5
27D
100
AcDbEntity
  8
0-0
100
AcDbLine
  6
BYLAYER
370
13
 10
412.150044738077
 20
453.56410735337
 11
412.150044738077
 21
473.56410735337
  0
LINE
  5
27E
100
AcDbEntity
  8
0-0
100
AcDbLine
  6
BYLAYER
370
13
 10
427.150044738077
 20
453.56410735337
 11
427.150044738077
 21
473.56410735337
  0
LINE
  5
27F
100
AcDbEntity
  8
0-0
100
AcDbLine
  6
BYLAYER
370
13
 10
414.250080738077
 20
471.56410735337
 11
425.049946738077
 21
471.56410735337
  0
LINE
  5
280
100
AcDbEntity
  8
0-0
100
AcDbLine
  6
BYLAYER
370
13
 10
414.250080738077
 20
455.56410735337
 11
425.049946738077
 21
455.56410735337
  0
LINE
  5
281
100
AcDbEntity
  8
0-0
100
AcDbLine
  6
BYLAYER
370
13
 10
414.250080738077
 20
455.56410735337
 11
414.250080738077
 21
471.56410735337
  0
LINE
  5
282
100
AcDbEntity
  8
0-0
100
AcDbLine
  6
BYLAYER
370
13
 10
425.049946738077
 20
455.56410735337
 11
425.049946738077
 21
471.56410735337
  0
LINE
  5
283
100
AcDbEntity
  8
0-0
100
AcDbLine
  6
BYLAYER
370
13
 10
418.849995738077
 20
472.56410735337
 11
418.849995738077
 21
473.06410735337
  0
LINE
  5
284
100
AcDbEntity
  8
0-0
100
AcDbLine
  6
BYLAYER
370
13
 10
420.449970738077
 20
472.56410735337
 11
420.449970738077
 21
473.06410735337
  0
LINE
  5
285
100
AcDbEntity
  8
0-0
100
AcDbLine
  6
BYLAYER
370
13
 10
418.849995738077
 20
473.06410735337
 11
420.449970738077
 21
473.06410735337
  0
LINE
  5
286
100
AcDbEntity
  8
0-0
100
AcDbLine
  6
BYLAYER
370
13
 10
418.849995738077
 20
472.56410735337
 11
420.449970738077
 21
472.56410735337
  0
LINE
  5
287
100
AcDbEntity
  8
0-0
100
AcDbLine
  6
BYLAYER
370
13
 10
425.000080738077
 20
470.78517635337
 11
419.649983738077
 21
470.78517635337
  0
LINE
  5
288
100
AcDbEntity
  8
0-0
100
AcDbLine
  6
BYLAYER
370
13
 10
419.649983738077
 20
470.78517635337
 11
414.299946738077
 21
470.78517635337
  0
LINE
  5
289
100
AcDbEntity
  8
0-0
100
AcDbLine
  6
BYLAYER
370
13
 10
425.000080738077
 20
455.85609935337
 11
414.299946738077
 21
455.85609935337
  0
LINE
  5
28A
100
AcDbEntity
  8
0-0
100
AcDbLine
  6
BYLAYER
370
13
 10
414.299946738077
 20
455.85609935337
 11
414.299946738077
 21
471.56410735337
  0
LINE
  5
28B
100
AcDbEntity
  8
0-0
100
AcDbLine
  6
BYLAYER
370
13
 10
425.000080738077
 20
455.85609935337
 11
425.000080738077
 21
471.56410735337
  0
LINE
  5
28C
100
AcDbEntity
  8
0-0
100
AcDbLine
  6
BYLAYER
370
13
 10
202.315846773762
 20
504.243450940767
 11
205.415821773762
 21
504.243450940767
  0
LINE
  5
28D
100
AcDbEntity
  8
0-0
100
AcDbLine
  6
BYLAYER
370
13
 10
205.415821773762
 20
504.243450940767
 11
212.015919773762
 21
504.243450940767
  0
LINE
  5
28E
100
AcDbEntity
  8
0-0
100
AcDbLine
  6
BYLAYER
370
13
 10
201.815846773762
 20
500.622539940767
 11
201.815846773762
 21
503.743450940767
  0
LINE
  5
28F
100
AcDbEntity
  8
0-0
100
AcDbLine
  6
BYLAYER
370
13
 10
212.515919773762
 20
500.622539940767
 11
212.515919773762
 21
503.743450940767
  0
LINE
  5
290
100
AcDbEntity
  8
0-0
100
AcDbLine
  6
BYLAYER
370
13
 10
200.240895773762
 20
500.622539940767
 11
214.089894773762
 21
500.622539940767
  0
LINE
  5
291
100
AcDbEntity
  8
0-0
100
AcDbLine
  6
BYLAYER
370
13
 10
199.665821773762
 20
498.622539940767
 11
214.665821773762
 21
498.622539940767
  0
LINE
  5
292
100
AcDbEntity
  8
0-0
100
AcDbLine
  6
BYLAYER
370
13
 10
214.588932773762
 20
500.147413940767
 11
214.665837773762
 21
498.622556940767
  0
LINE
  5
293
100
AcDbEntity
  8
0-0
100
AcDbLine
  6
BYLAYER
370
13
 10
199.741867773762
 20
500.147431940767
 11
199.665818773762
 21
498.622532940767
  0
LINE
  5
294
100
AcDbEntity
  8
0-0
100
AcDbLine
  6
BYLAYER
370
13
 10
543.105667121388
 20
240.204407342881
 11
543.105667121388
 21
220.355408342881
  0
LINE
  5
295
100
AcDbEntity
  8
0-0
100
AcDbLine
  6
BYLAYER
370
13
 10
542.630536121388
 20
240.70344034288
 11
541.105637121388
 21
240.77949034288
  0
LINE
  5
296
100
AcDbEntity
  8
0-0
100
AcDbLine
  6
BYLAYER
370
13
 10
542.630586121388
 20
219.855378342881
 11
541.105680121388
 21
219.77945034288
  0
LINE
  5
297
100
AcDbEntity
  8
0-0
100
AcDbLine
  6
BYLAYER
370
13
 10
542.630536121388
 20
240.70344034288
 11
541.105637121388
 21
240.77949034288
  0
LINE
  5
298
100
AcDbEntity
  8
0-0
100
AcDbLine
  6
BYLAYER
370
13
 10
543.105667121388
 20
240.204407342881
 11
543.105667121388
 21
237.642395342881
  0
LINE
  5
299
100
AcDbEntity
  8
0-0
100
AcDbLine
  6
BYLAYER
370
13
 10
546.402410121388
 20
225.256381342881
 11
544.944820121388
 21
224.122463342881
  0
CIRCLE
  5
29A
100
AcDbEntity
  8
0-0
100
AcDbCircle
  6
BYLAYER
370
13
 10
419.649983738077
 20
454.31410735337
 40
0.75
  0
ARC
  5
29B
100
AcDbEntity
  8
0-0
100
AcDbCircle
  6
BYLAYER
370
13
 10
412.650044738077
 20
473.56410735337
 40
0.5
100
AcDbArc
 50
90
 51
180.000003
  0
ARC
  5
29C
100
AcDbEntity
  8
0-0
100
AcDbCircle
  6
BYLAYER
370
13
 10
412.650044738077
 20
453.56410735337
 40
0.5
100
AcDbArc
 50
180.000003
 51
270.000005
  0
ARC
  5
29D
100
AcDbEntity
  8
0-0
100
AcDbCircle
  6
BYLAYER
370
13
 10
426.650044738077
 20
453.56410735337
 40
0.5
100
AcDbArc
 50
270.000009
 51
359.999997
  0
ARC
  5
29E
100
AcDbEntity
  8
0-0
100
AcDbCircle
  6
BYLAYER
370
13
 10
426.650044738077
 20
473.56410735337
 40
0.5
100
AcDbArc
 50
359.999997
 51
90
  0
ARC
  5
29F
100
AcDbEntity
  8
0-0
100
AcDbCircle
  6
BYLAYER
370
13
 10
202.315846773762
 20
503.743450940767
 40
0.5
100
AcDbArc
 50
90.000003
 51
180.000005
  0
ARC
  5
2A0
100
AcDbEntity
  8
0-0
100
AcDbCircle
  6
BYLAYER
370
13
 10
212.015919773762
 20
503.743450940767
 40
0.5
100
AcDbArc
 50
0
 51
90.000003
  0
ARC
  5
2A1
100
AcDbEntity
  8
0-0
100
AcDbCircle
  6
BYLAYER
370
13
 10
214.089894773762
 20
500.122539940767
 40
0.5
100
AcDbArc
 50
2.862367
 51
90.000003
  0
ARC
  5
2A2
100
AcDbEntity
  8
0-0
100
AcDbCircle
  6
BYLAYER
370
13
 10
200.240895773762
 20
500.122539940767
 40
0.5
100
AcDbArc
 50
90.000003
 51
177.137609
  0
ARC
  5
2A3
100
AcDbEntity
  8
0-0
100
AcDbCircle
  6
BYLAYER
370
13
 10
542.605667121388
 20
220.355408342881
 40
0.5
100
AcDbArc
 50
272.862417
 51
2.9999999924E-6
  0
ARC
  5
2A4
100
AcDbEntity
  8
0-0
100
AcDbCircle
  6
BYLAYER
370
13
 10
542.605667121388
 20
240.204407342881
 40
0.5
100
AcDbArc
 50
3.0000000119E-6
 51
87.137609
  0
ARC
  5
2A5
100
AcDbEntity
  8
0-0
100
AcDbCircle
  6
BYLAYER
370
13
 10
542.605667121388
 20
240.204407342881
 40
0.5
100
AcDbArc
 50
3.0000000119E-6
 51
87.138197
  0
ARC
  5
2A6
100
AcDbEntity
  8
0-0
100
AcDbCircle
  6
BYLAYER
370
13
 10
562.029922121388
 20
237.386414342881
 40
19
100
AcDbArc
 50
185.115693
 51
215.479613
  0
ARC
  5
2A7
100
AcDbEntity
  8
0-0
100
AcDbCircle
  6
BYLAYER
370
13
 10
545.911148121388
 20
225.888489342881
 40
0.799999999999955
100
AcDbArc
 50
307.877412
 51
35.503893
  0
ARC
  5
2A8
100
AcDbEntity
  8
0-0
100
AcDbCircle
  6
BYLAYER
370
13
 10
540.155655121388
 20
230.279480342881
 40
7.79999999999995
100
AcDbArc
 50
292.222639
 51
307.937961
  0
CIRCLE
  5
2A9
100
AcDbEntity
  8
0-0
100
AcDbCircle
  6
BYLAYER
370
13
 10
541.105667121388
 20
230.279480342881
 40
0.5
  0
CIRCLE
  5
2AA
100
AcDbEntity
  8
0-0
100
AcDbCircle
  6
BYLAYER
 62
1
370
13
 10
116.165821773762
 20
131.079480342881
 40
3.09999999999999
  0
CIRCLE
  5
2AB
100
AcDbEntity
  8
0-0
100
AcDbCircle
  6
BYLAYER
370
13
 10
116.165821773762
 20
131.079480342881
 40
4
  0
CIRCLE
  5
2AC
100
AcDbEntity
  8
0-0
100
AcDbCircle
  6
BYLAYER
370
13
 10
116.165821773762
 20
131.079480342881
 40
2.80000000000001
  0
CIRCLE
  5
2AD
100
AcDbEntity
  8
0-0
100
AcDbCircle
  6
BYLAYER
370
13
 10
116.165821773762
 20
131.079480342881
 40
1.75
  0
CIRCLE
  5
2AE
100
AcDbEntity
  8
0-0
100
AcDbCircle
  6
CONTINUOUS
370
13
 10
116.165821773762
 20
131.079480342881
 40
3.09999999999999
  0
CIRCLE
  5
2AF
100
AcDbEntity
  8
0-0
100
AcDbCircle
  6
BYLAYER
370
13
 10
116.165821773762
 20
131.079480342881
 40
4.75
  0
CIRCLE
  5
2B0
100
AcDbEntity
  8
0-0
100
AcDbCircle
  6
BYLAYER
370
13
 10
116.165821773762
 20
131.079480342881
 40
1.75
  0
LWPOLYLINE
  5
2B1
100
AcDbEntity
  8
0-0
100
AcDbPolyline
  6
BYLAYER
370
13
 90
     6
 70
     1
 10
119.944294126942
  20
128.648016054018
 10
120.160767792902
  20
133.136001243801
 10
116.382295439722
  20
135.567465532663
 10
112.387349420582
  20
133.510944631743
 10
112.170875754623
  20
129.022959441961
 10
115.949348107803
  20
126.591495153099
  0
CIRCLE
  5
2B2
100
AcDbEntity
  8
0-0
100
AcDbCircle
  6
CONTINUOUS
370
13
 10
116.165821773762
 20
131.079480342881
 40
2.75
  0
CIRCLE
  5
2B3
100
AcDbEntity
  8
0-0
100
AcDbCircle
  6
CONTINUOUS
370
13
 10
116.165821773762
 20
131.079480342881
 40
3.09999999999999
  0
LINE
  5
2B4
100
AcDbEntity
  8
0-0
100
AcDbLine
  6
BYLAYER
370
13
 10
399.605667121388
 20
127.079480342881
 11
399.605667121388
 21
135.079480342881
  0
LINE
  5
2B5
100
AcDbEntity
  8
0-0
100
AcDbLine
  6
BYLAYER
370
13
 10
401.105667121388
 20
127.079480342881
 11
401.105667121388
 21
135.079480342881
  0
LINE
  5
2B6
100
AcDbEntity
  8
0-0
100
AcDbLine
  6
BYLAYER
370
13
 10
397.805667121388
 20
128.079480342881
 11
397.805667121388
 21
134.079480342881
  0
LINE
  5
2B7
100
AcDbEntity
  8
0-0
100
AcDbLine
  6
BYLAYER
370
13
 10
397.805667121388
 20
133.879480342881
 11
399.605667121388
 21
133.879480342881
  0
LINE
  5
2B8
100
AcDbEntity
  8
0-0
100
AcDbLine
  6
BYLAYER
370
13
 10
397.805667121388
 20
134.079480342881
 11
399.605667121388
 21
134.079480342881
  0
LINE
  5
2B9
100
AcDbEntity
  8
0-0
100
AcDbLine
  6
BYLAYER
370
13
 10
401.105667121388
 20
135.079480342881
 11
399.605667121388
 21
135.079480342881
  0
LINE
  5
2BA
100
AcDbEntity
  8
0-0
100
AcDbLine
  6
BYLAYER
370
13
 10
397.805667121388
 20
128.279480342881
 11
399.605667121388
 21
128.279480342881
  0
LINE
  5
2BB
100
AcDbEntity
  8
0-0
100
AcDbLine
  6
BYLAYER
370
13
 10
397.805667121388
 20
128.079480342881
 11
399.605667121388
 21
128.079480342881
  0
LINE
  5
2BC
100
AcDbEntity
  8
0-0
100
AcDbLine
  6
BYLAYER
370
13
 10
401.105667121388
 20
127.079480342881
 11
399.605667121388
 21
127.079480342881
  0
LINE
  5
2BD
100
AcDbEntity
  8
0-0
100
AcDbLine
  6
CONTINUOUS
370
13
 10
123.765821773762
 20
450.122539940767
 11
158.765821773762
 21
450.122539940767
  0
LINE
  5
2BE
100
AcDbEntity
  8
0-0
100
AcDbLine
  6
CONTINUOUS
370
13
 10
123.765821773762
 20
439.122539940767
 11
158.765821773762
 21
439.122539940767
  0
LINE
  5
2BF
100
AcDbEntity
  8
0-0
100
AcDbLine
  6
CONTINUOUS
370
13
 10
123.765821773762
 20
439.122539940767
 11
123.765821773762
 21
450.122539940767
  0
LINE
  5
2C0
100
AcDbEntity
  8
0-0
100
AcDbLine
  6
CONTINUOUS
370
13
 10
158.765821773762
 20
439.122539940767
 11
158.765821773762
 21
450.122539940767
  0
CIRCLE
  5
2C1
100
AcDbEntity
  8
0-0
100
AcDbCircle
  6
CONTINUOUS
370
13
 10
130.165821773762
 20
428.622539940767
 40
3
  0
CIRCLE
  5
2C2
100
AcDbEntity
  8
0-0
100
AcDbCircle
  6
CONTINUOUS
370
13
 10
152.165821773762
 20
428.622539940767
 40
3
  0
LWPOLYLINE
  5
2C3
100
AcDbEntity
  8
0-0
100
AcDbPolyline
  6
CONTINUOUS
370
13
 90
     4
 70
     1
 10
206.165821773762
  20
434.622539940767
 10
194.165821773762
  20
434.622539940767
 10
194.165821773762
  20
422.622539940767
 10
206.165821773762
  20
422.622539940767
  0
LWPOLYLINE
  5
2C4
100
AcDbEntity
  8
0-0
100
AcDbPolyline
  6
CONTINUOUS
370
13
 90
     4
 70
     1
 10
206.165821773762
  20
418.622539940767
 10
194.165821773762
  20
418.622539940767
 10
194.165821773762
  20
406.622539940767
 10
206.165821773762
  20
406.622539940767
  0
LINE
  5
2C5
100
AcDbEntity
  8
0-0
100
AcDbLine
  6
CONTINUOUS
370
13
 10
194.165821773762
 20
262.576813500058
 11
194.165821773762
 21
261.076813500058
  0
LINE
  5
2C6
100
AcDbEntity
  8
0-0
100
AcDbLine
  6
CONTINUOUS
370
13
 10
206.165821773762
 20
262.576813500058
 11
206.165821773762
 21
261.076813500058
  0
LINE
  5
2C7
100
AcDbEntity
  8
0-0
100
AcDbLine
  6
CONTINUOUS
370
13
 10
194.165821773762
 20
262.576813500058
 11
206.165821773762
 21
262.576813500058
  0
LINE
  5
2C8
100
AcDbEntity
  8
0-0
100
AcDbLine
  6
CONTINUOUS
370
13
 10
127.165821773762
 20
262.376813500058
 11
127.165821773762
 21
261.076813500058
  0
LINE
  5
2C9
100
AcDbEntity
  8
0-0
100
AcDbLine
  6
CONTINUOUS
370
13
 10
149.165821773762
 20
262.376813500058
 11
149.165821773762
 21
261.076813500058
  0
LINE
  5
2CA
100
AcDbEntity
  8
0-0
100
AcDbLine
  6
CONTINUOUS
370
13
 10
155.165821773762
 20
262.376813500058
 11
155.165821773762
 21
261.076813500058
  0
LINE
  5
2CB
100
AcDbEntity
  8
0-0
100
AcDbLine
  6
CONTINUOUS
370
13
 10
133.165821773762
 20
262.376813500058
 11
133.165821773762
 21
261.076813500058
  0
LINE
  5
2CC
100
AcDbEntity
  8
0-0
100
AcDbLine
  6
CONTINUOUS
370
13
 10
155.165821773762
 20
262.376813500058
 11
149.165821773762
 21
262.376813500058
  0
LINE
  5
2CD
100
AcDbEntity
  8
0-0
100
AcDbLine
  6
CONTINUOUS
370
13
 10
133.165821773762
 20
262.376813500058
 11
127.165821773762
 21
262.376813500058
  0
LINE
  5
2CE
100
AcDbEntity
  8
0-0
100
AcDbLine
  6
CONTINUOUS
370
13
 10
449.105667121388
 20
262.576813500058
 11
449.105667121388
 21
261.076813500058
  0
LINE
  5
2CF
100
AcDbEntity
  8
0-0
100
AcDbLine
  6
CONTINUOUS
370
13
 10
461.105667121388
 20
262.576813500058
 11
461.105667121388
 21
261.076813500058
  0
LINE
  5
2D0
100
AcDbEntity
  8
0-0
100
AcDbLine
  6
CONTINUOUS
370
13
 10
465.105667121388
 20
262.576813500058
 11
465.105667121388
 21
261.076813500058
  0
LINE
  5
2D1
100
AcDbEntity
  8
0-0
100
AcDbLine
  6
CONTINUOUS
370
13
 10
477.105667121388
 20
262.576813500058
 11
477.105667121388
 21
261.076813500058
  0
LINE
  5
2D2
100
AcDbEntity
  8
0-0
100
AcDbLine
  6
CONTINUOUS
370
13
 10
465.105667121388
 20
262.576813500058
 11
477.105667121388
 21
262.576813500058
  0
LINE
  5
2D3
100
AcDbEntity
  8
0-0
100
AcDbLine
  6
CONTINUOUS
370
13
 10
449.105667121388
 20
262.576813500058
 11
461.105667121388
 21
262.576813500058
  0
LINE
  5
2D4
100
AcDbEntity
  8
0-0
100
AcDbLine
  6
CONTINUOUS
370
13
 10
105.165821773762
 20
259.876813500058
 11
105.165821773762
 21
120.279480342881
  0
CIRCLE
  5
2D5
100
AcDbEntity
  8
0-0
100
AcDbCircle
  6
CONTINUOUS
370
13
 10
120.165821773762
 20
444.622539940767
 40
1.5
  0
LINE
  5
2D6
100
AcDbEntity
  8
0-0
100
AcDbLine
  6
CONTINUOUS
370
13
 10
205.520763773762
 20
376.837539940767
 11
194.740855773762
 21
376.837539940767
  0
LINE
  5
2D7
100
AcDbEntity
  8
0-0
100
AcDbLine
  6
CONTINUOUS
370
13
 10
206.120763773762
 20
366.007539940767
 11
206.120763773762
 21
376.237539940768
  0
LINE
  5
2D8
100
AcDbEntity
  8
0-0
100
AcDbLine
  6
CONTINUOUS
370
13
 10
194.740855773762
 20
365.407539940767
 11
205.520763773762
 21
365.407539940767
  0
LINE
  5
2D9
100
AcDbEntity
  8
0-0
100
AcDbLine
  6
CONTINUOUS
370
13
 10
194.140855773762
 20
376.237539940768
 11
194.140855773762
 21
366.007539940767
  0
LINE
  5
2DA
100
AcDbEntity
  8
0-0
100
AcDbLine
  6
CONTINUOUS
370
13
 10
198.802251773762
 20
376.837539940767
 11
198.802251773762
 21
365.407539940767
  0
LINE
  5
2DB
100
AcDbEntity
  8
0-0
100
AcDbLine
  6
CONTINUOUS
370
13
 10
203.113015773762
 20
376.837539940767
 11
203.113015773762
 21
365.407539940767
  0
LINE
  5
2DC
100
AcDbEntity
  8
0-0
100
AcDbLine
  6
CONTINUOUS
370
13
 10
205.601308773762
 20
376.837539940767
 11
205.601308773762
 21
365.407539940767
  0
LINE
  5
2DD
100
AcDbEntity
  8
0-0
100
AcDbLine
  6
CONTINUOUS
370
13
 10
193.612158773762
 20
365.522539940767
 11
194.387620773762
 21
365.522539940767
  0
LINE
  5
2DE
100
AcDbEntity
  8
0-0
100
AcDbLine
  6
CONTINUOUS
370
13
 10
205.873998773762
 20
365.522539940767
 11
206.719484773762
 21
365.522539940767
  0
LINE
  5
2DF
100
AcDbEntity
  8
0-0
100
AcDbLine
  6
CONTINUOUS
370
13
 10
205.873998773762
 20
376.722539940767
 11
206.719484773762
 21
376.722539940767
  0
LINE
  5
2E0
100
AcDbEntity
  8
0-0
100
AcDbLine
  6
CONTINUOUS
370
13
 10
193.612158773762
 20
376.722539940767
 11
194.387620773762
 21
376.722539940767
  0
LINE
  5
2E1
100
AcDbEntity
  8
0-0
100
AcDbLine
  6
CONTINUOUS
370
13
 10
193.612158773762
 20
365.022539940767
 11
193.612158773762
 21
377.222539940767
  0
LINE
  5
2E2
100
AcDbEntity
  8
0-0
100
AcDbLine
  6
CONTINUOUS
370
13
 10
206.719484773762
 20
365.022539940767
 11
206.719484773762
 21
377.222539940767
  0
LINE
  5
2E3
100
AcDbEntity
  8
0-0
100
AcDbLine
  6
CONTINUOUS
370
13
 10
204.165821773762
 20
365.372539940767
 11
204.165821773762
 21
365.022539940767
  0
LINE
  5
2E4
100
AcDbEntity
  8
0-0
100
AcDbLine
  6
CONTINUOUS
370
13
 10
203.165821773762
 20
365.372539940767
 11
203.165821773762
 21
365.022539940767
  0
LINE
  5
2E5
100
AcDbEntity
  8
0-0
100
AcDbLine
  6
CONTINUOUS
370
13
 10
196.165821773762
 20
365.022539940767
 11
196.165821773762
 21
365.372539940767
  0
LINE
  5
2E6
100
AcDbEntity
  8
0-0
100
AcDbLine
  6
CONTINUOUS
370
13
 10
197.165821773762
 20
365.022539940767
 11
197.165821773762
 21
365.372539940767
  0
LINE
  5
2E7
100
AcDbEntity
  8
0-0
100
AcDbLine
  6
CONTINUOUS
370
13
 10
197.165821773762
 20
365.022539940767
 11
197.165821773762
 21
365.372539940767
  0
LINE
  5
2E8
100
AcDbEntity
  8
0-0
100
AcDbLine
  6
CONTINUOUS
370
13
 10
203.165821773762
 20
377.222539940767
 11
203.165821773762
 21
376.872539940767
  0
LINE
  5
2E9
100
AcDbEntity
  8
0-0
100
AcDbLine
  6
CONTINUOUS
370
13
 10
204.165821773762
 20
377.222539940767
 11
204.165821773762
 21
376.872539940767
  0
LINE
  5
2EA
100
AcDbEntity
  8
0-0
100
AcDbLine
  6
CONTINUOUS
370
13
 10
197.165821773762
 20
377.222539940767
 11
206.669484773762
 21
377.222539940767
  0
LINE
  5
2EB
100
AcDbEntity
  8
0-0
100
AcDbLine
  6
CONTINUOUS
370
13
 10
197.165821773762
 20
376.872539940767
 11
197.165821773762
 21
377.222539940767
  0
LINE
  5
2EC
100
AcDbEntity
  8
0-0
100
AcDbLine
  6
CONTINUOUS
370
13
 10
196.165821773762
 20
377.222539940767
 11
197.165821773762
 21
377.222539940767
  0
LINE
  5
2ED
100
AcDbEntity
  8
0-0
100
AcDbLine
  6
CONTINUOUS
370
13
 10
196.165821773762
 20
376.872539940767
 11
196.165821773762
 21
377.222539940767
  0
LINE
  5
2EE
100
AcDbEntity
  8
0-0
100
AcDbLine
  6
CONTINUOUS
370
13
 10
206.669484773762
 20
377.222539940767
 11
208.765821773762
 21
377.222539940767
  0
LINE
  5
2EF
100
AcDbEntity
  8
0-0
100
AcDbLine
  6
CONTINUOUS
370
13
 10
206.669484773762
 20
365.022539940767
 11
193.662158773762
 21
365.022539940767
  0
LINE
  5
2F0
100
AcDbEntity
  8
0-0
100
AcDbLine
  6
CONTINUOUS
370
13
 10
193.662158773762
 20
377.222539940767
 11
196.165821773762
 21
377.222539940767
  0
LINE
  5
2F1
100
AcDbEntity
  8
0-0
100
AcDbLine
  6
CONTINUOUS
370
13
 10
193.662158773762
 20
365.022539940767
 11
191.565821773762
 21
365.022539940767
  0
LINE
  5
2F2
100
AcDbEntity
  8
0-0
100
AcDbLine
  6
CONTINUOUS
370
13
 10
208.765821773762
 20
365.022539940767
 11
206.669484773762
 21
365.022539940767
  0
LINE
  5
2F3
100
AcDbEntity
  8
0-0
100
AcDbLine
  6
CONTINUOUS
370
13
 10
209.165821773762
 20
376.822539940767
 11
209.165821773762
 21
365.422539940767
  0
LINE
  5
2F4
100
AcDbEntity
  8
0-0
100
AcDbLine
  6
CONTINUOUS
370
13
 10
191.565821773762
 20
377.222539940767
 11
193.662158773762
 21
377.222539940767
  0
LINE
  5
2F5
100
AcDbEntity
  8
0-0
100
AcDbLine
  6
CONTINUOUS
370
13
 10
191.165821773762
 20
365.422539940768
 11
191.165821773762
 21
376.822539940767
  0
ARC
  5
2F6
100
AcDbEntity
  8
0-0
100
AcDbCircle
  6
CONTINUOUS
370
13
 10
194.740855773762
 20
366.007539940767
 40
0.600000000000023
100
AcDbArc
 50
180
 51
270
  0
ARC
  5
2F7
100
AcDbEntity
  8
0-0
100
AcDbCircle
  6
CONTINUOUS
370
13
 10
205.520763773762
 20
366.007539940767
 40
0.600000000000023
100
AcDbArc
 50
270
 51
0
  0
ARC
  5
2F8
100
AcDbEntity
  8
0-0
100
AcDbCircle
  6
CONTINUOUS
370
13
 10
205.520763773762
 20
376.237539940768
 40
0.600000000000023
100
AcDbArc
 50
0
 51
90
  0
ARC
  5
2F9
100
AcDbEntity
  8
0-0
100
AcDbCircle
  6
CONTINUOUS
370
13
 10
194.740855773762
 20
376.237539940768
 40
0.600000000000023
100
AcDbArc
 50
90
 51
180
  0
ARC
  5
2FA
100
AcDbEntity
  8
0-0
100
AcDbCircle
  6
CONTINUOUS
370
13
 10
208.765821773762
 20
365.422539940767
 40
0.399999999999977
100
AcDbArc
 50
270
 51
0
  0
ARC
  5
2FB
100
AcDbEntity
  8
0-0
100
AcDbCircle
  6
CONTINUOUS
370
13
 10
208.765821773762
 20
376.822539940767
 40
0.399999999999977
100
AcDbArc
 50
0
 51
90
  0
ARC
  5
2FC
100
AcDbEntity
  8
0-0
100
AcDbCircle
  6
CONTINUOUS
370
13
 10
191.565821773762
 20
376.822539940767
 40
0.399999999999977
100
AcDbArc
 50
90
 51
180
  0
ARC
  5
2FD
100
AcDbEntity
  8
0-0
100
AcDbCircle
  6
CONTINUOUS
370
13
 10
191.565821773762
 20
365.422539940768
 40
0.399999999999977
100
AcDbArc
 50
180
 51
270
  0
LINE
  5
2FE
100
AcDbEntity
  8
0-0
100
AcDbLine
  6
CONTINUOUS
370
13
 10
225.165821773762
 20
498.622539940767
 11
105.165821773762
 21
498.622539940767
  0
LINE
  5
2FF
100
AcDbEntity
  8
0-0
100
AcDbLine
  6
CONTINUOUS
370
13
 10
105.165821773762
 20
498.622539940767
 11
105.165821773762
 21
488.622539940767
  0
LINE
  5
300
100
AcDbEntity
  8
0-0
100
AcDbLine
  6
CONTINUOUS
370
13
 10
225.165821773762
 20
498.622539940767
 11
225.165821773762
 21
488.622539940767
  0
LINE
  5
301
100
AcDbEntity
  8
0-0
100
AcDbLine
  6
CONTINUOUS
370
13
 10
541.105667121388
 20
261.076813500058
 11
541.105667121388
 21
259.876813500058
  0
LINE
  5
302
100
AcDbEntity
  8
0-0
100
AcDbLine
  6
CONTINUOUS
370
13
 10
541.105667121388
 20
120.279480342881
 11
541.105667121388
 21
119.079480342881
  0
LINE
  5
303
100
AcDbEntity
  8
0-0
100
AcDbLine
  6
CONTINUOUS
370
13
 10
401.650044738077
 20
353.564107353368
 11
521.650044738077
 21
353.564107353368
  0
LINE
  5
304
100
AcDbEntity
  8
0-0
100
AcDbLine
  6
CONTINUOUS
370
13
 10
401.650044738077
 20
493.161440510545
 11
401.650044738077
 21
353.564107353368
  0
LINE
  5
305
100
AcDbEntity
  8
0-0
100
AcDbLine
  6
CONTINUOUS
370
13
 10
521.650044738077
 20
353.564107353368
 11
521.650044738077
 21
493.161440510545
  0
LINE
  5
306
100
AcDbEntity
  8
0-0
100
AcDbLine
  6
CONTINUOUS
370
13
 10
540.605667121388
 20
261.076813500058
 11
541.105667121388
 21
260.576813500058
  0
LWPOLYLINE
  5
307
100
AcDbEntity
  8
0-0
100
AcDbPolyline
  6
CONTINUOUS
370
13
 90
     4
 70
     1
 10
400.450044738077
  20
494.361440510545
 10
401.650044738077
  20
494.361440510545
 10
401.650044738077
  20
351.361440510545
 10
400.450044738077
  20
351.361440510545
  0
LWPOLYLINE
  5
308
100
AcDbEntity
  8
0-0
100
AcDbPolyline
  6
CONTINUOUS
370
13
 90
     4
 70
     1
 10
521.650044738077
  20
494.361440510545
 10
522.850044738077
  20
494.361440510545
 10
522.850044738077
  20
351.361440510545
 10
521.650044738077
  20
351.361440510545
  0
LINE
  5
309
100
AcDbEntity
  8
0-0
100
AcDbLine
  6
CONTINUOUS
370
13
 10
123.415821773762
 20
450.372539940766
 11
158.915821773762
 21
450.372539940766
  0
LINE
  5
30A
100
AcDbEntity
  8
0-0
100
AcDbLine
  6
CONTINUOUS
370
13
 10
123.415821773762
 20
438.872539940766
 11
158.915821773762
 21
438.872539940767
  0
LINE
  5
30B
100
AcDbEntity
  8
0-0
100
AcDbLine
  6
CONTINUOUS
370
13
 10
123.415821773762
 20
450.372539940766
 11
123.415821773762
 21
438.872539940766
  0
LINE
  5
30C
100
AcDbEntity
  8
0-0
100
AcDbLine
  6
CONTINUOUS
370
13
 10
158.915821773762
 20
450.372539940766
 11
158.915821773762
 21
438.872539940767
  0
CIRCLE
  5
30D
100
AcDbEntity
  8
0-0
100
AcDbCircle
  6
CONTINUOUS
370
13
 10
202.165821773762
 20
492.622539940767
 40
2.75
  0
CIRCLE
  5
30E
100
AcDbEntity
  8
0-0
100
AcDbCircle
  6
CONTINUOUS
370
13
 10
128.165821773762
 20
492.622539940767
 40
2.75
  0
LINE
  5
30F
100
AcDbEntity
  8
0-0
100
AcDbLine
  6
CONTINUOUS
370
13
 10
123.765821773762
 20
450.122539940767
 11
158.765821773763
 21
450.122539940767
  0
LINE
  5
310
100
AcDbEntity
  8
0-0
100
AcDbLine
  6
CONTINUOUS
370
13
 10
123.765821773763
 20
439.122539940767
 11
158.765821773763
 21
439.122539940767
  0
LINE
  5
311
100
AcDbEntity
  8
0-0
100
AcDbLine
  6
CONTINUOUS
370
13
 10
123.765821773763
 20
439.122539940767
 11
123.765821773762
 21
450.122539940767
  0
LINE
  5
312
100
AcDbEntity
  8
0-0
100
AcDbLine
  6
CONTINUOUS
370
13
 10
158.765821773763
 20
439.122539940767
 11
158.765821773763
 21
450.122539940767
  0
ARC
  5
313
100
AcDbEntity
  8
0-0
100
AcDbCircle
  6
BYLAYER
370
13
 10
204.006321773762
 20
490.782039940767
 40
1.653
100
AcDbArc
 50
90.0009086878458
 51
179.999091312156
  0
ARC
  5
314
100
AcDbEntity
  8
0-0
100
AcDbCircle
  6
BYLAYER
370
13
 10
204.006321773762
 20
494.463039940767
 40
1.653
100
AcDbArc
 50
180.000908687844
 51
269.999091312154
  0
ARC
  5
315
100
AcDbEntity
  8
0-0
100
AcDbCircle
  6
BYLAYER
370
13
 10
202.165821773762
 20
492.622539940767
 40
1.85
100
AcDbArc
 50
264.183007389975
 51
270
  0
ARC
  5
316
100
AcDbEntity
  8
0-0
100
AcDbCircle
  6
BYLAYER
370
13
 10
202.165821773762
 20
492.622539940767
 40
1.85
100
AcDbArc
 50
270
 51
275.816992610025
  0
ARC
  5
317
100
AcDbEntity
  8
0-0
100
AcDbCircle
  6
BYLAYER
370
13
 10
202.165821773762
 20
492.622539940767
 40
1.85
100
AcDbArc
 50
90
 51
95.8169926100252
  0
ARC
  5
318
100
AcDbEntity
  8
0-0
100
AcDbCircle
  6
BYLAYER
370
13
 10
202.165821773762
 20
492.622539940767
 40
1.85
100
AcDbArc
 50
84.1830073899748
 51
90
  0
ARC
  5
319
100
AcDbEntity
  8
0-0
100
AcDbCircle
  6
BYLAYER
370
13
 10
202.165821773762
 20
492.622539940767
 40
1.85
100
AcDbArc
 50
180
 51
185.816992610024
  0
ARC
  5
31A
100
AcDbEntity
  8
0-0
100
AcDbCircle
  6
BYLAYER
370
13
 10
202.165821773762
 20
492.622539940767
 40
1.85
100
AcDbArc
 50
174.183007389976
 51
180
  0
ARC
  5
31B
100
AcDbEntity
  8
0-0
100
AcDbCircle
  6
BYLAYER
370
13
 10
200.325321773762
 20
490.782039940767
 40
1.653
100
AcDbArc
 50
0.0009086878442255
 51
89.9990913121542
  0
ARC
  5
31C
100
AcDbEntity
  8
0-0
100
AcDbCircle
  6
BYLAYER
370
13
 10
200.325321773762
 20
494.463039940767
 40
1.653
100
AcDbArc
 50
270.000908687846
 51
359.999091312156
  0
ARC
  5
31D
100
AcDbEntity
  8
0-0
100
AcDbCircle
  6
BYLAYER
370
13
 10
202.165821773762
 20
492.622539940767
 40
1.85
100
AcDbArc
 50
0
 51
5.81699261002353
  0
ARC
  5
31E
100
AcDbEntity
  8
0-0
100
AcDbCircle
  6
BYLAYER
370
13
 10
202.165821773762
 20
492.622539940767
 40
1.85
100
AcDbArc
 50
354.183007389976
 51
0
  0
ARC
  5
31F
100
AcDbEntity
  8
0-0
100
AcDbCircle
  6
BYLAYER
370
13
 10
130.006321773762
 20
490.782039940767
 40
1.653
100
AcDbArc
 50
90.0009086878458
 51
179.999091312156
  0
ARC
  5
320
100
AcDbEntity
  8
0-0
100
AcDbCircle
  6
BYLAYER
370
13
 10
130.006321773762
 20
494.463039940767
 40
1.653
100
AcDbArc
 50
180.000908687844
 51
269.999091312154
  0
ARC
  5
321
100
AcDbEntity
  8
0-0
100
AcDbCircle
  6
BYLAYER
370
13
 10
128.165821773762
 20
492.622539940767
 40
1.85
100
AcDbArc
 50
264.183007389975
 51
270
  0
ARC
  5
322
100
AcDbEntity
  8
0-0
100
AcDbCircle
  6
BYLAYER
370
13
 10
128.165821773762
 20
492.622539940767
 40
1.85
100
AcDbArc
 50
270
 51
275.816992610025
  0
ARC
  5
323
100
AcDbEntity
  8
0-0
100
AcDbCircle
  6
BYLAYER
370
13
 10
128.165821773762
 20
492.622539940767
 40
1.85
100
AcDbArc
 50
90
 51
95.8169926100252
  0
ARC
  5
324
100
AcDbEntity
  8
0-0
100
AcDbCircle
  6
BYLAYER
370
13
 10
128.165821773762
 20
492.622539940767
 40
1.85
100
AcDbArc
 50
84.1830073899748
 51
90
  0
ARC
  5
325
100
AcDbEntity
  8
0-0
100
AcDbCircle
  6
BYLAYER
370
13
 10
128.165821773762
 20
492.622539940767
 40
1.85
100
AcDbArc
 50
180
 51
185.816992610024
  0
ARC
  5
326
100
AcDbEntity
  8
0-0
100
AcDbCircle
  6
BYLAYER
370
13
 10
128.165821773762
 20
492.622539940767
 40
1.85
100
AcDbArc
 50
174.183007389976
 51
180
  0
ARC
  5
327
100
AcDbEntity
  8
0-0
100
AcDbCircle
  6
BYLAYER
370
13
 10
126.325321773762
 20
490.782039940767
 40
1.653
100
AcDbArc
 50
0.0009086878442255
 51
89.9990913121542
  0
ARC
  5
328
100
AcDbEntity
  8
0-0
100
AcDbCircle
  6
BYLAYER
370
13
 10
126.325321773762
 20
494.463039940767
 40
1.653
100
AcDbArc
 50
270.000908687846
 51
359.999091312156
  0
ARC
  5
329
100
AcDbEntity
  8
0-0
100
AcDbCircle
  6
BYLAYER
370
13
 10
128.165821773762
 20
492.622539940767
 40
1.85
100
AcDbArc
 50
0
 51
5.81699261002353
  0
ARC
  5
32A
100
AcDbEntity
  8
0-0
100
AcDbCircle
  6
BYLAYER
370
13
 10
128.165821773762
 20
492.622539940767
 40
1.85
100
AcDbArc
 50
354.183007389976
 51
0
  0
TEXT
  5
32B
100
AcDbEntity
  8
0-0
100
AcDbText
  6
CONTINUOUS
 10
183.163347722227
 20
412.651570263252
 40
4
  1
START
  7
Font_0
 11
183.163347722227
 21
416.651570263252
100
AcDbText
 73
3
  0
TEXT
  5
32C
100
AcDbEntity
  8
0-0
100
AcDbText
  6
CONTINUOUS
 10
184.314975126523
 20
408.221397543524
 40
4
  1
STOP
  7
Font_0
 11
184.314975126523
 21
412.221397543524
100
AcDbText
 73
3
  0
TEXT
  5
32D
100
AcDbEntity
  8
0-0
100
AcDbText
  6
CONTINUOUS
 10
167.793851950824
 20
447.938098342904
 40
3.5
  1
TIMER/COUNTER
  7
Font_0
 11
167.793851950824
 21
451.438098342904
100
AcDbText
 73
3
  0
TEXT
  5
32E
100
AcDbEntity
  8
0-0
100
AcDbText
  6
CONTINUOUS
 10
167.832244105124
 20
442.985510438168
 40
3.5
  1
RPM/PPS
  7
Font_0
 11
167.832244105124
 21
446.485510438168
100
AcDbText
 73
3
  0
TEXT
  5
32F
100
AcDbEntity
  8
0-0
100
AcDbText
  6
CONTINUOUS
 10
167.832244105124
 20
437.772719177743
 40
3.5
  1
V.TIM/V.COUNT
  7
Font_0
 11
167.832244105124
 21
441.272719177743
100
AcDbText
 73
3
  0
TEXT
  5
330
100
AcDbEntity
  8
0-0
100
AcDbText
  6
CONTINUOUS
 10
167.618183946276
 20
452.737481058141
 40
3.5
  1
C.CLOCKWISE
  7
Font_0
 11
167.618183946276
 21
456.237481058141
100
AcDbText
 73
3
  0
LINE
  5
331
100
AcDbEntity
  8
0-0
100
AcDbLine
  6
CONTINUOUS
370
13
 10
137.765821773763
 20
450.122539940767
 11
144.765821773763
 21
450.122539940767
  0
LINE
  5
332
100
AcDbEntity
  8
0-0
100
AcDbLine
  6
CONTINUOUS
370
13
 10
144.765821773763
 20
450.122539940767
 11
144.765821773763
 21
439.122539940767
  0
LINE
  5
333
100
AcDbEntity
  8
0-0
100
AcDbLine
  6
CONTINUOUS
370
13
 10
144.765821773763
 20
439.122539940767
 11
137.765821773763
 21
439.122539940767
  0
LINE
  5
334
100
AcDbEntity
  8
0-0
100
AcDbLine
  6
CONTINUOUS
370
13
 10
137.765821773763
 20
439.122539940767
 11
137.765821773763
 21
450.122539940767
  0
LINE
  5
335
100
AcDbEntity
  8
0-0
100
AcDbLine
  6
CONTINUOUS
370
13
 10
139.740821773763
 20
444.347539940767
 11
140.090821773763
 21
443.847539940767
  0
LINE
  5
336
100
AcDbEntity
  8
0-0
100
AcDbLine
  6
CONTINUOUS
370
13
 10
140.090821773763
 20
443.847539940767
 11
139.790821773763
 21
441.797539940767
  0
LINE
  5
337
100
AcDbEntity
  8
0-0
100
AcDbLine
  6
CONTINUOUS
370
13
 10
139.790821773763
 20
441.797539940767
 11
138.990821773763
 21
441.147539940767
  0
LINE
  5
338
100
AcDbEntity
  8
0-0
100
AcDbLine
  6
CONTINUOUS
370
13
 10
138.990821773763
 20
441.147539940767
 11
138.715821773763
 21
441.547539940767
  0
LINE
  5
339
100
AcDbEntity
  8
0-0
100
AcDbLine
  6
CONTINUOUS
370
13
 10
138.715821773763
 20
441.547539940767
 11
139.165821773763
 21
443.972539940767
  0
LINE
  5
33A
100
AcDbEntity
  8
0-0
100
AcDbLine
  6
CONTINUOUS
370
13
 10
139.165821773763
 20
443.972539940767
 11
139.740821773763
 21
444.347539940767
  0
LINE
  5
33B
100
AcDbEntity
  8
0-0
100
AcDbLine
  6
CONTINUOUS
370
13
 10
140.340821773763
 20
448.147539940767
 11
140.565821773763
 21
448.572539940767
  0
LINE
  5
33C
100
AcDbEntity
  8
0-0
100
AcDbLine
  6
CONTINUOUS
370
13
 10
140.565821773763
 20
448.572539940767
 11
143.215821773763
 21
448.572539940767
  0
LINE
  5
33D
100
AcDbEntity
  8
0-0
100
AcDbLine
  6
CONTINUOUS
370
13
 10
143.215821773763
 20
448.572539940767
 11
143.490821773763
 21
448.222539940767
  0
LINE
  5
33E
100
AcDbEntity
  8
0-0
100
AcDbLine
  6
CONTINUOUS
370
13
 10
143.490821773763
 20
448.222539940767
 11
142.740821773763
 21
447.547539940767
  0
LINE
  5
33F
100
AcDbEntity
  8
0-0
100
AcDbLine
  6
CONTINUOUS
370
13
 10
142.740821773763
 20
447.547539940767
 11
140.965821773763
 21
447.547539940767
  0
LINE
  5
340
100
AcDbEntity
  8
0-0
100
AcDbLine
  6
CONTINUOUS
370
13
 10
140.965821773763
 20
447.547539940767
 11
140.340821773763
 21
448.147539940767
  0
LINE
  5
341
100
AcDbEntity
  8
0-0
100
AcDbLine
  6
CONTINUOUS
370
13
 10
142.215821773763
 20
443.797539940767
 11
142.915821773763
 21
444.347539940767
  0
LINE
  5
342
100
AcDbEntity
  8
0-0
100
AcDbLine
  6
CONTINUOUS
370
13
 10
142.915821773763
 20
444.347539940767
 11
143.265821773763
 21
443.872539940767
  0
LINE
  5
343
100
AcDbEntity
  8
0-0
100
AcDbLine
  6
CONTINUOUS
370
13
 10
143.265821773763
 20
443.872539940767
 11
142.815821773763
 21
441.447539940767
  0
LINE
  5
344
100
AcDbEntity
  8
0-0
100
AcDbLine
  6
CONTINUOUS
370
13
 10
142.815821773763
 20
441.447539940767
 11
142.315821773763
 21
441.047539940767
  0
LINE
  5
345
100
AcDbEntity
  8
0-0
100
AcDbLine
  6
CONTINUOUS
370
13
 10
142.315821773763
 20
441.047539940767
 11
141.815821773763
 21
441.672539940767
  0
LINE
  5
346
100
AcDbEntity
  8
0-0
100
AcDbLine
  6
CONTINUOUS
370
13
 10
141.815821773763
 20
441.672539940767
 11
142.215821773763
 21
443.797539940767
  0
LINE
  5
347
100
AcDbEntity
  8
0-0
100
AcDbLine
  6
CONTINUOUS
370
13
 10
142.240821773763
 20
445.022539940767
 11
142.665821773763
 21
444.497539940767
  0
LINE
  5
348
100
AcDbEntity
  8
0-0
100
AcDbLine
  6
CONTINUOUS
370
13
 10
142.665821773763
 20
444.497539940767
 11
142.090821773763
 21
444.047539940767
  0
LINE
  5
349
100
AcDbEntity
  8
0-0
100
AcDbLine
  6
CONTINUOUS
370
13
 10
142.090821773763
 20
444.047539940767
 11
140.315821773763
 21
444.047539940767
  0
LINE
  5
34A
100
AcDbEntity
  8
0-0
100
AcDbLine
  6
CONTINUOUS
370
13
 10
140.315821773763
 20
444.047539940767
 11
139.865821773763
 21
444.572539940767
  0
LINE
  5
34B
100
AcDbEntity
  8
0-0
100
AcDbLine
  6
CONTINUOUS
370
13
 10
139.865821773763
 20
444.572539940767
 11
140.565821773763
 21
445.097539940767
  0
LINE
  5
34C
100
AcDbEntity
  8
0-0
100
AcDbLine
  6
CONTINUOUS
370
13
 10
140.565821773763
 20
445.097539940767
 11
142.240821773763
 21
445.022539940767
  0
LINE
  5
34D
100
AcDbEntity
  8
0-0
100
AcDbLine
  6
CONTINUOUS
370
13
 10
141.565821773763
 20
441.572539940767
 11
142.140821773763
 21
440.922539940767
  0
LINE
  5
34E
100
AcDbEntity
  8
0-0
100
AcDbLine
  6
CONTINUOUS
370
13
 10
142.140821773763
 20
440.922539940767
 11
141.990821773763
 21
440.522539940767
  0
LINE
  5
34F
100
AcDbEntity
  8
0-0
100
AcDbLine
  6
CONTINUOUS
370
13
 10
141.990821773763
 20
440.522539940767
 11
139.365821773763
 21
440.522539940767
  0
LINE
  5
350
100
AcDbEntity
  8
0-0
100
AcDbLine
  6
CONTINUOUS
370
13
 10
139.365821773763
 20
440.522539940767
 11
139.140821773763
 21
440.947539940767
  0
LINE
  5
351
100
AcDbEntity
  8
0-0
100
AcDbLine
  6
CONTINUOUS
370
13
 10
139.140821773763
 20
440.947539940767
 11
139.940821773763
 21
441.572539940767
  0
LINE
  5
352
100
AcDbEntity
  8
0-0
100
AcDbLine
  6
CONTINUOUS
370
13
 10
139.940821773763
 20
441.572539940767
 11
141.565821773763
 21
441.572539940767
  0
LINE
  5
353
100
AcDbEntity
  8
0-0
100
AcDbLine
  6
CONTINUOUS
370
13
 10
142.865821773763
 20
447.372539940767
 11
143.615821773763
 21
448.072539940767
  0
LINE
  5
354
100
AcDbEntity
  8
0-0
100
AcDbLine
  6
CONTINUOUS
370
13
 10
143.615821773763
 20
448.072539940767
 11
143.940821773763
 21
447.647539940767
  0
LINE
  5
355
100
AcDbEntity
  8
0-0
100
AcDbLine
  6
CONTINUOUS
370
13
 10
143.940821773763
 20
447.647539940767
 11
143.515821773763
 21
445.172539940767
  0
LINE
  5
356
100
AcDbEntity
  8
0-0
100
AcDbLine
  6
CONTINUOUS
370
13
 10
143.515821773763
 20
445.172539940767
 11
142.865821773763
 21
444.647539940767
  0
LINE
  5
357
100
AcDbEntity
  8
0-0
100
AcDbLine
  6
CONTINUOUS
370
13
 10
142.865821773763
 20
444.647539940767
 11
142.465821773763
 21
445.122539940767
  0
LINE
  5
358
100
AcDbEntity
  8
0-0
100
AcDbLine
  6
CONTINUOUS
370
13
 10
142.465821773763
 20
445.122539940767
 11
142.865821773763
 21
447.372539940767
  0
LINE
  5
359
100
AcDbEntity
  8
0-0
100
AcDbLine
  6
CONTINUOUS
370
13
 10
140.815821773763
 20
447.397539940767
 11
140.165821773763
 21
448.047539940767
  0
LINE
  5
35A
100
AcDbEntity
  8
0-0
100
AcDbLine
  6
CONTINUOUS
370
13
 10
140.165821773763
 20
448.047539940767
 11
139.890821773763
 21
447.922539940767
  0
LINE
  5
35B
100
AcDbEntity
  8
0-0
100
AcDbLine
  6
CONTINUOUS
370
13
 10
139.890821773763
 20
447.922539940767
 11
139.390821773763
 21
445.097539940767
  0
LINE
  5
35C
100
AcDbEntity
  8
0-0
100
AcDbLine
  6
CONTINUOUS
370
13
 10
139.390821773763
 20
445.097539940767
 11
139.715821773763
 21
444.722539940767
  0
LINE
  5
35D
100
AcDbEntity
  8
0-0
100
AcDbLine
  6
CONTINUOUS
370
13
 10
139.715821773763
 20
444.722539940767
 11
140.390821773763
 21
445.272539940767
  0
LINE
  5
35E
100
AcDbEntity
  8
0-0
100
AcDbLine
  6
CONTINUOUS
370
13
 10
140.390821773763
 20
445.272539940767
 11
140.815821773763
 21
447.397539940767
  0
CIRCLE
  5
35F
100
AcDbEntity
  8
0-0
100
AcDbCircle
  6
CONTINUOUS
370
13
 10
143.990821773763
 20
440.947539940767
 40
0.425
  0
LINE
  5
360
100
AcDbEntity
  8
0-0
100
AcDbLine
  6
CONTINUOUS
370
13
 10
144.765821773763
 20
450.122539940767
 11
151.765821773763
 21
450.122539940767
  0
LINE
  5
361
100
AcDbEntity
  8
0-0
100
AcDbLine
  6
CONTINUOUS
370
13
 10
151.765821773763
 20
450.122539940767
 11
151.765821773763
 21
439.122539940767
  0
LINE
  5
362
100
AcDbEntity
  8
0-0
100
AcDbLine
  6
CONTINUOUS
370
13
 10
151.765821773763
 20
439.122539940767
 11
144.765821773763
 21
439.122539940767
  0
LINE
  5
363
100
AcDbEntity
  8
0-0
100
AcDbLine
  6
CONTINUOUS
370
13
 10
144.765821773763
 20
439.122539940767
 11
144.765821773763
 21
450.122539940767
  0
LINE
  5
364
100
AcDbEntity
  8
0-0
100
AcDbLine
  6
CONTINUOUS
370
13
 10
146.740821773763
 20
444.347539940767
 11
147.090821773763
 21
443.847539940767
  0
LINE
  5
365
100
AcDbEntity
  8
0-0
100
AcDbLine
  6
CONTINUOUS
370
13
 10
147.090821773763
 20
443.847539940767
 11
146.790821773763
 21
441.797539940767
  0
LINE
  5
366
100
AcDbEntity
  8
0-0
100
AcDbLine
  6
CONTINUOUS
370
13
 10
146.790821773763
 20
441.797539940767
 11
145.990821773763
 21
441.147539940767
  0
LINE
  5
367
100
AcDbEntity
  8
0-0
100
AcDbLine
  6
CONTINUOUS
370
13
 10
145.990821773763
 20
441.147539940767
 11
145.715821773763
 21
441.547539940767
  0
LINE
  5
368
100
AcDbEntity
  8
0-0
100
AcDbLine
  6
CONTINUOUS
370
13
 10
145.715821773763
 20
441.547539940767
 11
146.165821773763
 21
443.972539940767
  0
LINE
  5
369
100
AcDbEntity
  8
0-0
100
AcDbLine
  6
CONTINUOUS
370
13
 10
146.165821773763
 20
443.972539940767
 11
146.740821773763
 21
444.347539940767
  0
LINE
  5
36A
100
AcDbEntity
  8
0-0
100
AcDbLine
  6
CONTINUOUS
370
13
 10
147.340821773763
 20
448.147539940767
 11
147.565821773763
 21
448.572539940767
  0
LINE
  5
36B
100
AcDbEntity
  8
0-0
100
AcDbLine
  6
CONTINUOUS
370
13
 10
147.565821773763
 20
448.572539940767
 11
150.215821773763
 21
448.572539940767
  0
LINE
  5
36C
100
AcDbEntity
  8
0-0
100
AcDbLine
  6
CONTINUOUS
370
13
 10
150.215821773763
 20
448.572539940767
 11
150.490821773763
 21
448.222539940767
  0
LINE
  5
36D
100
AcDbEntity
  8
0-0
100
AcDbLine
  6
CONTINUOUS
370
13
 10
150.490821773763
 20
448.222539940767
 11
149.740821773763
 21
447.547539940767
  0
LINE
  5
36E
100
AcDbEntity
  8
0-0
100
AcDbLine
  6
CONTINUOUS
370
13
 10
149.740821773763
 20
447.547539940767
 11
147.965821773763
 21
447.547539940767
  0
LINE
  5
36F
100
AcDbEntity
  8
0-0
100
AcDbLine
  6
CONTINUOUS
370
13
 10
147.965821773763
 20
447.547539940767
 11
147.340821773763
 21
448.147539940767
  0
LINE
  5
370
100
AcDbEntity
  8
0-0
100
AcDbLine
  6
CONTINUOUS
370
13
 10
149.215821773763
 20
443.797539940767
 11
149.915821773763
 21
444.347539940767
  0
LINE
  5
371
100
AcDbEntity
  8
0-0
100
AcDbLine
  6
CONTINUOUS
370
13
 10
149.915821773763
 20
444.347539940767
 11
150.265821773763
 21
443.872539940767
  0
LINE
  5
372
100
AcDbEntity
  8
0-0
100
AcDbLine
  6
CONTINUOUS
370
13
 10
150.265821773763
 20
443.872539940767
 11
149.815821773763
 21
441.447539940767
  0
LINE
  5
373
100
AcDbEntity
  8
0-0
100
AcDbLine
  6
CONTINUOUS
370
13
 10
149.815821773763
 20
441.447539940767
 11
149.315821773763
 21
441.047539940767
  0
LINE
  5
374
100
AcDbEntity
  8
0-0
100
AcDbLine
  6
CONTINUOUS
370
13
 10
149.315821773763
 20
441.047539940767
 11
148.815821773763
 21
441.672539940767
  0
LINE
  5
375
100
AcDbEntity
  8
0-0
100
AcDbLine
  6
CONTINUOUS
370
13
 10
148.815821773763
 20
441.672539940767
 11
149.215821773763
 21
443.797539940767
  0
LINE
  5
376
100
AcDbEntity
  8
0-0
100
AcDbLine
  6
CONTINUOUS
370
13
 10
149.240821773763
 20
445.022539940767
 11
149.665821773763
 21
444.497539940767
  0
LINE
  5
377
100
AcDbEntity
  8
0-0
100
AcDbLine
  6
CONTINUOUS
370
13
 10
149.665821773763
 20
444.497539940767
 11
149.090821773763
 21
444.047539940767
  0
LINE
  5
378
100
AcDbEntity
  8
0-0
100
AcDbLine
  6
CONTINUOUS
370
13
 10
149.090821773763
 20
444.047539940767
 11
147.315821773763
 21
444.047539940767
  0
LINE
  5
379
100
AcDbEntity
  8
0-0
100
AcDbLine
  6
CONTINUOUS
370
13
 10
147.315821773763
 20
444.047539940767
 11
146.865821773763
 21
444.572539940767
  0
LINE
  5
37A
100
AcDbEntity
  8
0-0
100
AcDbLine
  6
CONTINUOUS
370
13
 10
146.865821773763
 20
444.572539940767
 11
147.565821773763
 21
445.097539940767
  0
LINE
  5
37B
100
AcDbEntity
  8
0-0
100
AcDbLine
  6
CONTINUOUS
370
13
 10
147.565821773763
 20
445.097539940767
 11
149.240821773763
 21
445.022539940767
  0
LINE
  5
37C
100
AcDbEntity
  8
0-0
100
AcDbLine
  6
CONTINUOUS
370
13
 10
148.565821773763
 20
441.572539940767
 11
149.140821773763
 21
440.922539940767
  0
LINE
  5
37D
100
AcDbEntity
  8
0-0
100
AcDbLine
  6
CONTINUOUS
370
13
 10
149.140821773763
 20
440.922539940767
 11
148.990821773763
 21
440.522539940767
  0
LINE
  5
37E
100
AcDbEntity
  8
0-0
100
AcDbLine
  6
CONTINUOUS
370
13
 10
148.990821773763
 20
440.522539940767
 11
146.365821773763
 21
440.522539940767
  0
LINE
  5
37F
100
AcDbEntity
  8
0-0
100
AcDbLine
  6
CONTINUOUS
370
13
 10
146.365821773763
 20
440.522539940767
 11
146.140821773763
 21
440.947539940767
  0
LINE
  5
380
100
AcDbEntity
  8
0-0
100
AcDbLine
  6
CONTINUOUS
370
13
 10
146.140821773763
 20
440.947539940767
 11
146.940821773763
 21
441.572539940767
  0
LINE
  5
381
100
AcDbEntity
  8
0-0
100
AcDbLine
  6
CONTINUOUS
370
13
 10
146.940821773763
 20
441.572539940767
 11
148.565821773763
 21
441.572539940767
  0
LINE
  5
382
100
AcDbEntity
  8
0-0
100
AcDbLine
  6
CONTINUOUS
370
13
 10
149.865821773763
 20
447.372539940767
 11
150.615821773763
 21
448.072539940767
  0
LINE
  5
383
100
AcDbEntity
  8
0-0
100
AcDbLine
  6
CONTINUOUS
370
13
 10
150.615821773763
 20
448.072539940767
 11
150.940821773763
 21
447.647539940767
  0
LINE
  5
384
100
AcDbEntity
  8
0-0
100
AcDbLine
  6
CONTINUOUS
370
13
 10
150.940821773763
 20
447.647539940767
 11
150.515821773763
 21
445.172539940767
  0
LINE
  5
385
100
AcDbEntity
  8
0-0
100
AcDbLine
  6
CONTINUOUS
370
13
 10
150.515821773763
 20
445.172539940767
 11
149.865821773763
 21
444.647539940767
  0
LINE
  5
386
100
AcDbEntity
  8
0-0
100
AcDbLine
  6
CONTINUOUS
370
13
 10
149.865821773763
 20
444.647539940767
 11
149.465821773763
 21
445.122539940767
  0
LINE
  5
387
100
AcDbEntity
  8
0-0
100
AcDbLine
  6
CONTINUOUS
370
13
 10
149.465821773763
 20
445.122539940767
 11
149.865821773763
 21
447.372539940767
  0
LINE
  5
388
100
AcDbEntity
  8
0-0
100
AcDbLine
  6
CONTINUOUS
370
13
 10
147.815821773763
 20
447.397539940767
 11
147.165821773763
 21
448.047539940767
  0
LINE
  5
389
100
AcDbEntity
  8
0-0
100
AcDbLine
  6
CONTINUOUS
370
13
 10
147.165821773763
 20
448.047539940767
 11
146.890821773763
 21
447.922539940767
  0
LINE
  5
38A
100
AcDbEntity
  8
0-0
100
AcDbLine
  6
CONTINUOUS
370
13
 10
146.890821773763
 20
447.922539940767
 11
146.390821773763
 21
445.097539940767
  0
LINE
  5
38B
100
AcDbEntity
  8
0-0
100
AcDbLine
  6
CONTINUOUS
370
13
 10
146.390821773763
 20
445.097539940767
 11
146.715821773763
 21
444.722539940767
  0
LINE
  5
38C
100
AcDbEntity
  8
0-0
100
AcDbLine
  6
CONTINUOUS
370
13
 10
146.715821773763
 20
444.722539940767
 11
147.390821773763
 21
445.272539940767
  0
LINE
  5
38D
100
AcDbEntity
  8
0-0
100
AcDbLine
  6
CONTINUOUS
370
13
 10
147.390821773763
 20
445.272539940767
 11
147.815821773763
 21
447.397539940767
  0
CIRCLE
  5
38E
100
AcDbEntity
  8
0-0
100
AcDbCircle
  6
CONTINUOUS
370
13
 10
150.990821773763
 20
440.947539940767
 40
0.425
  0
LINE
  5
38F
100
AcDbEntity
  8
0-0
100
AcDbLine
  6
CONTINUOUS
370
13
 10
151.765821773763
 20
450.122539940767
 11
158.765821773763
 21
450.122539940767
  0
LINE
  5
390
100
AcDbEntity
  8
0-0
100
AcDbLine
  6
CONTINUOUS
370
13
 10
158.765821773763
 20
450.122539940767
 11
158.765821773763
 21
439.122539940767
  0
LINE
  5
391
100
AcDbEntity
  8
0-0
100
AcDbLine
  6
CONTINUOUS
370
13
 10
158.765821773763
 20
439.122539940767
 11
151.765821773763
 21
439.122539940767
  0
LINE
  5
392
100
AcDbEntity
  8
0-0
100
AcDbLine
  6
CONTINUOUS
370
13
 10
151.765821773763
 20
439.122539940767
 11
151.765821773763
 21
450.122539940767
  0
LINE
  5
393
100
AcDbEntity
  8
0-0
100
AcDbLine
  6
CONTINUOUS
370
13
 10
153.740821773763
 20
444.347539940767
 11
154.090821773763
 21
443.847539940767
  0
LINE
  5
394
100
AcDbEntity
  8
0-0
100
AcDbLine
  6
CONTINUOUS
370
13
 10
154.090821773763
 20
443.847539940767
 11
153.790821773763
 21
441.797539940767
  0
LINE
  5
395
100
AcDbEntity
  8
0-0
100
AcDbLine
  6
CONTINUOUS
370
13
 10
153.790821773763
 20
441.797539940767
 11
152.990821773763
 21
441.147539940767
  0
LINE
  5
396
100
AcDbEntity
  8
0-0
100
AcDbLine
  6
CONTINUOUS
370
13
 10
152.990821773763
 20
441.147539940767
 11
152.715821773763
 21
441.547539940767
  0
LINE
  5
397
100
AcDbEntity
  8
0-0
100
AcDbLine
  6
CONTINUOUS
370
13
 10
152.715821773763
 20
441.547539940767
 11
153.165821773763
 21
443.972539940767
  0
LINE
  5
398
100
AcDbEntity
  8
0-0
100
AcDbLine
  6
CONTINUOUS
370
13
 10
153.165821773763
 20
443.972539940767
 11
153.740821773763
 21
444.347539940767
  0
LINE
  5
399
100
AcDbEntity
  8
0-0
100
AcDbLine
  6
CONTINUOUS
370
13
 10
154.340821773763
 20
448.147539940767
 11
154.565821773763
 21
448.572539940767
  0
LINE
  5
39A
100
AcDbEntity
  8
0-0
100
AcDbLine
  6
CONTINUOUS
370
13
 10
154.565821773763
 20
448.572539940767
 11
157.215821773763
 21
448.572539940767
  0
LINE
  5
39B
100
AcDbEntity
  8
0-0
100
AcDbLine
  6
CONTINUOUS
370
13
 10
157.215821773763
 20
448.572539940767
 11
157.490821773763
 21
448.222539940767
  0
LINE
  5
39C
100
AcDbEntity
  8
0-0
100
AcDbLine
  6
CONTINUOUS
370
13
 10
157.490821773763
 20
448.222539940767
 11
156.740821773763
 21
447.547539940767
  0
LINE
  5
39D
100
AcDbEntity
  8
0-0
100
AcDbLine
  6
CONTINUOUS
370
13
 10
156.740821773763
 20
447.547539940767
 11
154.965821773763
 21
447.547539940767
  0
LINE
  5
39E
100
AcDbEntity
  8
0-0
100
AcDbLine
  6
CONTINUOUS
370
13
 10
154.965821773763
 20
447.547539940767
 11
154.340821773763
 21
448.147539940767
  0
LINE
  5
39F
100
AcDbEntity
  8
0-0
100
AcDbLine
  6
CONTINUOUS
370
13
 10
156.215821773763
 20
443.797539940767
 11
156.915821773763
 21
444.347539940767
  0
LINE
  5
3A0
100
AcDbEntity
  8
0-0
100
AcDbLine
  6
CONTINUOUS
370
13
 10
156.915821773763
 20
444.347539940767
 11
157.265821773763
 21
443.872539940767
  0
LINE
  5
3A1
100
AcDbEntity
  8
0-0
100
AcDbLine
  6
CONTINUOUS
370
13
 10
157.265821773763
 20
443.872539940767
 11
156.815821773763
 21
441.447539940767
  0
LINE
  5
3A2
100
AcDbEntity
  8
0-0
100
AcDbLine
  6
CONTINUOUS
370
13
 10
156.815821773763
 20
441.447539940767
 11
156.315821773763
 21
441.047539940767
  0
LINE
  5
3A3
100
AcDbEntity
  8
0-0
100
AcDbLine
  6
CONTINUOUS
370
13
 10
156.315821773763
 20
441.047539940767
 11
155.815821773763
 21
441.672539940767
  0
LINE
  5
3A4
100
AcDbEntity
  8
0-0
100
AcDbLine
  6
CONTINUOUS
370
13
 10
155.815821773763
 20
441.672539940767
 11
156.215821773763
 21
443.797539940767
  0
LINE
  5
3A5
100
AcDbEntity
  8
0-0
100
AcDbLine
  6
CONTINUOUS
370
13
 10
156.240821773763
 20
445.022539940767
 11
156.665821773763
 21
444.497539940767
  0
LINE
  5
3A6
100
AcDbEntity
  8
0-0
100
AcDbLine
  6
CONTINUOUS
370
13
 10
156.665821773763
 20
444.497539940767
 11
156.090821773763
 21
444.047539940767
  0
LINE
  5
3A7
100
AcDbEntity
  8
0-0
100
AcDbLine
  6
CONTINUOUS
370
13
 10
156.090821773763
 20
444.047539940767
 11
154.315821773763
 21
444.047539940767
  0
LINE
  5
3A8
100
AcDbEntity
  8
0-0
100
AcDbLine
  6
CONTINUOUS
370
13
 10
154.315821773763
 20
444.047539940767
 11
153.865821773763
 21
444.572539940767
  0
LINE
  5
3A9
100
AcDbEntity
  8
0-0
100
AcDbLine
  6
CONTINUOUS
370
13
 10
153.865821773763
 20
444.572539940767
 11
154.565821773763
 21
445.097539940767
  0
LINE
  5
3AA
100
AcDbEntity
  8
0-0
100
AcDbLine
  6
CONTINUOUS
370
13
 10
154.565821773763
 20
445.097539940767
 11
156.240821773763
 21
445.022539940767
  0
LINE
  5
3AB
100
AcDbEntity
  8
0-0
100
AcDbLine
  6
CONTINUOUS
370
13
 10
155.565821773763
 20
441.572539940767
 11
156.140821773763
 21
440.922539940767
  0
LINE
  5
3AC
100
AcDbEntity
  8
0-0
100
AcDbLine
  6
CONTINUOUS
370
13
 10
156.140821773763
 20
440.922539940767
 11
155.990821773763
 21
440.522539940767
  0
LINE
  5
3AD
100
AcDbEntity
  8
0-0
100
AcDbLine
  6
CONTINUOUS
370
13
 10
155.990821773763
 20
440.522539940767
 11
153.365821773763
 21
440.522539940767
  0
LINE
  5
3AE
100
AcDbEntity
  8
0-0
100
AcDbLine
  6
CONTINUOUS
370
13
 10
153.365821773763
 20
440.522539940767
 11
153.140821773763
 21
440.947539940767
  0
LINE
  5
3AF
100
AcDbEntity
  8
0-0
100
AcDbLine
  6
CONTINUOUS
370
13
 10
153.140821773763
 20
440.947539940767
 11
153.940821773763
 21
441.572539940767
  0
LINE
  5
3B0
100
AcDbEntity
  8
0-0
100
AcDbLine
  6
CONTINUOUS
370
13
 10
153.940821773763
 20
441.572539940767
 11
155.565821773763
 21
441.572539940767
  0
LINE
  5
3B1
100
AcDbEntity
  8
0-0
100
AcDbLine
  6
CONTINUOUS
370
13
 10
156.865821773763
 20
447.372539940767
 11
157.615821773763
 21
448.072539940767
  0
LINE
  5
3B2
100
AcDbEntity
  8
0-0
100
AcDbLine
  6
CONTINUOUS
370
13
 10
157.615821773763
 20
448.072539940767
 11
157.940821773763
 21
447.647539940767
  0
LINE
  5
3B3
100
AcDbEntity
  8
0-0
100
AcDbLine
  6
CONTINUOUS
370
13
 10
157.940821773763
 20
447.647539940767
 11
157.515821773763
 21
445.172539940767
  0
LINE
  5
3B4
100
AcDbEntity
  8
0-0
100
AcDbLine
  6
CONTINUOUS
370
13
 10
157.515821773763
 20
445.172539940767
 11
156.865821773763
 21
444.647539940767
  0
LINE
  5
3B5
100
AcDbEntity
  8
0-0
100
AcDbLine
  6
CONTINUOUS
370
13
 10
156.865821773763
 20
444.647539940767
 11
156.465821773763
 21
445.122539940767
  0
LINE
  5
3B6
100
AcDbEntity
  8
0-0
100
AcDbLine
  6
CONTINUOUS
370
13
 10
156.465821773763
 20
445.122539940767
 11
156.865821773763
 21
447.372539940767
  0
LINE
  5
3B7
100
AcDbEntity
  8
0-0
100
AcDbLine
  6
CONTINUOUS
370
13
 10
154.815821773763
 20
447.397539940767
 11
154.165821773763
 21
448.047539940767
  0
LINE
  5
3B8
100
AcDbEntity
  8
0-0
100
AcDbLine
  6
CONTINUOUS
370
13
 10
154.165821773763
 20
448.047539940767
 11
153.890821773763
 21
447.922539940767
  0
LINE
  5
3B9
100
AcDbEntity
  8
0-0
100
AcDbLine
  6
CONTINUOUS
370
13
 10
153.890821773763
 20
447.922539940767
 11
153.390821773763
 21
445.097539940767
  0
LINE
  5
3BA
100
AcDbEntity
  8
0-0
100
AcDbLine
  6
CONTINUOUS
370
13
 10
153.390821773763
 20
445.097539940767
 11
153.715821773763
 21
444.722539940767
  0
LINE
  5
3BB
100
AcDbEntity
  8
0-0
100
AcDbLine
  6
CONTINUOUS
370
13
 10
153.715821773763
 20
444.722539940767
 11
154.390821773763
 21
445.272539940767
  0
LINE
  5
3BC
100
AcDbEntity
  8
0-0
100
AcDbLine
  6
CONTINUOUS
370
13
 10
154.390821773763
 20
445.272539940767
 11
154.815821773763
 21
447.397539940767
  0
CIRCLE
  5
3BD
100
AcDbEntity
  8
0-0
100
AcDbCircle
  6
CONTINUOUS
370
13
 10
157.990821773763
 20
440.947539940767
 40
0.425
  0
LINE
  5
3BE
100
AcDbEntity
  8
0-0
100
AcDbLine
  6
CONTINUOUS
370
13
 10
130.765821773763
 20
450.122539940767
 11
137.765821773763
 21
450.122539940767
  0
LINE
  5
3BF
100
AcDbEntity
  8
0-0
100
AcDbLine
  6
CONTINUOUS
370
13
 10
137.765821773763
 20
450.122539940767
 11
137.765821773763
 21
439.122539940767
  0
LINE
  5
3C0
100
AcDbEntity
  8
0-0
100
AcDbLine
  6
CONTINUOUS
370
13
 10
137.765821773763
 20
439.122539940767
 11
130.765821773763
 21
439.122539940767
  0
LINE
  5
3C1
100
AcDbEntity
  8
0-0
100
AcDbLine
  6
CONTINUOUS
370
13
 10
130.765821773763
 20
439.122539940767
 11
130.765821773763
 21
450.122539940767
  0
LINE
  5
3C2
100
AcDbEntity
  8
0-0
100
AcDbLine
  6
CONTINUOUS
370
13
 10
132.740821773763
 20
444.347539940767
 11
133.090821773763
 21
443.847539940767
  0
LINE
  5
3C3
100
AcDbEntity
  8
0-0
100
AcDbLine
  6
CONTINUOUS
370
13
 10
133.090821773763
 20
443.847539940767
 11
132.790821773763
 21
441.797539940767
  0
LINE
  5
3C4
100
AcDbEntity
  8
0-0
100
AcDbLine
  6
CONTINUOUS
370
13
 10
132.790821773763
 20
441.797539940767
 11
131.990821773763
 21
441.147539940767
  0
LINE
  5
3C5
100
AcDbEntity
  8
0-0
100
AcDbLine
  6
CONTINUOUS
370
13
 10
131.990821773763
 20
441.147539940767
 11
131.715821773763
 21
441.547539940767
  0
LINE
  5
3C6
100
AcDbEntity
  8
0-0
100
AcDbLine
  6
CONTINUOUS
370
13
 10
131.715821773763
 20
441.547539940767
 11
132.165821773763
 21
443.972539940767
  0
LINE
  5
3C7
100
AcDbEntity
  8
0-0
100
AcDbLine
  6
CONTINUOUS
370
13
 10
132.165821773763
 20
443.972539940767
 11
132.740821773763
 21
444.347539940767
  0
LINE
  5
3C8
100
AcDbEntity
  8
0-0
100
AcDbLine
  6
CONTINUOUS
370
13
 10
133.340821773763
 20
448.147539940767
 11
133.565821773763
 21
448.572539940767
  0
LINE
  5
3C9
100
AcDbEntity
  8
0-0
100
AcDbLine
  6
CONTINUOUS
370
13
 10
133.565821773763
 20
448.572539940767
 11
136.215821773763
 21
448.572539940767
  0
LINE
  5
3CA
100
AcDbEntity
  8
0-0
100
AcDbLine
  6
CONTINUOUS
370
13
 10
136.215821773763
 20
448.572539940767
 11
136.490821773763
 21
448.222539940767
  0
LINE
  5
3CB
100
AcDbEntity
  8
0-0
100
AcDbLine
  6
CONTINUOUS
370
13
 10
136.490821773763
 20
448.222539940767
 11
135.740821773763
 21
447.547539940767
  0
LINE
  5
3CC
100
AcDbEntity
  8
0-0
100
AcDbLine
  6
CONTINUOUS
370
13
 10
135.740821773763
 20
447.547539940767
 11
133.965821773763
 21
447.547539940767
  0
LINE
  5
3CD
100
AcDbEntity
  8
0-0
100
AcDbLine
  6
CONTINUOUS
370
13
 10
133.965821773763
 20
447.547539940767
 11
133.340821773763
 21
448.147539940767
  0
LINE
  5
3CE
100
AcDbEntity
  8
0-0
100
AcDbLine
  6
CONTINUOUS
370
13
 10
135.215821773763
 20
443.797539940767
 11
135.915821773763
 21
444.347539940767
  0
LINE
  5
3CF
100
AcDbEntity
  8
0-0
100
AcDbLine
  6
CONTINUOUS
370
13
 10
135.915821773763
 20
444.347539940767
 11
136.265821773763
 21
443.872539940767
  0
LINE
  5
3D0
100
AcDbEntity
  8
0-0
100
AcDbLine
  6
CONTINUOUS
370
13
 10
136.265821773763
 20
443.872539940767
 11
135.815821773763
 21
441.447539940767
  0
LINE
  5
3D1
100
AcDbEntity
  8
0-0
100
AcDbLine
  6
CONTINUOUS
370
13
 10
135.815821773763
 20
441.447539940767
 11
135.315821773763
 21
441.047539940767
  0
LINE
  5
3D2
100
AcDbEntity
  8
0-0
100
AcDbLine
  6
CONTINUOUS
370
13
 10
135.315821773763
 20
441.047539940767
 11
134.815821773763
 21
441.672539940767
  0
LINE
  5
3D3
100
AcDbEntity
  8
0-0
100
AcDbLine
  6
CONTINUOUS
370
13
 10
134.815821773763
 20
441.672539940767
 11
135.215821773763
 21
443.797539940767
  0
LINE
  5
3D4
100
AcDbEntity
  8
0-0
100
AcDbLine
  6
CONTINUOUS
370
13
 10
135.240821773763
 20
445.022539940767
 11
135.665821773763
 21
444.497539940767
  0
LINE
  5
3D5
100
AcDbEntity
  8
0-0
100
AcDbLine
  6
CONTINUOUS
370
13
 10
135.665821773763
 20
444.497539940767
 11
135.090821773763
 21
444.047539940767
  0
LINE
  5
3D6
100
AcDbEntity
  8
0-0
100
AcDbLine
  6
CONTINUOUS
370
13
 10
135.090821773763
 20
444.047539940767
 11
133.315821773763
 21
444.047539940767
  0
LINE
  5
3D7
100
AcDbEntity
  8
0-0
100
AcDbLine
  6
CONTINUOUS
370
13
 10
133.315821773763
 20
444.047539940767
 11
132.865821773763
 21
444.572539940767
  0
LINE
  5
3D8
100
AcDbEntity
  8
0-0
100
AcDbLine
  6
CONTINUOUS
370
13
 10
132.865821773763
 20
444.572539940767
 11
133.565821773763
 21
445.097539940767
  0
LINE
  5
3D9
100
AcDbEntity
  8
0-0
100
AcDbLine
  6
CONTINUOUS
370
13
 10
133.565821773763
 20
445.097539940767
 11
135.240821773763
 21
445.022539940767
  0
LINE
  5
3DA
100
AcDbEntity
  8
0-0
100
AcDbLine
  6
CONTINUOUS
370
13
 10
134.565821773763
 20
441.572539940767
 11
135.140821773763
 21
440.922539940767
  0
LINE
  5
3DB
100
AcDbEntity
  8
0-0
100
AcDbLine
  6
CONTINUOUS
370
13
 10
135.140821773763
 20
440.922539940767
 11
134.990821773763
 21
440.522539940767
  0
LINE
  5
3DC
100
AcDbEntity
  8
0-0
100
AcDbLine
  6
CONTINUOUS
370
13
 10
134.990821773763
 20
440.522539940767
 11
132.365821773763
 21
440.522539940767
  0
LINE
  5
3DD
100
AcDbEntity
  8
0-0
100
AcDbLine
  6
CONTINUOUS
370
13
 10
132.365821773763
 20
440.522539940767
 11
132.140821773763
 21
440.947539940767
  0
LINE
  5
3DE
100
AcDbEntity
  8
0-0
100
AcDbLine
  6
CONTINUOUS
370
13
 10
132.140821773763
 20
440.947539940767
 11
132.940821773763
 21
441.572539940767
  0
LINE
  5
3DF
100
AcDbEntity
  8
0-0
100
AcDbLine
  6
CONTINUOUS
370
13
 10
132.940821773763
 20
441.572539940767
 11
134.565821773763
 21
441.572539940767
  0
LINE
  5
3E0
100
AcDbEntity
  8
0-0
100
AcDbLine
  6
CONTINUOUS
370
13
 10
135.865821773763
 20
447.372539940767
 11
136.615821773763
 21
448.072539940767
  0
LINE
  5
3E1
100
AcDbEntity
  8
0-0
100
AcDbLine
  6
CONTINUOUS
370
13
 10
136.615821773763
 20
448.072539940767
 11
136.940821773763
 21
447.647539940767
  0
LINE
  5
3E2
100
AcDbEntity
  8
0-0
100
AcDbLine
  6
CONTINUOUS
370
13
 10
136.940821773763
 20
447.647539940767
 11
136.515821773763
 21
445.172539940767
  0
LINE
  5
3E3
100
AcDbEntity
  8
0-0
100
AcDbLine
  6
CONTINUOUS
370
13
 10
136.515821773763
 20
445.172539940767
 11
135.865821773763
 21
444.647539940767
  0
LINE
  5
3E4
100
AcDbEntity
  8
0-0
100
AcDbLine
  6
CONTINUOUS
370
13
 10
135.865821773763
 20
444.647539940767
 11
135.465821773763
 21
445.122539940767
  0
LINE
  5
3E5
100
AcDbEntity
  8
0-0
100
AcDbLine
  6
CONTINUOUS
370
13
 10
135.465821773763
 20
445.122539940767
 11
135.865821773763
 21
447.372539940767
  0
LINE
  5
3E6
100
AcDbEntity
  8
0-0
100
AcDbLine
  6
CONTINUOUS
370
13
 10
133.815821773763
 20
447.397539940767
 11
133.165821773763
 21
448.047539940767
  0
LINE
  5
3E7
100
AcDbEntity
  8
0-0
100
AcDbLine
  6
CONTINUOUS
370
13
 10
133.165821773763
 20
448.047539940767
 11
132.890821773763
 21
447.922539940767
  0
LINE
  5
3E8
100
AcDbEntity
  8
0-0
100
AcDbLine
  6
CONTINUOUS
370
13
 10
132.890821773763
 20
447.922539940767
 11
132.390821773763
 21
445.097539940767
  0
LINE
  5
3E9
100
AcDbEntity
  8
0-0
100
AcDbLine
  6
CONTINUOUS
370
13
 10
132.390821773763
 20
445.097539940767
 11
132.715821773763
 21
444.722539940767
  0
LINE
  5
3EA
100
AcDbEntity
  8
0-0
100
AcDbLine
  6
CONTINUOUS
370
13
 10
132.715821773763
 20
444.722539940767
 11
133.390821773763
 21
445.272539940767
  0
LINE
  5
3EB
100
AcDbEntity
  8
0-0
100
AcDbLine
  6
CONTINUOUS
370
13
 10
133.390821773763
 20
445.272539940767
 11
133.815821773763
 21
447.397539940767
  0
CIRCLE
  5
3EC
100
AcDbEntity
  8
0-0
100
AcDbCircle
  6
CONTINUOUS
370
13
 10
136.990821773763
 20
440.947539940767
 40
0.425
  0
LINE
  5
3ED
100
AcDbEntity
  8
0-0
100
AcDbLine
  6
CONTINUOUS
370
13
 10
123.765821773763
 20
450.122539940767
 11
130.765821773763
 21
450.122539940767
  0
LINE
  5
3EE
100
AcDbEntity
  8
0-0
100
AcDbLine
  6
CONTINUOUS
370
13
 10
130.765821773763
 20
450.122539940767
 11
130.765821773763
 21
439.122539940767
  0
LINE
  5
3EF
100
AcDbEntity
  8
0-0
100
AcDbLine
  6
CONTINUOUS
370
13
 10
130.765821773763
 20
439.122539940767
 11
123.765821773763
 21
439.122539940767
  0
LINE
  5
3F0
100
AcDbEntity
  8
0-0
100
AcDbLine
  6
CONTINUOUS
370
13
 10
123.765821773763
 20
439.122539940767
 11
123.765821773763
 21
450.122539940767
  0
LINE
  5
3F1
100
AcDbEntity
  8
0-0
100
AcDbLine
  6
CONTINUOUS
370
13
 10
125.740821773763
 20
444.347539940767
 11
126.090821773763
 21
443.847539940767
  0
LINE
  5
3F2
100
AcDbEntity
  8
0-0
100
AcDbLine
  6
CONTINUOUS
370
13
 10
126.090821773763
 20
443.847539940767
 11
125.790821773763
 21
441.797539940767
  0
LINE
  5
3F3
100
AcDbEntity
  8
0-0
100
AcDbLine
  6
CONTINUOUS
370
13
 10
125.790821773763
 20
441.797539940767
 11
124.990821773763
 21
441.147539940767
  0
LINE
  5
3F4
100
AcDbEntity
  8
0-0
100
AcDbLine
  6
CONTINUOUS
370
13
 10
124.990821773763
 20
441.147539940767
 11
124.715821773763
 21
441.547539940767
  0
LINE
  5
3F5
100
AcDbEntity
  8
0-0
100
AcDbLine
  6
CONTINUOUS
370
13
 10
124.715821773763
 20
441.547539940767
 11
125.165821773763
 21
443.972539940767
  0
LINE
  5
3F6
100
AcDbEntity
  8
0-0
100
AcDbLine
  6
CONTINUOUS
370
13
 10
125.165821773763
 20
443.972539940767
 11
125.740821773763
 21
444.347539940767
  0
LINE
  5
3F7
100
AcDbEntity
  8
0-0
100
AcDbLine
  6
CONTINUOUS
370
13
 10
126.340821773763
 20
448.147539940767
 11
126.565821773763
 21
448.572539940767
  0
LINE
  5
3F8
100
AcDbEntity
  8
0-0
100
AcDbLine
  6
CONTINUOUS
370
13
 10
126.565821773763
 20
448.572539940767
 11
129.215821773763
 21
448.572539940767
  0
LINE
  5
3F9
100
AcDbEntity
  8
0-0
100
AcDbLine
  6
CONTINUOUS
370
13
 10
129.215821773763
 20
448.572539940767
 11
129.490821773763
 21
448.222539940767
  0
LINE
  5
3FA
100
AcDbEntity
  8
0-0
100
AcDbLine
  6
CONTINUOUS
370
13
 10
129.490821773763
 20
448.222539940767
 11
128.740821773763
 21
447.547539940767
  0
LINE
  5
3FB
100
AcDbEntity
  8
0-0
100
AcDbLine
  6
CONTINUOUS
370
13
 10
128.740821773763
 20
447.547539940767
 11
126.965821773763
 21
447.547539940767
  0
LINE
  5
3FC
100
AcDbEntity
  8
0-0
100
AcDbLine
  6
CONTINUOUS
370
13
 10
126.965821773763
 20
447.547539940767
 11
126.340821773763
 21
448.147539940767
  0
LINE
  5
3FD
100
AcDbEntity
  8
0-0
100
AcDbLine
  6
CONTINUOUS
370
13
 10
128.215821773763
 20
443.797539940767
 11
128.915821773763
 21
444.347539940767
  0
LINE
  5
3FE
100
AcDbEntity
  8
0-0
100
AcDbLine
  6
CONTINUOUS
370
13
 10
128.915821773763
 20
444.347539940767
 11
129.265821773763
 21
443.872539940767
  0
LINE
  5
3FF
100
AcDbEntity
  8
0-0
100
AcDbLine
  6
CONTINUOUS
370
13
 10
129.265821773763
 20
443.872539940767
 11
128.815821773763
 21
441.447539940767
  0
LINE
  5
400
100
AcDbEntity
  8
0-0
100
AcDbLine
  6
CONTINUOUS
370
13
 10
128.815821773763
 20
441.447539940767
 11
128.315821773763
 21
441.047539940767
  0
LINE
  5
401
100
AcDbEntity
  8
0-0
100
AcDbLine
  6
CONTINUOUS
370
13
 10
128.315821773763
 20
441.047539940767
 11
127.815821773763
 21
441.672539940767
  0
LINE
  5
402
100
AcDbEntity
  8
0-0
100
AcDbLine
  6
CONTINUOUS
370
13
 10
127.815821773763
 20
441.672539940767
 11
128.215821773763
 21
443.797539940767
  0
LINE
  5
403
100
AcDbEntity
  8
0-0
100
AcDbLine
  6
CONTINUOUS
370
13
 10
128.240821773763
 20
445.022539940767
 11
128.665821773763
 21
444.497539940767
  0
LINE
  5
404
100
AcDbEntity
  8
0-0
100
AcDbLine
  6
CONTINUOUS
370
13
 10
128.665821773763
 20
444.497539940767
 11
128.090821773763
 21
444.047539940767
  0
LINE
  5
405
100
AcDbEntity
  8
0-0
100
AcDbLine
  6
CONTINUOUS
370
13
 10
128.090821773763
 20
444.047539940767
 11
126.315821773763
 21
444.047539940767
  0
LINE
  5
406
100
AcDbEntity
  8
0-0
100
AcDbLine
  6
CONTINUOUS
370
13
 10
126.315821773763
 20
444.047539940767
 11
125.865821773763
 21
444.572539940767
  0
LINE
  5
407
100
AcDbEntity
  8
0-0
100
AcDbLine
  6
CONTINUOUS
370
13
 10
125.865821773763
 20
444.572539940767
 11
126.565821773763
 21
445.097539940767
  0
LINE
  5
408
100
AcDbEntity
  8
0-0
100
AcDbLine
  6
CONTINUOUS
370
13
 10
126.565821773763
 20
445.097539940767
 11
128.240821773763
 21
445.022539940767
  0
LINE
  5
409
100
AcDbEntity
  8
0-0
100
AcDbLine
  6
CONTINUOUS
370
13
 10
127.565821773763
 20
441.572539940767
 11
128.140821773763
 21
440.922539940767
  0
LINE
  5
40A
100
AcDbEntity
  8
0-0
100
AcDbLine
  6
CONTINUOUS
370
13
 10
128.140821773763
 20
440.922539940767
 11
127.990821773763
 21
440.522539940767
  0
LINE
  5
40B
100
AcDbEntity
  8
0-0
100
AcDbLine
  6
CONTINUOUS
370
13
 10
127.990821773763
 20
440.522539940767
 11
125.365821773763
 21
440.522539940767
  0
LINE
  5
40C
100
AcDbEntity
  8
0-0
100
AcDbLine
  6
CONTINUOUS
370
13
 10
125.365821773763
 20
440.522539940767
 11
125.140821773763
 21
440.947539940767
  0
LINE
  5
40D
100
AcDbEntity
  8
0-0
100
AcDbLine
  6
CONTINUOUS
370
13
 10
125.140821773763
 20
440.947539940767
 11
125.940821773763
 21
441.572539940767
  0
LINE
  5
40E
100
AcDbEntity
  8
0-0
100
AcDbLine
  6
CONTINUOUS
370
13
 10
125.940821773763
 20
441.572539940767
 11
127.565821773763
 21
441.572539940767
  0
LINE
  5
40F
100
AcDbEntity
  8
0-0
100
AcDbLine
  6
CONTINUOUS
370
13
 10
128.865821773763
 20
447.372539940767
 11
129.615821773763
 21
448.072539940767
  0
LINE
  5
410
100
AcDbEntity
  8
0-0
100
AcDbLine
  6
CONTINUOUS
370
13
 10
129.615821773763
 20
448.072539940767
 11
129.940821773763
 21
447.647539940767
  0
LINE
  5
411
100
AcDbEntity
  8
0-0
100
AcDbLine
  6
CONTINUOUS
370
13
 10
129.940821773763
 20
447.647539940767
 11
129.515821773763
 21
445.172539940767
  0
LINE
  5
412
100
AcDbEntity
  8
0-0
100
AcDbLine
  6
CONTINUOUS
370
13
 10
129.515821773763
 20
445.172539940767
 11
128.865821773763
 21
444.647539940767
  0
LINE
  5
413
100
AcDbEntity
  8
0-0
100
AcDbLine
  6
CONTINUOUS
370
13
 10
128.865821773763
 20
444.647539940767
 11
128.465821773763
 21
445.122539940767
  0
LINE
  5
414
100
AcDbEntity
  8
0-0
100
AcDbLine
  6
CONTINUOUS
370
13
 10
128.465821773763
 20
445.122539940767
 11
128.865821773763
 21
447.372539940767
  0
LINE
  5
415
100
AcDbEntity
  8
0-0
100
AcDbLine
  6
CONTINUOUS
370
13
 10
126.815821773763
 20
447.397539940767
 11
126.165821773763
 21
448.047539940767
  0
LINE
  5
416
100
AcDbEntity
  8
0-0
100
AcDbLine
  6
CONTINUOUS
370
13
 10
126.165821773763
 20
448.047539940767
 11
125.890821773763
 21
447.922539940767
  0
LINE
  5
417
100
AcDbEntity
  8
0-0
100
AcDbLine
  6
CONTINUOUS
370
13
 10
125.890821773763
 20
447.922539940767
 11
125.390821773763
 21
445.097539940767
  0
LINE
  5
418
100
AcDbEntity
  8
0-0
100
AcDbLine
  6
CONTINUOUS
370
13
 10
125.390821773763
 20
445.097539940767
 11
125.715821773763
 21
444.722539940767
  0
LINE
  5
419
100
AcDbEntity
  8
0-0
100
AcDbLine
  6
CONTINUOUS
370
13
 10
125.715821773763
 20
444.722539940767
 11
126.390821773763
 21
445.272539940767
  0
LINE
  5
41A
100
AcDbEntity
  8
0-0
100
AcDbLine
  6
CONTINUOUS
370
13
 10
126.390821773763
 20
445.272539940767
 11
126.815821773763
 21
447.397539940767
  0
CIRCLE
  5
41B
100
AcDbEntity
  8
0-0
100
AcDbCircle
  6
CONTINUOUS
370
13
 10
129.990821773763
 20
440.947539940767
 40
0.425
  0
TEXT
  5
41C
100
AcDbEntity
  8
0-0
100
AcDbText
  6
CONTINUOUS
 10
108.639079739029
 20
359.706217800701
 40
6
  1
MCRP326Di
  7
Font_0
 11
108.639079739029
 21
365.706217800701
100
AcDbText
 73
3
  0
TEXT
  5
41D
100
AcDbEntity
  8
0-0
100
AcDbText
  6
CONTINUOUS
 10
204.933833365584
 20
378.205383971352
 40
3.5
  1
CW
  7
Font_0
 11
204.933833365584
 21
381.705383971352
100
AcDbText
 73
3
  0
TEXT
  5
41E
100
AcDbEntity
  8
0-0
100
AcDbText
  6
CONTINUOUS
 10
190.316898841042
 20
378.205383971352
 40
3.5
  1
CCW
  7
Font_0
 11
190.316898841042
 21
381.705383971352
100
AcDbText
 73
3
  0
MTEXT
  5
41F
100
AcDbEntity
  8
0-0
100
AcDbMText
 10
447.157269388617
 20
435.464972858272
 40
4.125
 41
  0.0
  1
{\fMS Gothic|b1;Manufactured by}
  7
Font_0
 11
1
 21
-2.44921270764475E-16
  0
MTEXT
  5
420
100
AcDbEntity
  8
0-0
100
AcDbMText
 10
439.971581976223
 20
428.468382483047
 40
4.95
 41
  0.0
  1
{\fMS Gothic|b1;Minato Concept,Inc.}
  7
Font_0
 11
1
 21
-2.44921270764475E-16
  0
MTEXT
  5
421
100
AcDbEntity
  8
0-0
100
AcDbMText
 10
451.695598280655
 20
419.959015810476
 40
3.3
 41
  0.0
  1
{\fMS Gothic|b1;Tokyo Japan}
  7
Font_0
 11
1
 21
-2.44921270764475E-16
  0
MTEXT
  5
422
100
AcDbEntity
  8
0-0
100
AcDbMText
 10
447.724560500121
 20
414.664298769765
 40
3.3
 41
  0.0
  1
{\fMS Gothic|b1;TEL:03-5637-2882}
  7
Font_0
 11
1
 21
-2.44921270764475E-16
  0
MTEXT
  5
423
100
AcDbEntity
  8
0-0
100
AcDbMText
 10
447.08633114588
 20
409.74777580339
 40
3.3
 41
  0.0
  1
{\fMS Gothic|b1;www.minato-c.co.jp}
  7
Font_0
 11
1
 21
-2.44921270764475E-16
  0
LINE
  5
424
100
AcDbEntity
  8
0-0
100
AcDbLine
  6
CONTINUOUS
370
13
 10
447.132884796696
 20
401.975874666625
 11
476.359037716998
 21
401.975874666625
  0
LINE
  5
425
100
AcDbEntity
  8
0-0
100
AcDbLine
  6
CONTINUOUS
370
13
 10
447.132884796696
 20
397.850874666625
 11
476.359037716998
 21
397.850874666625
  0
LINE
  5
426
100
AcDbEntity
  8
0-0
100
AcDbLine
  6
CONTINUOUS
370
13
 10
447.132884796696
 20
401.975874666625
 11
447.132884796696
 21
397.850874666625
  0
LINE
  5
427
100
AcDbEntity
  8
0-0
100
AcDbLine
  6
CONTINUOUS
370
13
 10
476.359037716998
 20
401.975874666625
 11
476.359037716998
 21
397.850874666625
  0
LINE
  5
428
100
AcDbEntity
  8
0-0
100
AcDbLine
  6
CONTINUOUS
370
13
 10
456.317830601692
 20
401.975874666625
 11
456.317830601692
 21
397.850874666625
  0
MTEXT
  5
429
100
AcDbEntity
  8
0-0
100
AcDbMText
 10
447.784474030027
 20
400.847997287698
 40
2.475
 41
  0.0
  1
{\fMS Gothic|b1;SER.NO.}
  7
Font_0
 11
1
 21
-2.44921270764475E-16
  0
TEXT
  5
42A
100
AcDbEntity
  8
0-0
100
AcDbText
  6
CONTINUOUS
 10
414.044948347415
 20
381.780476809961
 40
3
  1
DC24V IN
  7
Font_0
 50
360
 11
414.044948347415
 21
384.780476809961
100
AcDbText
 73
3
  0
TEXT
  5
42B
100
AcDbEntity
  8
0-0
100
AcDbText
  6
CONTINUOUS
 10
456.872343321033
 20
381.780476809961
 40
3
  1
RS-232C
  7
Font_0
 50
360
 11
456.872343321033
 21
384.780476809961
100
AcDbText
 73
3
  0
TEXT
  5
42C
100
AcDbEntity
  8
0-0
100
AcDbText
  6
CONTINUOUS
 10
498.559173177
 20
381.780476809961
 40
3
  1
Ｒ．Ｃ
  7
Font_0
 50
360
 11
498.559173177
 21
384.780476809961
100
AcDbText
 73
3
  0
TEXT
  5
42D
100
AcDbEntity
  8
0-0
100
AcDbText
  6
CONTINUOUS
 10
415.899022349485
 20
475.389136354789
 40
3
  1
POWER
  7
Font_0
 50
360
 11
415.899022349485
 21
478.389136354789
100
AcDbText
 73
3
  0
LINE
  5
42E
100
AcDbEntity
  8
0-0
100
AcDbLine
  6
CONTINUOUS
370
13
 10
225.165821773762
 20
120.279480342881
 11
225.165821773762
 21
214.083073817195
  0
LINE
  5
42F
100
AcDbEntity
  8
0-0
100
AcDbLine
  6
CONTINUOUS
370
13
 10
225.165821773762
 20
229.083073817195
 11
225.165821773762
 21
259.876813500058
  0
LINE
  5
430
100
AcDbEntity
  8
0-0
100
AcDbLine
  6
CONTINUOUS
370
13
 10
225.165821773762
 20
119.079480342881
 11
225.165821773762
 21
214.083073817195
  0
LINE
  5
431
100
AcDbEntity
  8
0-0
100
AcDbLine
  6
CONTINUOUS
370
13
 10
225.165821773762
 20
229.083073817195
 11
225.165821773762
 21
261.076813500058
  0
LINE
  5
432
100
AcDbEntity
  8
0-0
100
AcDbLine
  6
CONTINUOUS
370
13
 10
225.165821773762
 20
261.076813500058
 11
225.165821773762
 21
229.083073817195
  0
LINE
  5
433
100
AcDbEntity
  8
0-0
100
AcDbLine
  6
CONTINUOUS
370
13
 10
225.165821773762
 20
214.083073817195
 11
225.165821773762
 21
118.076813500057
  0
LINE
  5
434
100
AcDbEntity
  8
0-0
100
AcDbLine
  6
CONTINUOUS
370
13
 10
226.365821773762
 20
118.076813500057
 11
226.365821773762
 21
214.083073817195
  0
LINE
  5
435
100
AcDbEntity
  8
0-0
100
AcDbLine
  6
CONTINUOUS
370
13
 10
226.365821773762
 20
229.083073817195
 11
226.365821773762
 21
261.076813500058
  0
CIRCLE
  5
436
100
AcDbEntity
  8
0-0
100
AcDbCircle
  6
CONTINUOUS
370
13
 10
436.105667121388
 20
255.076813500058
 40
2.75
  0
ARC
  5
437
100
AcDbEntity
  8
0-0
100
AcDbCircle
  6
BYLAYER
370
13
 10
437.946167121388
 20
253.236313500058
 40
1.653
100
AcDbArc
 50
90.0009086878458
 51
179.999091312156
  0
ARC
  5
438
100
AcDbEntity
  8
0-0
100
AcDbCircle
  6
BYLAYER
370
13
 10
437.946167121388
 20
256.917313500057
 40
1.653
100
AcDbArc
 50
180.000908687844
 51
269.999091312154
  0
ARC
  5
439
100
AcDbEntity
  8
0-0
100
AcDbCircle
  6
BYLAYER
370
13
 10
436.105667121388
 20
255.076813500058
 40
1.85
100
AcDbArc
 50
264.183007389975
 51
270
  0
ARC
  5
43A
100
AcDbEntity
  8
0-0
100
AcDbCircle
  6
BYLAYER
370
13
 10
436.105667121388
 20
255.076813500058
 40
1.85
100
AcDbArc
 50
270
 51
275.816992610025
  0
ARC
  5
43B
100
AcDbEntity
  8
0-0
100
AcDbCircle
  6
BYLAYER
370
13
 10
436.105667121388
 20
255.076813500058
 40
1.85
100
AcDbArc
 50
90
 51
95.8169926100252
  0
ARC
  5
43C
100
AcDbEntity
  8
0-0
100
AcDbCircle
  6
BYLAYER
370
13
 10
436.105667121388
 20
255.076813500058
 40
1.85
100
AcDbArc
 50
84.1830073899748
 51
90
  0
ARC
  5
43D
100
AcDbEntity
  8
0-0
100
AcDbCircle
  6
BYLAYER
370
13
 10
436.105667121388
 20
255.076813500058
 40
1.85
100
AcDbArc
 50
180
 51
185.816992610024
  0
ARC
  5
43E
100
AcDbEntity
  8
0-0
100
AcDbCircle
  6
BYLAYER
370
13
 10
436.105667121388
 20
255.076813500058
 40
1.85
100
AcDbArc
 50
174.183007389976
 51
180
  0
ARC
  5
43F
100
AcDbEntity
  8
0-0
100
AcDbCircle
  6
BYLAYER
370
13
 10
434.265167121388
 20
253.236313500058
 40
1.653
100
AcDbArc
 50
0.0009086878442255
 51
89.9990913121542
  0
ARC
  5
440
100
AcDbEntity
  8
0-0
100
AcDbCircle
  6
BYLAYER
370
13
 10
434.265167121388
 20
256.917313500057
 40
1.653
100
AcDbArc
 50
270.000908687846
 51
359.999091312156
  0
ARC
  5
441
100
AcDbEntity
  8
0-0
100
AcDbCircle
  6
BYLAYER
370
13
 10
436.105667121388
 20
255.076813500058
 40
1.85
100
AcDbArc
 50
0
 51
5.81699261002353
  0
ARC
  5
442
100
AcDbEntity
  8
0-0
100
AcDbCircle
  6
BYLAYER
370
13
 10
436.105667121388
 20
255.076813500058
 40
1.85
100
AcDbArc
 50
354.183007389976
 51
0
  0
CIRCLE
  5
443
100
AcDbEntity
  8
0-0
100
AcDbCircle
  6
CONTINUOUS
370
13
 10
521.105667121388
 20
255.076813500058
 40
2.75
  0
ARC
  5
444
100
AcDbEntity
  8
0-0
100
AcDbCircle
  6
BYLAYER
370
13
 10
522.946167121388
 20
253.236313500058
 40
1.653
100
AcDbArc
 50
90.0009086878458
 51
179.999091312156
  0
ARC
  5
445
100
AcDbEntity
  8
0-0
100
AcDbCircle
  6
BYLAYER
370
13
 10
522.946167121388
 20
256.917313500057
 40
1.653
100
AcDbArc
 50
180.000908687844
 51
269.999091312154
  0
ARC
  5
446
100
AcDbEntity
  8
0-0
100
AcDbCircle
  6
BYLAYER
370
13
 10
521.105667121388
 20
255.076813500058
 40
1.85
100
AcDbArc
 50
264.183007389975
 51
270
  0
ARC
  5
447
100
AcDbEntity
  8
0-0
100
AcDbCircle
  6
BYLAYER
370
13
 10
521.105667121388
 20
255.076813500058
 40
1.85
100
AcDbArc
 50
270
 51
275.816992610025
  0
ARC
  5
448
100
AcDbEntity
  8
0-0
100
AcDbCircle
  6
BYLAYER
370
13
 10
521.105667121388
 20
255.076813500058
 40
1.85
100
AcDbArc
 50
90
 51
95.8169926100252
  0
ARC
  5
449
100
AcDbEntity
  8
0-0
100
AcDbCircle
  6
BYLAYER
370
13
 10
521.105667121388
 20
255.076813500058
 40
1.85
100
AcDbArc
 50
84.1830073899748
 51
90
  0
ARC
  5
44A
100
AcDbEntity
  8
0-0
100
AcDbCircle
  6
BYLAYER
370
13
 10
521.105667121388
 20
255.076813500058
 40
1.85
100
AcDbArc
 50
180
 51
185.816992610024
  0
ARC
  5
44B
100
AcDbEntity
  8
0-0
100
AcDbCircle
  6
BYLAYER
370
13
 10
521.105667121388
 20
255.076813500058
 40
1.85
100
AcDbArc
 50
174.183007389976
 51
180
  0
ARC
  5
44C
100
AcDbEntity
  8
0-0
100
AcDbCircle
  6
BYLAYER
370
13
 10
519.265167121388
 20
253.236313500058
 40
1.653
100
AcDbArc
 50
0.0009086878442255
 51
89.9990913121542
  0
ARC
  5
44D
100
AcDbEntity
  8
0-0
100
AcDbCircle
  6
BYLAYER
370
13
 10
519.265167121388
 20
256.917313500057
 40
1.653
100
AcDbArc
 50
270.000908687846
 51
359.999091312156
  0
ARC
  5
44E
100
AcDbEntity
  8
0-0
100
AcDbCircle
  6
BYLAYER
370
13
 10
521.105667121388
 20
255.076813500058
 40
1.85
100
AcDbArc
 50
0
 51
5.81699261002353
  0
ARC
  5
44F
100
AcDbEntity
  8
0-0
100
AcDbCircle
  6
BYLAYER
370
13
 10
521.105667121388
 20
255.076813500058
 40
1.85
100
AcDbArc
 50
354.183007389976
 51
0
  0
CIRCLE
  5
450
100
AcDbEntity
  8
0-0
100
AcDbCircle
  6
CONTINUOUS
370
13
 10
535.105667121388
 20
195.079480342881
 40
2.75
  0
ARC
  5
451
100
AcDbEntity
  8
0-0
100
AcDbCircle
  6
BYLAYER
370
13
 10
536.946167121388
 20
193.238980342881
 40
1.653
100
AcDbArc
 50
90.0009086878458
 51
179.999091312156
  0
ARC
  5
452
100
AcDbEntity
  8
0-0
100
AcDbCircle
  6
BYLAYER
370
13
 10
536.946167121388
 20
196.91998034288
 40
1.653
100
AcDbArc
 50
180.000908687844
 51
269.999091312154
  0
ARC
  5
453
100
AcDbEntity
  8
0-0
100
AcDbCircle
  6
BYLAYER
370
13
 10
535.105667121388
 20
195.079480342881
 40
1.85
100
AcDbArc
 50
264.183007389975
 51
270
  0
ARC
  5
454
100
AcDbEntity
  8
0-0
100
AcDbCircle
  6
BYLAYER
370
13
 10
535.105667121388
 20
195.079480342881
 40
1.85
100
AcDbArc
 50
270
 51
275.816992610025
  0
ARC
  5
455
100
AcDbEntity
  8
0-0
100
AcDbCircle
  6
BYLAYER
370
13
 10
535.105667121388
 20
195.079480342881
 40
1.85
100
AcDbArc
 50
90
 51
95.8169926100252
  0
ARC
  5
456
100
AcDbEntity
  8
0-0
100
AcDbCircle
  6
BYLAYER
370
13
 10
535.105667121388
 20
195.079480342881
 40
1.85
100
AcDbArc
 50
84.1830073899748
 51
90
  0
ARC
  5
457
100
AcDbEntity
  8
0-0
100
AcDbCircle
  6
BYLAYER
370
13
 10
535.105667121388
 20
195.079480342881
 40
1.85
100
AcDbArc
 50
180
 51
185.816992610024
  0
ARC
  5
458
100
AcDbEntity
  8
0-0
100
AcDbCircle
  6
BYLAYER
370
13
 10
535.105667121388
 20
195.079480342881
 40
1.85
100
AcDbArc
 50
174.183007389976
 51
180
  0
ARC
  5
459
100
AcDbEntity
  8
0-0
100
AcDbCircle
  6
BYLAYER
370
13
 10
533.265167121388
 20
193.238980342881
 40
1.653
100
AcDbArc
 50
0.0009086878442255
 51
89.9990913121542
  0
ARC
  5
45A
100
AcDbEntity
  8
0-0
100
AcDbCircle
  6
BYLAYER
370
13
 10
533.265167121388
 20
196.91998034288
 40
1.653
100
AcDbArc
 50
270.000908687846
 51
359.999091312156
  0
ARC
  5
45B
100
AcDbEntity
  8
0-0
100
AcDbCircle
  6
BYLAYER
370
13
 10
535.105667121388
 20
195.079480342881
 40
1.85
100
AcDbArc
 50
0
 51
5.81699261002353
  0
ARC
  5
45C
100
AcDbEntity
  8
0-0
100
AcDbCircle
  6
BYLAYER
370
13
 10
535.105667121388
 20
195.079480342881
 40
1.85
100
AcDbArc
 50
354.183007389976
 51
0
  0
CIRCLE
  5
45D
100
AcDbEntity
  8
0-0
100
AcDbCircle
  6
CONTINUOUS
370
13
 10
521.105667121388
 20
125.079480342881
 40
2.75
  0
ARC
  5
45E
100
AcDbEntity
  8
0-0
100
AcDbCircle
  6
BYLAYER
370
13
 10
522.946167121388
 20
123.238980342881
 40
1.653
100
AcDbArc
 50
90.0009086878458
 51
179.999091312156
  0
ARC
  5
45F
100
AcDbEntity
  8
0-0
100
AcDbCircle
  6
BYLAYER
370
13
 10
522.946167121388
 20
126.91998034288
 40
1.653
100
AcDbArc
 50
180.000908687844
 51
269.999091312154
  0
ARC
  5
460
100
AcDbEntity
  8
0-0
100
AcDbCircle
  6
BYLAYER
370
13
 10
521.105667121388
 20
125.079480342881
 40
1.85
100
AcDbArc
 50
264.183007389975
 51
270
  0
ARC
  5
461
100
AcDbEntity
  8
0-0
100
AcDbCircle
  6
BYLAYER
370
13
 10
521.105667121388
 20
125.079480342881
 40
1.85
100
AcDbArc
 50
270
 51
275.816992610025
  0
ARC
  5
462
100
AcDbEntity
  8
0-0
100
AcDbCircle
  6
BYLAYER
370
13
 10
521.105667121388
 20
125.079480342881
 40
1.85
100
AcDbArc
 50
90
 51
95.8169926100252
  0
ARC
  5
463
100
AcDbEntity
  8
0-0
100
AcDbCircle
  6
BYLAYER
370
13
 10
521.105667121388
 20
125.079480342881
 40
1.85
100
AcDbArc
 50
84.1830073899748
 51
90
  0
ARC
  5
464
100
AcDbEntity
  8
0-0
100
AcDbCircle
  6
BYLAYER
370
13
 10
521.105667121388
 20
125.079480342881
 40
1.85
100
AcDbArc
 50
180
 51
185.816992610024
  0
ARC
  5
465
100
AcDbEntity
  8
0-0
100
AcDbCircle
  6
BYLAYER
370
13
 10
521.105667121388
 20
125.079480342881
 40
1.85
100
AcDbArc
 50
174.183007389976
 51
180
  0
ARC
  5
466
100
AcDbEntity
  8
0-0
100
AcDbCircle
  6
BYLAYER
370
13
 10
519.265167121388
 20
123.238980342881
 40
1.653
100
AcDbArc
 50
0.0009086878442255
 51
89.9990913121542
  0
ARC
  5
467
100
AcDbEntity
  8
0-0
100
AcDbCircle
  6
BYLAYER
370
13
 10
519.265167121388
 20
126.91998034288
 40
1.653
100
AcDbArc
 50
270.000908687846
 51
359.999091312156
  0
ARC
  5
468
100
AcDbEntity
  8
0-0
100
AcDbCircle
  6
BYLAYER
370
13
 10
521.105667121388
 20
125.079480342881
 40
1.85
100
AcDbArc
 50
0
 51
5.81699261002353
  0
ARC
  5
469
100
AcDbEntity
  8
0-0
100
AcDbCircle
  6
BYLAYER
370
13
 10
521.105667121388
 20
125.079480342881
 40
1.85
100
AcDbArc
 50
354.183007389976
 51
0
  0
CIRCLE
  5
46A
100
AcDbEntity
  8
0-0
100
AcDbCircle
  6
CONTINUOUS
370
13
 10
421.105667121388
 20
125.079480342881
 40
2.75
  0
ARC
  5
46B
100
AcDbEntity
  8
0-0
100
AcDbCircle
  6
BYLAYER
370
13
 10
422.946167121388
 20
123.238980342881
 40
1.653
100
AcDbArc
 50
90.0009086878458
 51
179.999091312156
  0
ARC
  5
46C
100
AcDbEntity
  8
0-0
100
AcDbCircle
  6
BYLAYER
370
13
 10
422.946167121388
 20
126.91998034288
 40
1.653
100
AcDbArc
 50
180.000908687844
 51
269.999091312154
  0
ARC
  5
46D
100
AcDbEntity
  8
0-0
100
AcDbCircle
  6
BYLAYER
370
13
 10
421.105667121388
 20
125.079480342881
 40
1.85
100
AcDbArc
 50
264.183007389975
 51
270
  0
ARC
  5
46E
100
AcDbEntity
  8
0-0
100
AcDbCircle
  6
BYLAYER
370
13
 10
421.105667121388
 20
125.079480342881
 40
1.85
100
AcDbArc
 50
270
 51
275.816992610025
  0
ARC
  5
46F
100
AcDbEntity
  8
0-0
100
AcDbCircle
  6
BYLAYER
370
13
 10
421.105667121388
 20
125.079480342881
 40
1.85
100
AcDbArc
 50
90
 51
95.8169926100252
  0
ARC
  5
470
100
AcDbEntity
  8
0-0
100
AcDbCircle
  6
BYLAYER
370
13
 10
421.105667121388
 20
125.079480342881
 40
1.85
100
AcDbArc
 50
84.1830073899748
 51
90
  0
ARC
  5
471
100
AcDbEntity
  8
0-0
100
AcDbCircle
  6
BYLAYER
370
13
 10
421.105667121388
 20
125.079480342881
 40
1.85
100
AcDbArc
 50
180
 51
185.816992610024
  0
ARC
  5
472
100
AcDbEntity
  8
0-0
100
AcDbCircle
  6
BYLAYER
370
13
 10
421.105667121388
 20
125.079480342881
 40
1.85
100
AcDbArc
 50
174.183007389976
 51
180
  0
ARC
  5
473
100
AcDbEntity
  8
0-0
100
AcDbCircle
  6
BYLAYER
370
13
 10
419.265167121388
 20
123.238980342881
 40
1.653
100
AcDbArc
 50
0.0009086878442255
 51
89.9990913121542
  0
ARC
  5
474
100
AcDbEntity
  8
0-0
100
AcDbCircle
  6
BYLAYER
370
13
 10
419.265167121388
 20
126.91998034288
 40
1.653
100
AcDbArc
 50
270.000908687846
 51
359.999091312156
  0
ARC
  5
475
100
AcDbEntity
  8
0-0
100
AcDbCircle
  6
BYLAYER
370
13
 10
421.105667121388
 20
125.079480342881
 40
1.85
100
AcDbArc
 50
0
 51
5.81699261002353
  0
ARC
  5
476
100
AcDbEntity
  8
0-0
100
AcDbCircle
  6
BYLAYER
370
13
 10
421.105667121388
 20
125.079480342881
 40
1.85
100
AcDbArc
 50
354.183007389976
 51
0
  0
LWPOLYLINE
  5
477
100
AcDbEntity
  8
0-0
100
AcDbPolyline
  6
CONTINUOUS
370
13
 90
     4
 70
     1
 10
470.709085364146
  20
376.462149991016
 10
452.709085364146
  20
376.462149991016
 10
452.709085364146
  20
366.462149991016
 10
470.709085364146
  20
366.462149991016
  0
TEXT
  5
478
100
AcDbEntity
  8
0-0
100
AcDbText
  6
CONTINUOUS
 10
183.314975126523
 20
424.639961211207
 40
5
  1
MODE
  7
Font_0
 11
183.314975126523
 21
429.639961211207
100
AcDbText
 73
3
  0
LINE
  5
479
100
AcDbEntity
  8
0-0
100
AcDbLine
  6
CONTINUOUS
370
13
 10
209.313899049792
 20
371.171436866288
 11
239.112227298895
 21
347.374521502195
  0
LINE
  5
47A
100
AcDbEntity
  8
0-0
100
AcDbLine
  6
CONTINUOUS
370
13
 10
209.313899049792
 20
371.171436866288
 11
212.062760187618
 21
369.96987020357
  0
LINE
  5
47B
100
AcDbEntity
  8
0-0
100
AcDbLine
  6
CONTINUOUS
370
13
 10
209.313899049792
 20
371.171436866288
 11
211.093699295266
 21
368.756419043121
  0
TEXT
  5
47C
100
AcDbEntity
  8
0-0
100
AcDbText
  6
CONTINUOUS
 10
240.112227298895
 20
347.374521502195
 40
6
  1
回転方向切替SW
  7
Font_0
100
AcDbText
  0
LINE
  5
47D
100
AcDbEntity
  8
0-0
100
AcDbLine
  6
CONTINUOUS
370
13
 10
239.112227298895
 20
347.374521502195
 11
282.112227298895
 21
347.374521502195
  0
LINE
  5
47E
100
AcDbEntity
  8
0-0
100
AcDbLine
  6
CONTINUOUS
370
13
 10
206.313899049792
 20
412.671436866288
 11
239.293867413783
 21
388.304663649891
  0
LINE
  5
47F
100
AcDbEntity
  8
0-0
100
AcDbLine
  6
CONTINUOUS
370
13
 10
206.313899049792
 20
412.671436866288
 11
209.105951109045
 21
411.573964635012
  0
LINE
  5
480
100
AcDbEntity
  8
0-0
100
AcDbLine
  6
CONTINUOUS
370
13
 10
206.313899049792
 20
412.671436866288
 11
208.183150946156
 21
410.324972004428
  0
TEXT
  5
481
100
AcDbEntity
  8
0-0
100
AcDbText
  6
CONTINUOUS
 10
240.293867413783
 20
388.304663649891
 40
6
  1
起動・停止SW
  7
Font_0
100
AcDbText
  0
LINE
  5
482
100
AcDbEntity
  8
0-0
100
AcDbLine
  6
CONTINUOUS
370
13
 10
239.293867413783
 20
388.304663649891
 11
276.293867413783
 21
388.304663649891
  0
LINE
  5
483
100
AcDbEntity
  8
0-0
100
AcDbLine
  6
CONTINUOUS
370
13
 10
206.413899049793
 20
428.671436866288
 11
238.205358408622
 21
405.866325939245
  0
LINE
  5
484
100
AcDbEntity
  8
0-0
100
AcDbLine
  6
CONTINUOUS
370
13
 10
206.413899049793
 20
428.671436866288
 11
209.221096751613
 21
427.613305937294
  0
LINE
  5
485
100
AcDbEntity
  8
0-0
100
AcDbLine
  6
CONTINUOUS
370
13
 10
206.413899049793
 20
428.671436866288
 11
208.315938108517
 21
426.351469750339
  0
TEXT
  5
486
100
AcDbEntity
  8
0-0
100
AcDbText
  6
CONTINUOUS
 10
239.205358408622
 20
405.866325939245
 40
6
  1
モードSW
  7
Font_0
100
AcDbText
  0
LINE
  5
487
100
AcDbEntity
  8
0-0
100
AcDbLine
  6
CONTINUOUS
370
13
 10
238.205358408622
 20
405.866325939245
 11
263.205358408622
 21
405.866325939245
  0
LINE
  5
488
100
AcDbEntity
  8
0-0
100
AcDbLine
  6
CONTINUOUS
370
13
 10
141.265821773763
 20
450.122539940767
 11
119.324204888084
 21
509.021966095502
  0
LINE
  5
489
100
AcDbEntity
  8
0-0
100
AcDbLine
  6
CONTINUOUS
370
13
 10
141.265821773763
 20
450.122539940767
 11
139.526625030832
 21
452.566961076614
  0
LINE
  5
48A
100
AcDbEntity
  8
0-0
100
AcDbLine
  6
CONTINUOUS
370
13
 10
141.265821773763
 20
450.122539940767
 11
140.981843780129
 21
453.109069113424
  0
TEXT
  5
48B
100
AcDbEntity
  8
0-0
100
AcDbText
  6
CONTINUOUS
 10
120.322034111678
 20
509.021966095502
 40
6
  1
LED8ｾｸﾞﾒﾝﾄ表示(5桁)
  7
Font_0
100
AcDbText
  0
LINE
  5
48C
100
AcDbEntity
  8
0-0
100
AcDbLine
  6
CONTINUOUS
370
13
 10
119.322034111678
 20
509.021966095502
 11
176.128222822997
 21
509.021966095502
  0
LINE
  5
48D
100
AcDbEntity
  8
0-0
100
AcDbLine
  6
CONTINUOUS
370
13
 10
412.150044738077
 20
463.56410735337
 11
380.561485043688
 21
500.059034647701
  0
LINE
  5
48E
100
AcDbEntity
  8
0-0
100
AcDbLine
  6
CONTINUOUS
370
13
 10
412.150044738077
 20
463.56410735337
 11
409.666504940416
 21
465.246971006027
  0
LINE
  5
48F
100
AcDbEntity
  8
0-0
100
AcDbLine
  6
CONTINUOUS
370
13
 10
412.150044738077
 20
463.56410735337
 11
410.840668008322
 21
466.263279926507
  0
TEXT
  5
490
100
AcDbEntity
  8
0-0
100
AcDbText
  6
CONTINUOUS
 10
361.561485043688
 20
500.059034647701
 40
6
  1
電源SW
  7
Font_0
 72
2
 11
379.561485043688
 21
500.059034647701
100
AcDbText
  0
LINE
  5
491
100
AcDbEntity
  8
0-0
100
AcDbLine
  6
CONTINUOUS
370
13
 10
380.561485043688
 20
500.059034647701
 11
361.561485043688
 21
500.059034647701
  0
LINE
  5
492
100
AcDbEntity
  8
0-0
100
AcDbLine
  6
CONTINUOUS
370
13
 10
420.58913873091
 20
364.901835895278
 11
428.653722792545
 21
331.053192673297
  0
LINE
  5
493
100
AcDbEntity
  8
0-0
100
AcDbLine
  6
CONTINUOUS
370
13
 10
420.58913873091
 20
364.901835895278
 11
422.016062985375
 21
362.262918092082
  0
LINE
  5
494
100
AcDbEntity
  8
0-0
100
AcDbLine
  6
CONTINUOUS
370
13
 10
420.58913873091
 20
364.901835895278
 11
420.505432482955
 21
361.90300391198
  0
TEXT
  5
495
100
AcDbEntity
  8
0-0
100
AcDbText
  6
CONTINUOUS
 10
397.653722792545
 20
331.053192673297
 40
6
  1
DC電源入力
  7
Font_0
 72
2
 11
427.653722792545
 21
331.053192673297
100
AcDbText
  0
LINE
  5
496
100
AcDbEntity
  8
0-0
100
AcDbLine
  6
CONTINUOUS
370
13
 10
428.653722792545
 20
331.053192673297
 11
397.653722792545
 21
331.053192673297
  0
LINE
  5
497
100
AcDbEntity
  8
0-0
100
AcDbLine
  6
CONTINUOUS
370
13
 10
460.593776646612
 20
367.011235304525
 11
474.036557092206
 21
323.588489493934
  0
LINE
  5
498
100
AcDbEntity
  8
0-0
100
AcDbLine
  6
CONTINUOUS
370
13
 10
460.593776646612
 20
367.011235304525
 11
462.192469240188
 21
364.472695962453
  0
LINE
  5
499
100
AcDbEntity
  8
0-0
100
AcDbLine
  6
CONTINUOUS
370
13
 10
460.593776646612
 20
367.011235304525
 11
460.709015374455
 21
364.013449448997
  0
TEXT
  5
49A
100
AcDbEntity
  8
0-0
100
AcDbText
  6
CONTINUOUS
 10
475.036557092206
 20
323.588489493934
 40
6
  1
通信インターフェイス
  7
Font_0
100
AcDbText
  0
LINE
  5
49B
100
AcDbEntity
  8
0-0
100
AcDbLine
  6
CONTINUOUS
370
13
 10
474.036557092206
 20
323.588489493934
 11
535.036557092206
 21
323.588489493934
  0
LINE
  5
49C
100
AcDbEntity
  8
0-0
100
AcDbLine
  6
CONTINUOUS
370
13
 10
509.575388537694
 20
378.884359170725
 11
533.204745381562
 21
413.543629969982
  0
LINE
  5
49D
100
AcDbEntity
  8
0-0
100
AcDbLine
  6
CONTINUOUS
370
13
 10
509.575388537694
 20
378.884359170725
 11
510.566173636936
 21
381.716027387011
  0
LINE
  5
49E
100
AcDbEntity
  8
0-0
100
AcDbLine
  6
CONTINUOUS
370
13
 10
509.575388537694
 20
378.884359170725
 11
511.849267711471
 21
380.841263231497
  0
TEXT
  5
49F
100
AcDbEntity
  8
0-0
100
AcDbText
  6
CONTINUOUS
 10
534.011330929877
 20
413.282154569278
 40
6
  1
外部コネクタ
  7
Font_0
100
AcDbText
  0
LINE
  5
4A0
100
AcDbEntity
  8
0-0
100
AcDbLine
  6
CONTINUOUS
370
13
 10
533.011330929877
 20
413.282154569278
 11
570.011330929877
 21
413.282154569278
  0
LINE
  5
4A1
100
AcDbEntity
  8
0-0
100
AcDbLine
  6
CONTINUOUS
370
13
 10
204.810529189138
 20
187.458376703517
 11
238.429376123792
 21
134.358118132795
  0
LINE
  5
4A2
100
AcDbEntity
  8
0-0
100
AcDbLine
  6
CONTINUOUS
370
13
 10
204.810529189138
 20
187.458376703517
 11
207.016647618803
 21
185.425388392115
  0
LINE
  5
4A3
100
AcDbEntity
  8
0-0
100
AcDbLine
  6
CONTINUOUS
370
13
 10
204.810529189138
 20
187.458376703517
 11
205.704589637284
 21
184.594697965414
  0
TEXT
  5
4A4
100
AcDbEntity
  8
0-0
100
AcDbText
  6
CONTINUOUS
 10
238.429376123792
 20
134.358118132795
 40
6
  1
ポンプヘッド
  7
Font_0
 72
2
 11
274.429376123792
 21
134.358118132795
100
AcDbText
  0
LINE
  5
4A5
100
AcDbEntity
  8
0-0
100
AcDbLine
  6
CONTINUOUS
370
13
 10
275.429376123792
 20
134.358118132795
 11
238.429376123792
 21
134.358118132795
  0
LINE
  5
4A6
100
AcDbEntity
  8
0-0
100
AcDbLine
  6
CONTINUOUS
370
13
 10
414.774091318933
 20
113.669387534475
 11
434.876389425397
 21
91.6809150107688
  0
LINE
  5
4A7
100
AcDbEntity
  8
0-0
100
AcDbLine
  6
CONTINUOUS
370
13
 10
414.774091318933
 20
113.669387534475
 11
417.302412116097
 21
112.054582918855
  0
LINE
  5
4A8
100
AcDbEntity
  8
0-0
100
AcDbLine
  6
CONTINUOUS
370
13
 10
414.774091318933
 20
113.669387534475
 11
416.156279050384
 21
111.006765316618
  0
TEXT
  5
4A9
100
AcDbEntity
  8
0-0
100
AcDbText
  6
CONTINUOUS
 10
408.646927835433
 20
91.6809150107688
 40
6
  1
ゴム脚
  7
Font_0
 72
2
 11
426.646927835433
 21
91.6809150107688
100
AcDbText
  0
LINE
  5
4AA
100
AcDbEntity
  8
0-0
100
AcDbLine
  6
CONTINUOUS
370
13
 10
434.876389425397
 20
91.6809150107688
 11
408.669582848504
 21
91.6809150107688
  0
LINE
  5
4AB
100
AcDbEntity
  8
0-0
100
AcDbLine
  6
CONTINUOUS
370
13
 10
520.785708573188
 20
113.669387534475
 11
434.876389425397
 21
91.6809150107688
  0
LINE
  5
4AC
100
AcDbEntity
  8
0-0
100
AcDbLine
  6
CONTINUOUS
370
13
 10
520.785708573188
 20
113.669387534475
 11
518.170953296422
 21
112.198654777436
  0
LINE
  5
4AD
100
AcDbEntity
  8
0-0
100
AcDbLine
  6
CONTINUOUS
370
13
 10
520.785708573188
 20
113.669387534475
 11
517.78589770031
 21
113.703073243084
  0
LINE
  5
4AE
100
AcDbEntity
  8
0-0
100
AcDbLine
  6
CONTINUOUS
370
13
 10
103.965821773762
 20
117.826813500057
 11
103.965821773762
 21
78.6439990697992
  0
LINE
  5
4AF
100
AcDbEntity
  8
0-0
100
AcDbLine
  6
CONTINUOUS
370
13
 10
103.965821773762
 20
79.1439990697992
 11
226.365821773762
 21
79.1439990697992
  0
LINE
  5
4B0
100
AcDbEntity
  8
0-0
100
AcDbLine
  6
CONTINUOUS
370
13
 10
103.965821773762
 20
79.1439990697992
 11
108.795450905207
 21
80.4380942953118
  0
LINE
  5
4B1
100
AcDbEntity
  8
0-0
100
AcDbLine
  6
CONTINUOUS
370
13
 10
103.965821773762
 20
79.1439990697992
 11
108.795450905207
 21
77.8499038442866
  0
LINE
  5
4B2
100
AcDbEntity
  8
0-0
100
AcDbLine
  6
CONTINUOUS
370
13
 10
226.365821773762
 20
79.1439990697992
 11
221.536192642317
 21
77.8499038442866
  0
LINE
  5
4B3
100
AcDbEntity
  8
0-0
100
AcDbLine
  6
CONTINUOUS
370
13
 10
226.365821773762
 20
79.1439990697992
 11
221.536192642317
 21
80.4380942953118
  0
TEXT
  5
4B4
100
AcDbEntity
  8
0-0
100
AcDbText
  6
CONTINUOUS
 10
155.165821773762
 20
79.3939990697992
 40
8
  1
122.4
  7
Font_0
 72
1
 11
165.165821773762
 21
79.3939990697992
100
AcDbText
  0
LINE
  5
4B5
100
AcDbEntity
  8
0-0
100
AcDbLine
  6
CONTINUOUS
370
13
 10
226.365821773762
 20
117.826813500057
 11
226.365821773762
 21
78.6439990697992
  0
LINE
  5
4B6
100
AcDbEntity
  8
0-0
100
AcDbLine
  6
CONTINUOUS
370
13
 10
103.715821773762
 20
261.076813500058
 11
71.3549849843455
 21
261.076813500058
  0
LINE
  5
4B7
100
AcDbEntity
  8
0-0
100
AcDbLine
  6
CONTINUOUS
370
13
 10
71.8549849843455
 20
261.076813500058
 11
71.8549849843455
 21
118.076813500057
  0
LINE
  5
4B8
100
AcDbEntity
  8
0-0
100
AcDbLine
  6
CONTINUOUS
370
13
 10
71.8549849843455
 20
261.076813500058
 11
73.1490802098581
 21
256.247184368612
  0
LINE
  5
4B9
100
AcDbEntity
  8
0-0
100
AcDbLine
  6
CONTINUOUS
370
13
 10
71.8549849843455
 20
261.076813500058
 11
70.5608897588329
 21
256.247184368612
  0
LINE
  5
4BA
100
AcDbEntity
  8
0-0
100
AcDbLine
  6
CONTINUOUS
370
13
 10
71.8549849843455
 20
118.076813500057
 11
70.5608897588329
 21
122.906442631503
  0
LINE
  5
4BB
100
AcDbEntity
  8
0-0
100
AcDbLine
  6
CONTINUOUS
370
13
 10
71.8549849843455
 20
118.076813500057
 11
73.1490802098581
 21
122.906442631503
  0
LINE
  5
4BC
100
AcDbEntity
  8
0-0
100
AcDbLine
  6
CONTINUOUS
370
13
 10
169.165821773762
 20
314.002600383139
 11
169.165821773762
 21
314.61727707369
  0
LINE
  5
4BD
100
AcDbEntity
  8
0-0
100
AcDbLine
  6
CONTINUOUS
370
13
 10
161.165821773762
 20
314.021351420013
 11
161.165821773762
 21
314.629138480558
  0
TEXT
  5
4BE
100
AcDbEntity
  8
0-0
100
AcDbText
  6
CONTINUOUS
 10
71.6049849843455
 20
183.576813500057
 40
8
  1
143
  7
Font_0
 50
90
 72
1
 11
71.6049849843455
 21
189.576813500057
100
AcDbText
  0
LINE
  5
4BF
100
AcDbEntity
  8
0-0
100
AcDbLine
  6
CONTINUOUS
370
13
 10
103.715821773762
 20
118.076813500057
 11
71.3549849843455
 21
118.076813500057
  0
LINE
  5
4C0
100
AcDbEntity
  8
0-0
100
AcDbLine
  6
CONTINUOUS
370
13
 10
205.165743244425
 20
343.622539940767
 11
120.165743244425
 21
343.622539940767
  0
LINE
  5
4C1
100
AcDbEntity
  8
0-0
100
AcDbLine
  6
CONTINUOUS
370
13
 10
205.165743244425
 20
358.622539940767
 11
120.165743244425
 21
358.622539940767
  0
LINE
  5
4C2
100
AcDbEntity
  8
0-0
100
AcDbLine
  6
CONTINUOUS
370
13
 10
190.165821773762
 20
312.022539940767
 11
190.165821773762
 21
308.022539940767
  0
LINE
  5
4C3
100
AcDbEntity
  8
0-0
100
AcDbLine
  6
CONTINUOUS
370
13
 10
142.165821773762
 20
306.022539940767
 11
188.165821773762
 21
306.022539940767
  0
LINE
  5
4C4
100
AcDbEntity
  8
0-0
100
AcDbLine
  6
CONTINUOUS
370
13
 10
140.165821773762
 20
312.022539940767
 11
140.165821773762
 21
308.022539940767
  0
LINE
  5
4C5
100
AcDbEntity
  8
0-0
100
AcDbLine
  6
CONTINUOUS
370
13
 10
142.165821773762
 20
314.022539940767
 11
188.165821773762
 21
314.022539940767
  0
LINE
  5
4C6
100
AcDbEntity
  8
0-0
100
AcDbLine
  6
CONTINUOUS
370
13
 10
190.165821773762
 20
308.022539940767
 11
188.165821773762
 21
306.022539940767
  0
LINE
  5
4C7
100
AcDbEntity
  8
0-0
100
AcDbLine
  6
CONTINUOUS
370
13
 10
188.165821773762
 20
314.022539940767
 11
190.165821773762
 21
312.022539940767
  0
LINE
  5
4C8
100
AcDbEntity
  8
0-0
100
AcDbLine
  6
CONTINUOUS
370
13
 10
140.165821773762
 20
308.022539940767
 11
142.165821773762
 21
306.022539940767
  0
LINE
  5
4C9
100
AcDbEntity
  8
0-0
100
AcDbLine
  6
CONTINUOUS
370
13
 10
140.165821773762
 20
312.022539940767
 11
142.165821773762
 21
314.022539940767
  0
LINE
  5
4CA
100
AcDbEntity
  8
0-0
100
AcDbLine
  6
CONTINUOUS
370
13
 10
190.165821773762
 20
312.022539940767
 11
140.165821773762
 21
312.022539940767
  0
LINE
  5
4CB
100
AcDbEntity
  8
0-0
100
AcDbLine
  6
CONTINUOUS
370
13
 10
140.165821773762
 20
308.022539940767
 11
190.165821773762
 21
308.022539940767
  0
LINE
  5
4CC
100
AcDbEntity
  8
0-0
100
AcDbLine
  6
CONTINUOUS
370
13
 10
179.165821774348
 20
343.622539940767
 11
203.165821774346
 21
343.622539940767
  0
LINE
  5
4CD
100
AcDbEntity
  8
0-0
100
AcDbLine
  6
CONTINUOUS
370
13
 10
179.165821774348
 20
325.622539940767
 11
203.165821774346
 21
325.622539940767
  0
LINE
  5
4CE
100
AcDbEntity
  8
0-0
100
AcDbLine
  6
CONTINUOUS
370
13
 10
205.165743244425
 20
343.622539940767
 11
205.165743244425
 21
358.622539940767
  0
LINE
  5
4CF
100
AcDbEntity
  8
0-0
100
AcDbLine
  6
CONTINUOUS
370
13
 10
120.165743244425
 20
343.622539940767
 11
120.165743244425
 21
358.622539940767
  0
LINE
  5
4D0
100
AcDbEntity
  8
0-0
100
AcDbLine
  6
CONTINUOUS
370
13
 10
179.165821774348
 20
330.422539940767
 11
179.165821774348
 21
325.622539940767
  0
LINE
  5
4D1
100
AcDbEntity
  8
0-0
100
AcDbLine
  6
CONTINUOUS
370
13
 10
162.165821773763
 20
323.622539940767
 11
162.165821773763
 21
343.622539940767
  0
LINE
  5
4D2
100
AcDbEntity
  8
0-0
100
AcDbLine
  6
CONTINUOUS
370
13
 10
120.165743244425
 20
343.622539940767
 11
162.165821773763
 21
343.622539940767
  0
LINE
  5
4D3
100
AcDbEntity
  8
0-0
100
AcDbLine
  6
CONTINUOUS
370
13
 10
162.165821773763
 20
336.752539940767
 11
147.237618543487
 21
340.772539940767
  0
LINE
  5
4D4
100
AcDbEntity
  8
0-0
100
AcDbLine
  6
CONTINUOUS
370
13
 10
162.165821773763
 20
335.792539940767
 11
147.237618543487
 21
331.772539940767
  0
LINE
  5
4D5
100
AcDbEntity
  8
0-0
100
AcDbLine
  6
CONTINUOUS
370
13
 10
147.237618543487
 20
323.622539940767
 11
147.237618543487
 21
331.772539940767
  0
LINE
  5
4D6
100
AcDbEntity
  8
0-0
100
AcDbLine
  6
CONTINUOUS
370
13
 10
147.237618543487
 20
340.772539940767
 11
147.237618543487
 21
343.622539940767
  0
LINE
  5
4D7
100
AcDbEntity
  8
0-0
100
AcDbLine
  6
CONTINUOUS
370
13
 10
179.165821774348
 20
329.122539940767
 11
189.165821774348
 21
329.122539940767
  0
LINE
  5
4D8
100
AcDbEntity
  8
0-0
100
AcDbLine
  6
CONTINUOUS
370
13
 10
191.665821774348
 20
329.122539940767
 11
203.165821774346
 21
329.122539940767
  0
LINE
  5
4D9
100
AcDbEntity
  8
0-0
100
AcDbLine
  6
CONTINUOUS
370
13
 10
180.06574324384
 20
330.423931685693
 11
180.06574324384
 21
330.222539940767
  0
LINE
  5
4DA
100
AcDbEntity
  8
0-0
100
AcDbLine
  6
CONTINUOUS
370
13
 10
186.06574324384
 20
330.222539940767
 11
186.06574324384
 21
330.421374270013
  0
LINE
  5
4DB
100
AcDbEntity
  8
0-0
100
AcDbLine
  6
CONTINUOUS
370
13
 10
180.06574324384
 20
330.222539940767
 11
186.06574324384
 21
330.222539940767
  0
LINE
  5
4DC
100
AcDbEntity
  8
0-0
100
AcDbLine
  6
CONTINUOUS
370
13
 10
189.06574324384
 20
330.422539940767
 11
189.06574324384
 21
343.622539940767
  0
LINE
  5
4DD
100
AcDbEntity
  8
0-0
100
AcDbLine
  6
CONTINUOUS
370
13
 10
189.06574324384
 20
343.622539940767
 11
177.06574324384
 21
343.622539940767
  0
LINE
  5
4DE
100
AcDbEntity
  8
0-0
100
AcDbLine
  6
CONTINUOUS
370
13
 10
177.06574324384
 20
343.622539940767
 11
177.06574324384
 21
330.422539940767
  0
LINE
  5
4DF
100
AcDbEntity
  8
0-0
100
AcDbLine
  6
CONTINUOUS
370
13
 10
177.06574324384
 20
330.422539940767
 11
189.06574324384
 21
330.422539940767
  0
LINE
  5
4E0
100
AcDbEntity
  8
0-0
100
AcDbLine
  6
DASHED
370
13
 10
187.665821774349
 20
329.122539940775
 11
189.165821774348
 21
329.122539940767
  0
LINE
  5
4E1
100
AcDbEntity
  8
0-0
100
AcDbLine
  6
CONTINUOUS
370
13
 10
183.165821774348
 20
325.622539940767
 11
183.165821774348
 21
329.122539940767
  0
LINE
  5
4E2
100
AcDbEntity
  8
0-0
100
AcDbLine
  6
CONTINUOUS
370
13
 10
191.66582177435
 20
329.122539940767
 11
191.66582177435
 21
343.622539940767
  0
LINE
  5
4E3
100
AcDbEntity
  8
0-0
100
AcDbLine
  6
CONTINUOUS
370
13
 10
191.66582177435
 20
338.272539940767
 11
189.06574324384
 21
338.272539940767
  0
LINE
  5
4E4
100
AcDbEntity
  8
0-0
100
AcDbLine
  6
CONTINUOUS
370
13
 10
189.06574324384
 20
334.272539940767
 11
191.66582177435
 21
334.272539940767
  0
LINE
  5
4E5
100
AcDbEntity
  8
0-0
100
AcDbLine
  6
CONTINUOUS
370
13
 10
191.665821774348
 20
341.772539940767
 11
191.665821774348
 21
330.772539940767
  0
LINE
  5
4E6
100
AcDbEntity
  8
0-0
100
AcDbLine
  6
CONTINUOUS
370
13
 10
211.665821774348
 20
342.082014960078
 11
211.665821774348
 21
330.463064921456
  0
LINE
  5
4E7
100
AcDbEntity
  8
0-0
100
AcDbLine
  6
CONTINUOUS
370
13
 10
211.665821774348
 20
330.772539940767
 11
211.665821774348
 21
341.772539940767
  0
LINE
  5
4E8
100
AcDbEntity
  8
0-0
100
AcDbLine
  6
CONTINUOUS
370
13
 10
211.665821774348
 20
341.772539940767
 11
211.665821774348
 21
330.463064921456
  0
LINE
  5
4E9
100
AcDbEntity
  8
0-0
100
AcDbLine
  6
CONTINUOUS
370
13
 10
211.665821774348
 20
341.772539940767
 11
191.665821774348
 21
341.772539940767
  0
LINE
  5
4EA
100
AcDbEntity
  8
0-0
100
AcDbLine
  6
CONTINUOUS
370
13
 10
211.665821774348
 20
330.772539940767
 11
191.665821774348
 21
330.772539940767
  0
ARC
  5
4EB
100
AcDbEntity
  8
0-0
100
AcDbCircle
  6
CONTINUOUS
370
13
 10
217.165821774348
 20
336.272539940767
 40
8
100
AcDbArc
 50
226.56746344221
 51
493.43253655779
  0
LINE
  5
4EC
100
AcDbEntity
  8
0-0
100
AcDbLine
  6
CONTINUOUS
370
13
 10
191.66582177435
 20
338.522539940767
 11
189.18347633855
 21
338.522539940767
  0
LINE
  5
4ED
100
AcDbEntity
  8
0-0
100
AcDbLine
  6
CONTINUOUS
370
13
 10
191.66582177435
 20
334.022539940767
 11
189.18347633855
 21
334.022539940767
  0
LINE
  5
4EE
100
AcDbEntity
  8
0-0
100
AcDbLine
  6
CONTINUOUS
370
13
 10
202.165743244425
 20
343.622539940767
 11
202.165743244425
 21
358.622539940767
  0
LINE
  5
4EF
100
AcDbEntity
  8
0-0
100
AcDbLine
  6
CONTINUOUS
370
13
 10
140.165743244425
 20
314.122539940767
 11
140.165743244425
 21
340.122539940767
  0
LINE
  5
4F0
100
AcDbEntity
  8
0-0
100
AcDbLine
  6
CONTINUOUS
370
13
 10
125.165743244425
 20
314.122539940767
 11
125.165743244425
 21
340.122539940767
  0
LINE
  5
4F1
100
AcDbEntity
  8
0-0
100
AcDbLine
  6
CONTINUOUS
370
13
 10
127.165743244425
 20
342.122539940767
 11
138.165743244425
 21
342.122539940767
  0
LINE
  5
4F2
100
AcDbEntity
  8
0-0
100
AcDbLine
  6
CONTINUOUS
370
13
 10
138.165743244425
 20
312.122539940767
 11
127.165743244425
 21
312.122539940767
  0
CIRCLE
  5
4F3
100
AcDbEntity
  8
0-0
100
AcDbCircle
  6
CONTINUOUS
370
13
 10
132.665743244425
 20
328.122539940767
 40
3
  0
LINE
  5
4F4
100
AcDbEntity
  8
0-0
100
AcDbLine
  6
CONTINUOUS
370
13
 10
138.165743244425
 20
342.122539940767
 11
140.165743244425
 21
340.122539940767
  0
LINE
  5
4F5
100
AcDbEntity
  8
0-0
100
AcDbLine
  6
CONTINUOUS
370
13
 10
125.165743244425
 20
340.122539940767
 11
127.165743244425
 21
342.122539940767
  0
LINE
  5
4F6
100
AcDbEntity
  8
0-0
100
AcDbLine
  6
CONTINUOUS
370
13
 10
125.165743244425
 20
314.122539940767
 11
127.165743244425
 21
312.122539940767
  0
LINE
  5
4F7
100
AcDbEntity
  8
0-0
100
AcDbLine
  6
CONTINUOUS
370
13
 10
140.165743244425
 20
314.122539940767
 11
138.165743244425
 21
312.122539940767
  0
LINE
  5
4F8
100
AcDbEntity
  8
0-0
100
AcDbLine
  6
CONTINUOUS
370
13
 10
120.165743244425
 20
340.772539940767
 11
125.815743244425
 21
340.772539940767
  0
LINE
  5
4F9
100
AcDbEntity
  8
0-0
100
AcDbLine
  6
CONTINUOUS
370
13
 10
139.515743244425
 20
340.772539940767
 11
147.237618543487
 21
340.772539940767
  0
LINE
  5
4FA
100
AcDbEntity
  8
0-0
100
AcDbLine
  6
CONTINUOUS
370
13
 10
120.165743244425
 20
336.272539940767
 11
125.165743244425
 21
336.272539940767
  0
LINE
  5
4FB
100
AcDbEntity
  8
0-0
100
AcDbLine
  6
CONTINUOUS
370
13
 10
140.165743244425
 20
336.272539940767
 11
162.165821773763
 21
336.272539940767
  0
LINE
  5
4FC
100
AcDbEntity
  8
0-0
100
AcDbLine
  6
CONTINUOUS
370
13
 10
120.165743244425
 20
331.772539940767
 11
125.165743244425
 21
331.772539940767
  0
LINE
  5
4FD
100
AcDbEntity
  8
0-0
100
AcDbLine
  6
CONTINUOUS
370
13
 10
140.165743244425
 20
331.772539940767
 11
147.237618543487
 21
331.772539940767
  0
LINE
  5
4FE
100
AcDbEntity
  8
0-0
100
AcDbLine
  6
CONTINUOUS
370
13
 10
138.165743244425
 20
343.622539940767
 11
127.165743244425
 21
343.622539940767
  0
LINE
  5
4FF
100
AcDbEntity
  8
0-0
100
AcDbLine
  6
CONTINUOUS
370
13
 10
132.666113759529
 20
358.622539940767
 11
200.666113759529
 21
358.622539940767
  0
LINE
  5
500
100
AcDbEntity
  8
0-0
100
AcDbLine
  6
CONTINUOUS
370
13
 10
163.165821773762
 20
328.922539940767
 11
179.165821774348
 21
328.922539940767
  0
LINE
  5
501
100
AcDbEntity
  8
0-0
100
AcDbLine
  6
CONTINUOUS
370
13
 10
140.166113759529
 20
316.622539940767
 11
140.166113759529
 21
323.622539940767
  0
LINE
  5
502
100
AcDbEntity
  8
0-0
100
AcDbLine
  6
CONTINUOUS
370
13
 10
190.166113759529
 20
316.622539940767
 11
190.166113759529
 21
325.622539940767
  0
LINE
  5
503
100
AcDbEntity
  8
0-0
100
AcDbLine
  6
CONTINUOUS
370
13
 10
142.166113759529
 20
314.622539940767
 11
188.166113759529
 21
314.622539940767
  0
LINE
  5
504
100
AcDbEntity
  8
0-0
100
AcDbLine
  6
CONTINUOUS
370
13
 10
190.166113759529
 20
316.622539940767
 11
188.166113759529
 21
314.622539940767
  0
LINE
  5
505
100
AcDbEntity
  8
0-0
100
AcDbLine
  6
CONTINUOUS
370
13
 10
140.166113759529
 20
316.622539940767
 11
142.166113759529
 21
314.622539940767
  0
LINE
  5
506
100
AcDbEntity
  8
0-0
100
AcDbLine
  6
CONTINUOUS
370
13
 10
120.165743244425
 20
343.622539940767
 11
120.165743244425
 21
323.622539940767
  0
LINE
  5
507
100
AcDbEntity
  8
0-0
100
AcDbLine
  6
CONTINUOUS
370
13
 10
163.165821773762
 20
328.922539940767
 11
163.165821773762
 21
343.622539940767
  0
LINE
  5
508
100
AcDbEntity
  8
0-0
100
AcDbLine
  6
CONTINUOUS
370
13
 10
138.165743244425
 20
342.122539940767
 11
138.165743244425
 21
343.622539940767
  0
LINE
  5
509
100
AcDbEntity
  8
0-0
100
AcDbLine
  6
CONTINUOUS
370
13
 10
127.165743244425
 20
342.122539940767
 11
127.165743244425
 21
343.622539940767
  0
LINE
  5
50A
100
AcDbEntity
  8
0-0
100
AcDbLine
  6
CONTINUOUS
370
13
 10
189.165821774348
 20
329.122539940767
 11
189.165821774348
 21
334.272539940767
  0
LINE
  5
50B
100
AcDbEntity
  8
0-0
100
AcDbLine
  6
CONTINUOUS
370
13
 10
189.165821774348
 20
338.272539940767
 11
189.165821774348
 21
343.622539940767
  0
LINE
  5
50C
100
AcDbEntity
  8
0-0
100
AcDbLine
  6
CONTINUOUS
370
13
 10
203.165821774346
 20
343.622539940767
 11
203.165821774346
 21
341.772539940767
  0
LINE
  5
50D
100
AcDbEntity
  8
0-0
100
AcDbLine
  6
CONTINUOUS
370
13
 10
203.165821774346
 20
330.772539940767
 11
203.165821774346
 21
325.622539940767
  0
LINE
  5
50E
100
AcDbEntity
  8
0-0
100
AcDbLine
  6
CONTINUOUS
370
13
 10
120.165743244425
 20
323.622539940767
 11
125.165743244425
 21
323.622539940767
  0
LINE
  5
50F
100
AcDbEntity
  8
0-0
100
AcDbLine
  6
CONTINUOUS
370
13
 10
140.165743244425
 20
323.622539940767
 11
162.165821773763
 21
323.622539940767
  0
LINE
  5
510
100
AcDbEntity
  8
0-0
100
AcDbLine
  6
CONTINUOUS
370
13
 10
138.165743244425
 20
342.143638919394
 11
138.165743244425
 21
343.622539940767
  0
LINE
  5
511
100
AcDbEntity
  8
0-0
100
AcDbLine
  6
CONTINUOUS
370
13
 10
127.165743244425
 20
343.622539940767
 11
127.165743244425
 21
342.170193318768
  0
LINE
  5
512
100
AcDbEntity
  8
0-0
100
AcDbLine
  6
CONTINUOUS
370
13
 10
190.165821773762
 20
312.022539940767
 11
190.165821773762
 21
308.022539940767
  0
LINE
  5
513
100
AcDbEntity
  8
0-0
100
AcDbLine
  6
CONTINUOUS
370
13
 10
140.165821773763
 20
312.022539940767
 11
140.165821773762
 21
308.022539940767
  0
CIRCLE
  5
514
100
AcDbEntity
  8
0-0
100
AcDbCircle
  6
CONTINUOUS
370
13
 10
165.165821773762
 20
310.022539940767
 40
1.65
  0
CIRCLE
  5
515
100
AcDbEntity
  8
0-0
100
AcDbCircle
  6
CONTINUOUS
370
13
 10
165.165821773762
 20
310.022539940767
 40
2
  0
CIRCLE
  5
516
100
AcDbEntity
  8
0-0
100
AcDbCircle
  6
CONTINUOUS
370
13
 10
165.165821773762
 20
310.022539940767
 40
2.25
  0
LINE
  5
517
100
AcDbEntity
  8
0-0
100
AcDbLine
  6
CONTINUOUS
370
13
 10
190.165821773762
 20
312.022539940767
 11
166.196598180167
 21
312.022539940767
  0
LINE
  5
518
100
AcDbEntity
  8
0-0
100
AcDbLine
  6
CONTINUOUS
370
13
 10
164.135045367358
 20
312.022539940767
 11
140.165821773763
 21
312.022539940767
  0
LINE
  5
519
100
AcDbEntity
  8
0-0
100
AcDbLine
  6
CONTINUOUS
370
13
 10
140.165821773762
 20
308.022539940767
 11
164.135045367358
 21
308.022539940767
  0
LINE
  5
51A
100
AcDbEntity
  8
0-0
100
AcDbLine
  6
CONTINUOUS
370
13
 10
166.196598180167
 20
308.022539940767
 11
190.165821773762
 21
308.022539940767
  0
LINE
  5
51B
100
AcDbEntity
  8
0-0
100
AcDbLine
  6
CONTINUOUS
370
13
 10
140.165821773763
 20
310.060610497105
 11
142.203892330101
 21
308.022539940767
  0
LINE
  5
51C
100
AcDbEntity
  8
0-0
100
AcDbLine
  6
CONTINUOUS
370
13
 10
141.032319454847
 20
312.022539940767
 11
145.032319454847
 21
308.022539940767
  0
LINE
  5
51D
100
AcDbEntity
  8
0-0
100
AcDbLine
  6
CONTINUOUS
370
13
 10
143.860746579593
 20
312.022539940767
 11
147.860746579593
 21
308.022539940767
  0
LINE
  5
51E
100
AcDbEntity
  8
0-0
100
AcDbLine
  6
CONTINUOUS
370
13
 10
146.689173704339
 20
312.022539940767
 11
150.689173704339
 21
308.022539940767
  0
LINE
  5
51F
100
AcDbEntity
  8
0-0
100
AcDbLine
  6
CONTINUOUS
370
13
 10
149.517600829086
 20
312.022539940767
 11
153.517600829086
 21
308.022539940767
  0
LINE
  5
520
100
AcDbEntity
  8
0-0
100
AcDbLine
  6
CONTINUOUS
370
13
 10
152.346027953832
 20
312.022539940767
 11
156.346027953832
 21
308.022539940767
  0
LINE
  5
521
100
AcDbEntity
  8
0-0
100
AcDbLine
  6
CONTINUOUS
370
13
 10
155.174455078578
 20
312.022539940767
 11
159.174455078578
 21
308.022539940767
  0
LINE
  5
522
100
AcDbEntity
  8
0-0
100
AcDbLine
  6
CONTINUOUS
370
13
 10
158.002882203324
 20
312.022539940767
 11
162.002882203324
 21
308.022539940767
  0
LINE
  5
523
100
AcDbEntity
  8
0-0
100
AcDbLine
  6
CONTINUOUS
370
13
 10
160.83130932807
 20
312.022539940767
 11
162.917472164466
 21
309.936377104371
  0
LINE
  5
524
100
AcDbEntity
  8
0-0
100
AcDbLine
  6
CONTINUOUS
370
13
 10
166.488163577563
 20
312.022539940767
 11
170.488163577563
 21
308.022539940767
  0
LINE
  5
525
100
AcDbEntity
  8
0-0
100
AcDbLine
  6
CONTINUOUS
370
13
 10
169.316590702309
 20
312.022539940767
 11
173.316590702309
 21
308.022539940767
  0
LINE
  5
526
100
AcDbEntity
  8
0-0
100
AcDbLine
  6
CONTINUOUS
370
13
 10
172.145017827055
 20
312.022539940767
 11
176.145017827055
 21
308.022539940767
  0
LINE
  5
527
100
AcDbEntity
  8
0-0
100
AcDbLine
  6
CONTINUOUS
370
13
 10
174.973444951801
 20
312.022539940767
 11
178.973444951801
 21
308.022539940767
  0
LINE
  5
528
100
AcDbEntity
  8
0-0
100
AcDbLine
  6
CONTINUOUS
370
13
 10
177.801872076547
 20
312.022539940767
 11
181.801872076547
 21
308.022539940767
  0
LINE
  5
529
100
AcDbEntity
  8
0-0
100
AcDbLine
  6
CONTINUOUS
370
13
 10
180.630299201294
 20
312.022539940767
 11
184.630299201294
 21
308.022539940767
  0
LINE
  5
52A
100
AcDbEntity
  8
0-0
100
AcDbLine
  6
CONTINUOUS
370
13
 10
183.45872632604
 20
312.022539940767
 11
187.45872632604
 21
308.022539940767
  0
LINE
  5
52B
100
AcDbEntity
  8
0-0
100
AcDbLine
  6
CONTINUOUS
370
13
 10
186.287153450786
 20
312.022539940767
 11
190.165821773762
 21
308.14387161779
  0
LINE
  5
52C
100
AcDbEntity
  8
0-0
100
AcDbLine
  6
CONTINUOUS
370
13
 10
189.115580575532
 20
312.022539940767
 11
190.165821773762
 21
310.972298742536
  0
LINE
  5
52D
100
AcDbEntity
  8
0-0
100
AcDbLine
  6
CONTINUOUS
370
13
 10
187.413013688164
 20
308.022539940767
 11
190.165821773762
 21
310.775348026365
  0
LINE
  5
52E
100
AcDbEntity
  8
0-0
100
AcDbLine
  6
CONTINUOUS
370
13
 10
184.584586563418
 20
308.022539940767
 11
188.584586563418
 21
312.022539940767
  0
LINE
  5
52F
100
AcDbEntity
  8
0-0
100
AcDbLine
  6
CONTINUOUS
370
13
 10
181.756159438672
 20
308.022539940767
 11
185.756159438672
 21
312.022539940767
  0
LINE
  5
530
100
AcDbEntity
  8
0-0
100
AcDbLine
  6
CONTINUOUS
370
13
 10
178.927732313925
 20
308.022539940767
 11
182.927732313925
 21
312.022539940767
  0
LINE
  5
531
100
AcDbEntity
  8
0-0
100
AcDbLine
  6
CONTINUOUS
370
13
 10
176.099305189179
 20
308.022539940767
 11
180.099305189179
 21
312.022539940767
  0
LINE
  5
532
100
AcDbEntity
  8
0-0
100
AcDbLine
  6
CONTINUOUS
370
13
 10
173.270878064433
 20
308.022539940767
 11
177.270878064433
 21
312.022539940767
  0
LINE
  5
533
100
AcDbEntity
  8
0-0
100
AcDbLine
  6
CONTINUOUS
370
13
 10
170.442450939687
 20
308.022539940767
 11
174.442450939687
 21
312.022539940767
  0
LINE
  5
534
100
AcDbEntity
  8
0-0
100
AcDbLine
  6
CONTINUOUS
370
13
 10
167.614023814941
 20
308.022539940767
 11
171.614023814941
 21
312.022539940767
  0
LINE
  5
535
100
AcDbEntity
  8
0-0
100
AcDbLine
  6
CONTINUOUS
370
13
 10
167.345136961004
 20
310.582080211576
 11
168.785596690194
 21
312.022539940767
  0
LINE
  5
536
100
AcDbEntity
  8
0-0
100
AcDbLine
  6
CONTINUOUS
370
13
 10
161.957169565448
 20
308.022539940767
 11
163.08974842234
 21
309.155118797658
  0
LINE
  5
537
100
AcDbEntity
  8
0-0
100
AcDbLine
  6
CONTINUOUS
370
13
 10
159.128742440702
 20
308.022539940767
 11
163.128742440702
 21
312.022539940767
  0
LINE
  5
538
100
AcDbEntity
  8
0-0
100
AcDbLine
  6
CONTINUOUS
370
13
 10
156.300315315956
 20
308.022539940767
 11
160.300315315956
 21
312.022539940767
  0
LINE
  5
539
100
AcDbEntity
  8
0-0
100
AcDbLine
  6
CONTINUOUS
370
13
 10
153.47188819121
 20
308.022539940767
 11
157.47188819121
 21
312.022539940767
  0
LINE
  5
53A
100
AcDbEntity
  8
0-0
100
AcDbLine
  6
CONTINUOUS
370
13
 10
150.643461066464
 20
308.022539940767
 11
154.643461066463
 21
312.022539940767
  0
LINE
  5
53B
100
AcDbEntity
  8
0-0
100
AcDbLine
  6
CONTINUOUS
370
13
 10
147.815033941717
 20
308.022539940767
 11
151.815033941717
 21
312.022539940767
  0
LINE
  5
53C
100
AcDbEntity
  8
0-0
100
AcDbLine
  6
CONTINUOUS
370
13
 10
144.986606816971
 20
308.022539940767
 11
148.986606816971
 21
312.022539940767
  0
LINE
  5
53D
100
AcDbEntity
  8
0-0
100
AcDbLine
  6
CONTINUOUS
370
13
 10
142.158179692225
 20
308.022539940767
 11
146.158179692225
 21
312.022539940767
  0
LINE
  5
53E
100
AcDbEntity
  8
0-0
100
AcDbLine
  6
CONTINUOUS
370
13
 10
140.165821773762
 20
308.85860914705
 11
143.329752567479
 21
312.022539940767
  0
LINE
  5
53F
100
AcDbEntity
  8
0-0
100
AcDbLine
  6
CONTINUOUS
370
13
 10
140.165821773763
 20
311.687036271797
 11
140.501325442732
 21
312.022539940767
  0
LINE
  5
540
100
AcDbEntity
  8
0-0
100
AcDbLine
  6
CONTINUOUS
370
13
 10
163.659736452817
 20
312.022539940767
 11
163.841072374596
 21
311.841204018987
  0
LINE
  5
541
100
AcDbEntity
  8
0-0
100
AcDbLine
  6
CONTINUOUS
370
13
 10
166.984485851983
 20
308.697790541601
 11
167.659736452817
 21
308.022539940767
  0
LINE
  5
542
100
AcDbEntity
  8
0-0
100
AcDbLine
  6
CONTINUOUS
370
13
 10
190.166113759529
 20
316.622539940767
 11
140.166113759529
 21
316.622539940767
  0
ARC
  5
543
100
AcDbEntity
  8
0-0
100
AcDbCircle
  6
CONTINUOUS
370
13
 10
165.163463009775
 20
189.3186525914
 40
25.0000311523997
100
AcDbArc
 50
305.63754353354
 51
414.36245646646
  0
CIRCLE
  5
544
100
AcDbEntity
  8
0-0
100
AcDbCircle
  6
CONTINUOUS
370
13
 10
186.163463010361
 20
155.3186525914
 40
4.5
  0
LINE
  5
545
100
AcDbEntity
  8
0-0
100
AcDbLine
  6
CONTINUOUS
370
13
 10
191.663364170282
 20
148.318481529656
 11
203.163463009775
 21
168.237237011722
  0
LINE
  5
546
100
AcDbEntity
  8
0-0
100
AcDbLine
  6
CONTINUOUS
370
13
 10
192.240813278965
 20
229.31865272468
 11
203.163463009775
 21
210.400068437638
  0
LINE
  5
547
100
AcDbEntity
  8
0-0
100
AcDbLine
  6
CONTINUOUS
370
13
 10
183.163463009775
 20
148.31865272468
 11
191.663463009775
 21
148.31865272468
  0
LINE
  5
548
100
AcDbEntity
  8
0-0
100
AcDbLine
  6
CONTINUOUS
370
13
 10
190.508762471396
 20
230.31865272468
 11
183.163463009775
 21
230.31865272468
  0
CIRCLE
  5
549
100
AcDbEntity
  8
0-0
100
AcDbCircle
  6
CONTINUOUS
370
13
 10
186.163463010361
 20
155.3186525914
 40
4.5
  0
LINE
  5
54A
100
AcDbEntity
  8
0-0
100
AcDbLine
  6
CONTINUOUS
370
13
 10
179.163463009775
 20
164.917579636448
 11
179.163463009775
 21
152.31865272468
  0
LINE
  5
54B
100
AcDbEntity
  8
0-0
100
AcDbLine
  6
CONTINUOUS
370
13
 10
179.163463009775
 20
213.719725546351
 11
179.163463009775
 21
226.31865272468
  0
LINE
  5
54C
100
AcDbEntity
  8
0-0
100
AcDbLine
  6
CONTINUOUS
370
13
 10
183.163463009775
 20
148.31865272468
 11
179.163463009775
 21
152.31865272468
  0
LINE
  5
54D
100
AcDbEntity
  8
0-0
100
AcDbLine
  6
CONTINUOUS
370
13
 10
179.163463009775
 20
226.31865272468
 11
183.163463009775
 21
230.31865272468
  0
ARC
  5
54E
100
AcDbEntity
  8
0-0
100
AcDbCircle
  6
CONTINUOUS
370
13
 10
190.508762471396
 20
228.31865272468
 40
2
100
AcDbArc
 50
29.9999999999997
 51
90.0000000000017
  0
LINE
  5
54F
100
AcDbEntity
  8
0-0
100
AcDbLine
  6
CONTINUOUS
370
13
 10
203.163463009775
 20
210.400068437638
 11
203.163463009775
 21
168.237237011722
  0
ARC
  5
550
100
AcDbEntity
  8
0-0
100
AcDbCircle
  6
CONTINUOUS
370
13
 10
183.063384479267
 20
224.3186525914
 40
6
100
AcDbArc
 50
89.0521189901416
 51
229.459384929804
  0
LINE
  5
551
100
AcDbEntity
  8
0-0
100
AcDbLine
  6
CONTINUOUS
370
13
 10
190.508762471396
 20
230.31865272468
 11
184.157947517727
 21
230.31865272468
  0
LINE
  5
552
100
AcDbEntity
  8
0-0
100
AcDbLine
  6
CONTINUOUS
370
13
 10
205.163384479852
 20
149.818481529656
 11
205.163384479852
 21
218.8186525914
  0
LINE
  5
553
100
AcDbEntity
  8
0-0
100
AcDbLine
  6
CONTINUOUS
370
13
 10
120.163384479852
 20
146.818481529656
 11
120.163384479852
 21
231.818481529656
  0
LINE
  5
554
100
AcDbEntity
  8
0-0
100
AcDbLine
  6
CONTINUOUS
370
13
 10
204.163213418109
 20
229.8186525914
 11
202.163384479852
 21
231.818481529656
  0
LINE
  5
555
100
AcDbEntity
  8
0-0
100
AcDbLine
  6
CONTINUOUS
370
13
 10
202.163384479852
 20
146.818481529656
 11
205.163384479852
 21
149.818481529656
  0
LINE
  5
556
100
AcDbEntity
  8
0-0
100
AcDbLine
  6
CONTINUOUS
370
13
 10
162.16346300919
 20
214.137860200787
 11
162.16346300919
 21
215.299243643189
  0
LINE
  5
557
100
AcDbEntity
  8
0-0
100
AcDbLine
  6
CONTINUOUS
370
13
 10
162.16346300919
 20
164.499102858526
 11
162.16346300919
 21
163.337719416123
  0
ARC
  5
558
100
AcDbEntity
  8
0-0
100
AcDbCircle
  6
CONTINUOUS
370
13
 10
165.16346300919
 20
189.318481529656
 40
25.0000311523998
100
AcDbArc
 50
96.8920939494718
 51
263.107906050528
  0
LINE
  5
559
100
AcDbEntity
  8
0-0
100
AcDbLine
  6
CONTINUOUS
370
13
 10
147.16346300919
 20
219.318481529656
 11
162.16346300919
 21
215.299243643189
  0
LINE
  5
55A
100
AcDbEntity
  8
0-0
100
AcDbLine
  6
CONTINUOUS
370
13
 10
147.16346300919
 20
159.318481529656
 11
162.16346300919
 21
163.337719416123
  0
CIRCLE
  5
55B
100
AcDbEntity
  8
0-0
100
AcDbCircle
  6
CONTINUOUS
370
13
 10
165.16346300919
 20
189.318481529656
 40
19.2499999999999
  0
ARC
  5
55C
100
AcDbEntity
  8
0-0
100
AcDbCircle
  6
CONTINUOUS
370
13
 10
165.16346300919
 20
189.318481529656
 40
25.0000000000001
100
AcDbArc
 50
54.362195735907
 51
305.637461905
  0
CIRCLE
  5
55D
100
AcDbEntity
  8
0-0
100
AcDbCircle
  6
CONTINUOUS
370
13
 10
165.16346300919
 20
189.318481529656
 40
23
  0
LINE
  5
55E
100
AcDbEntity
  8
0-0
100
AcDbLine
  6
CONTINUOUS
370
13
 10
211.663463009775
 20
230.128127610711
 11
211.663463009775
 21
218.509177572088
  0
LINE
  5
55F
100
AcDbEntity
  8
0-0
100
AcDbLine
  6
CONTINUOUS
370
13
 10
211.663463009775
 20
218.8186525914
 11
211.663463009775
 21
229.8186525914
  0
LINE
  5
560
100
AcDbEntity
  8
0-0
100
AcDbLine
  6
CONTINUOUS
370
13
 10
211.663463009775
 20
229.8186525914
 11
211.663463009775
 21
218.509177572088
  0
LINE
  5
561
100
AcDbEntity
  8
0-0
100
AcDbLine
  6
CONTINUOUS
370
13
 10
211.663463009775
 20
229.8186525914
 11
191.831638278054
 21
229.8186525914
  0
LINE
  5
562
100
AcDbEntity
  8
0-0
100
AcDbLine
  6
CONTINUOUS
370
13
 10
211.663463009775
 20
218.8186525914
 11
198.302991182405
 21
218.8186525914
  0
ARC
  5
563
100
AcDbEntity
  8
0-0
100
AcDbCircle
  6
CONTINUOUS
370
13
 10
217.163463009775
 20
224.3186525914
 40
8
100
AcDbArc
 50
226.56746344221
 51
493.43253655779
  0
CIRCLE
  5
564
100
AcDbEntity
  8
0-0
100
AcDbCircle
  6
DIVIDE
370
13
 10
186.163463010361
 20
155.3186525914
 40
4.5
  0
CIRCLE
  5
565
100
AcDbEntity
  8
0-0
100
AcDbCircle
  6
DIVIDE
370
13
 10
186.163463010361
 20
155.3186525914
 40
4.5
  0
CIRCLE
  5
566
100
AcDbEntity
  8
0-0
100
AcDbCircle
  6
DIVIDE
370
13
 10
186.163463010361
 20
155.3186525914
 40
4.5
  0
CIRCLE
  5
567
100
AcDbEntity
  8
0-0
100
AcDbCircle
  6
DIVIDE
370
13
 10
186.163463010361
 20
155.3186525914
 40
4.5
  0
CIRCLE
  5
568
100
AcDbEntity
  8
0-0
100
AcDbCircle
  6
DIVIDE
370
13
 10
186.163463010361
 20
155.3186525914
 40
4.5
  0
ARC
  5
569
100
AcDbEntity
  8
0-0
100
AcDbCircle
  6
DIVIDE
370
13
 10
220.163463010361
 20
176.318652591985
 40
25.0000311523997
100
AcDbArc
 50
226.468800861527
 51
313.531199138473
  0
CIRCLE
  5
56A
100
AcDbEntity
  8
0-0
100
AcDbCircle
  6
DIVIDE
370
13
 10
186.163463010361
 20
155.3186525914
 40
4.5
  0
LINE
  5
56B
100
AcDbEntity
  8
0-0
100
AcDbLine
  6
DIVIDE
370
13
 10
179.163291948617
 20
149.818751431478
 11
199.082047430683
 21
138.318652591985
  0
LINE
  5
56C
100
AcDbEntity
  8
0-0
100
AcDbLine
  6
DIVIDE
370
13
 10
260.16346314364
 20
149.241302322795
 11
241.244878856598
 21
138.318652591985
  0
LINE
  5
56D
100
AcDbEntity
  8
0-0
100
AcDbLine
  6
DIVIDE
370
13
 10
179.163463143641
 20
158.318652591985
 11
179.163463143641
 21
149.818652591985
  0
LINE
  5
56E
100
AcDbEntity
  8
0-0
100
AcDbLine
  6
DIVIDE
370
13
 10
261.16346314364
 20
150.973353130364
 11
261.16346314364
 21
158.318652591985
  0
LINE
  5
56F
100
AcDbEntity
  8
0-0
100
AcDbLine
  6
DIVIDE
370
13
 10
192.613463152049
 20
162.318652591985
 11
183.163463143641
 21
162.318652591985
  0
LINE
  5
570
100
AcDbEntity
  8
0-0
100
AcDbLine
  6
DIVIDE
370
13
 10
247.713462868672
 20
162.318652591985
 11
257.16346314364
 21
162.318652591985
  0
LINE
  5
571
100
AcDbEntity
  8
0-0
100
AcDbLine
  6
DIVIDE
370
13
 10
179.163463143641
 20
158.318652591985
 11
183.163463143641
 21
162.318652591985
  0
LINE
  5
572
100
AcDbEntity
  8
0-0
100
AcDbLine
  6
DIVIDE
370
13
 10
257.16346314364
 20
162.318652591985
 11
261.16346314364
 21
158.318652591985
  0
ARC
  5
573
100
AcDbEntity
  8
0-0
100
AcDbCircle
  6
DIVIDE
370
13
 10
259.16346314364
 20
150.973353130364
 40
2
100
AcDbArc
 50
300
 51
360.000000000002
  0
ARC
  5
574
100
AcDbEntity
  8
0-0
100
AcDbCircle
  6
DIVIDE
370
13
 10
247.713462868672
 20
147.318652591985
 40
15
100
AcDbArc
 50
90
 51
133.531199138473
  0
ARC
  5
575
100
AcDbEntity
  8
0-0
100
AcDbCircle
  6
DIVIDE
370
13
 10
192.613463152049
 20
147.318652591985
 40
15
100
AcDbArc
 50
46.4688008615272
 51
90
  0
LINE
  5
576
100
AcDbEntity
  8
0-0
100
AcDbLine
  6
DIVIDE
370
13
 10
241.244878856598
 20
138.318652591985
 11
199.082047430683
 21
138.318652591985
  0
LINE
  5
577
100
AcDbEntity
  8
0-0
100
AcDbLine
  6
DIVIDE
370
13
 10
261.16346314364
 20
150.973353130364
 11
261.16346314364
 21
157.324168084033
  0
LINE
  5
578
100
AcDbEntity
  8
0-0
100
AcDbLine
  6
DASHED
370
13
 10
120.163384479852
 20
163.818481529656
 11
127.163384479852
 21
163.818481529656
  0
LINE
  5
579
100
AcDbEntity
  8
0-0
100
AcDbLine
  6
DASHED
370
13
 10
138.163384479852
 20
163.818481529656
 11
162.16346300919
 21
163.818481529656
  0
LINE
  5
57A
100
AcDbEntity
  8
0-0
100
AcDbLine
  6
CONTINUOUS
370
13
 10
147.16346300919
 20
159.318481529656
 11
138.163384479852
 21
159.318481529656
  0
LINE
  5
57B
100
AcDbEntity
  8
0-0
100
AcDbLine
  6
CONTINUOUS
370
13
 10
127.163384479852
 20
159.318481529656
 11
120.163384479852
 21
159.318481529656
  0
LINE
  5
57C
100
AcDbEntity
  8
0-0
100
AcDbLine
  6
CONTINUOUS
370
13
 10
147.16346300919
 20
219.318481529656
 11
138.163384479852
 21
219.318481529656
  0
LINE
  5
57D
100
AcDbEntity
  8
0-0
100
AcDbLine
  6
CONTINUOUS
370
13
 10
127.163384479852
 20
219.318481529656
 11
120.163384479852
 21
219.318481529656
  0
LINE
  5
57E
100
AcDbEntity
  8
0-0
100
AcDbLine
  6
DASHED
370
13
 10
120.163384479852
 20
214.818481529656
 11
127.163384479852
 21
214.818481529656
  0
LINE
  5
57F
100
AcDbEntity
  8
0-0
100
AcDbLine
  6
DASHED
370
13
 10
138.163384479852
 20
214.818481529656
 11
162.16346300919
 21
214.818481529656
  0
LINE
  5
580
100
AcDbEntity
  8
0-0
100
AcDbLine
  6
CONTINUOUS
370
13
 10
140.163384479852
 20
159.318481529656
 11
140.163384479852
 21
143.318481529656
  0
LINE
  5
581
100
AcDbEntity
  8
0-0
100
AcDbLine
  6
CONTINUOUS
370
13
 10
125.163384479852
 20
159.318481529656
 11
125.163384479852
 21
143.318481529656
  0
LINE
  5
582
100
AcDbEntity
  8
0-0
100
AcDbLine
  6
CONTINUOUS
370
13
 10
138.163384479852
 20
163.318481529656
 11
127.163384479852
 21
163.318481529656
  0
LINE
  5
583
100
AcDbEntity
  8
0-0
100
AcDbLine
  6
CONTINUOUS
370
13
 10
140.163384479852
 20
143.318481529656
 11
125.163384479852
 21
143.318481529656
  0
LINE
  5
584
100
AcDbEntity
  8
0-0
100
AcDbLine
  6
CONTINUOUS
370
13
 10
140.163384479852
 20
219.318481529656
 11
140.163384479852
 21
235.318481529656
  0
LINE
  5
585
100
AcDbEntity
  8
0-0
100
AcDbLine
  6
CONTINUOUS
370
13
 10
125.163384479852
 20
219.318481529656
 11
125.163384479852
 21
235.318481529656
  0
LINE
  5
586
100
AcDbEntity
  8
0-0
100
AcDbLine
  6
CONTINUOUS
370
13
 10
138.163384479852
 20
215.318481529656
 11
127.163384479852
 21
215.318481529656
  0
LINE
  5
587
100
AcDbEntity
  8
0-0
100
AcDbLine
  6
CONTINUOUS
370
13
 10
140.163384479852
 20
235.318481529656
 11
125.163384479852
 21
235.318481529656
  0
LINE
  5
588
100
AcDbEntity
  8
0-0
100
AcDbLine
  6
DIVIDE
370
13
 10
137.663384479852
 20
152.318481529656
 11
137.663384479852
 21
148.318481529656
  0
LINE
  5
589
100
AcDbEntity
  8
0-0
100
AcDbLine
  6
DIVIDE
370
13
 10
127.663384479852
 20
152.318481529656
 11
127.663384479852
 21
148.318481529656
  0
LINE
  5
58A
100
AcDbEntity
  8
0-0
100
AcDbLine
  6
DIVIDE
370
13
 10
140.163384479852
 20
148.318481529656
 11
140.163384479852
 21
132.318481529656
  0
LINE
  5
58B
100
AcDbEntity
  8
0-0
100
AcDbLine
  6
DIVIDE
370
13
 10
125.163384479852
 20
148.318481529656
 11
125.163384479852
 21
132.318481529656
  0
LINE
  5
58C
100
AcDbEntity
  8
0-0
100
AcDbLine
  6
DIVIDE
370
13
 10
140.163384479852
 20
132.318481529656
 11
125.163384479852
 21
132.318481529656
  0
LINE
  5
58D
100
AcDbEntity
  8
0-0
100
AcDbLine
  6
CONTINUOUS
370
13
 10
138.163384479852
 20
219.318481529656
 11
138.163384479852
 21
235.318481529656
  0
LINE
  5
58E
100
AcDbEntity
  8
0-0
100
AcDbLine
  6
CONTINUOUS
370
13
 10
127.163384479852
 20
219.318481529656
 11
127.163384479852
 21
235.318481529656
  0
LINE
  5
58F
100
AcDbEntity
  8
0-0
100
AcDbLine
  6
CONTINUOUS
370
13
 10
138.163384479852
 20
159.318481529656
 11
138.163384479852
 21
143.318481529656
  0
LINE
  5
590
100
AcDbEntity
  8
0-0
100
AcDbLine
  6
CONTINUOUS
370
13
 10
127.163384479852
 20
159.318481529656
 11
127.163384479852
 21
143.318481529656
  0
ARC
  5
591
100
AcDbEntity
  8
0-0
100
AcDbCircle
  6
CONTINUOUS
370
13
 10
194.163463009775
 20
213.719725546351
 40
15
100
AcDbArc
 50
180
 51
195.796538277229
  0
ARC
  5
592
100
AcDbEntity
  8
0-0
100
AcDbCircle
  6
CONTINUOUS
370
13
 10
194.163463009775
 20
164.917579636448
 40
15
100
AcDbArc
 50
164.204504408071
 51
180
  0
CIRCLE
  5
593
100
AcDbEntity
  8
0-0
100
AcDbCircle
  6
CONTINUOUS
370
13
 10
125.163384479852
 20
174.318481529656
 40
3
  0
CIRCLE
  5
594
100
AcDbEntity
  8
0-0
100
AcDbCircle
  6
CONTINUOUS
370
13
 10
125.163384479852
 20
204.318481529656
 40
3
  0
LINE
  5
595
100
AcDbEntity
  8
0-0
100
AcDbLine
  6
CONTINUOUS
370
13
 10
120.163384479852
 20
159.318481529656
 11
120.163384479852
 21
219.318481529656
  0
CIRCLE
  5
596
100
AcDbEntity
  8
0-0
100
AcDbCircle
  6
CONTINUOUS
370
13
 10
186.163463010361
 20
155.3186525914
 40
4.5
  0
CIRCLE
  5
597
100
AcDbEntity
  8
0-0
100
AcDbCircle
  6
CONTINUOUS
370
13
 10
186.163463010361
 20
155.3186525914
 40
5.5
  0
ARC
  5
598
100
AcDbEntity
  8
0-0
100
AcDbCircle
  6
DASHED
370
13
 10
183.063384479267
 20
224.3186525914
 40
4
100
AcDbArc
 50
167.156370544385
 51
192.843629455615
  0
ARC
  5
599
100
AcDbEntity
  8
0-0
100
AcDbCircle
  6
CONTINUOUS
370
13
 10
183.063384479267
 20
224.318652591399
 40
4
100
AcDbArc
 50
170.784846472842
 51
192.843629455608
  0
LINE
  5
59A
100
AcDbEntity
  8
0-0
100
AcDbLine
  6
CONTINUOUS
370
13
 10
138.163384479852
 20
215.318481529656
 11
138.163384479852
 21
219.318481529656
  0
LINE
  5
59B
100
AcDbEntity
  8
0-0
100
AcDbLine
  6
CONTINUOUS
370
13
 10
138.163384479852
 20
213.318481529656
 11
138.163384479852
 21
219.318481529656
  0
LINE
  5
59C
100
AcDbEntity
  8
0-0
100
AcDbLine
  6
CONTINUOUS
370
13
 10
127.163384479852
 20
213.318481529656
 11
127.163384479852
 21
219.318481529656
  0
LINE
  5
59D
100
AcDbEntity
  8
0-0
100
AcDbLine
  6
CONTINUOUS
370
13
 10
127.163384479852
 20
215.318481529656
 11
127.163384479852
 21
219.318481529656
  0
LINE
  5
59E
100
AcDbEntity
  8
0-0
100
AcDbLine
  6
CONTINUOUS
370
13
 10
138.163384479852
 20
159.318481529656
 11
138.163384479852
 21
165.318481529656
  0
LINE
  5
59F
100
AcDbEntity
  8
0-0
100
AcDbLine
  6
CONTINUOUS
370
13
 10
138.163384479852
 20
163.318481529656
 11
138.163384479852
 21
159.318481529656
  0
LINE
  5
5A0
100
AcDbEntity
  8
0-0
100
AcDbLine
  6
CONTINUOUS
370
13
 10
127.163384479852
 20
159.318481529656
 11
127.163384479852
 21
165.318481529656
  0
LINE
  5
5A1
100
AcDbEntity
  8
0-0
100
AcDbLine
  6
CONTINUOUS
370
13
 10
127.163384479852
 20
163.318481529656
 11
127.163384479852
 21
159.318481529656
  0
LINE
  5
5A2
100
AcDbEntity
  8
0-0
100
AcDbLine
  6
CONTINUOUS
370
13
 10
140.163384479852
 20
219.318481529656
 11
138.163384479852
 21
219.318481529656
  0
LINE
  5
5A3
100
AcDbEntity
  8
0-0
100
AcDbLine
  6
CONTINUOUS
370
13
 10
127.163384479852
 20
219.318481529656
 11
125.163384479852
 21
219.318481529656
  0
LINE
  5
5A4
100
AcDbEntity
  8
0-0
100
AcDbLine
  6
CONTINUOUS
370
13
 10
140.163384479852
 20
159.318481529656
 11
138.163384479852
 21
159.318481529656
  0
LINE
  5
5A5
100
AcDbEntity
  8
0-0
100
AcDbLine
  6
CONTINUOUS
370
13
 10
127.163384479852
 20
159.318481529656
 11
125.163384479852
 21
159.318481529656
  0
LINE
  5
5A6
100
AcDbEntity
  8
0-0
100
AcDbLine
  6
CONTINUOUS
370
13
 10
138.163384479852
 20
213.318481529656
 11
127.163384479852
 21
213.318481529656
  0
LINE
  5
5A7
100
AcDbEntity
  8
0-0
100
AcDbLine
  6
CONTINUOUS
370
13
 10
138.163384479852
 20
165.318481529656
 11
127.163384479852
 21
165.318481529656
  0
LWPOLYLINE
  5
5A8
100
AcDbEntity
  8
1-4
100
AcDbPolyline
  6
BYLAYER
370
13
 90
     7
 10
1116.26309779678
  20
306.094971730311
 10
1116.26344858789
  20
306.098388100095
 10
1116.26554207538
  20
306.103878130365
 10
1116.26950314782
  20
306.10908957481
 10
1116.27419773508
  20
306.113043539501
 10
1116.2801257295
  20
306.116525901995
 10
1116.28164760847
  20
306.117238352396
  0
LWPOLYLINE
  5
5A9
100
AcDbEntity
  8
1-4
100
AcDbPolyline
  6
BYLAYER
370
13
 90
     5
 10
1116.26309780646
  20
305.750637091093
 10
1116.26346312446
  20
305.750636979873
 10
1116.26825809843
  20
305.750614900087
 10
1116.27810722958
  20
305.750449325813
 10
1116.28164760847
  20
305.750350276272
  0
LWPOLYLINE
  5
5AA
100
AcDbEntity
  8
1-4
100
AcDbPolyline
  6
BYLAYER
370
13
 90
     6
 10
1116.01309779668
  20
306.061284007807
 10
1116.01370273022
  20
306.066079606663
 10
1116.01577062998
  20
306.071656496503
 10
1116.01978795421
  20
306.078009251312
 10
1116.02548837505
  20
306.08423432198
 10
1116.03164760841
  20
306.089302582266
  0
LINE
  5
5AB
100
AcDbEntity
  8
0-0
100
AcDbLine
  6
CONTINUOUS
370
13
 10
120.163384479852
 20
231.818481529656
 11
125.163384479852
 21
231.818481529656
  0
LINE
  5
5AC
100
AcDbEntity
  8
0-0
100
AcDbLine
  6
CONTINUOUS
370
13
 10
140.163384479852
 20
231.818481529656
 11
202.163384479852
 21
231.818481529656
  0
LINE
  5
5AD
100
AcDbEntity
  8
0-0
100
AcDbLine
  6
CONTINUOUS
370
13
 10
120.163384479852
 20
146.818481529656
 11
125.163384479852
 21
146.818481529656
  0
LINE
  5
5AE
100
AcDbEntity
  8
0-0
100
AcDbLine
  6
CONTINUOUS
370
13
 10
140.163384479852
 20
146.818481529656
 11
202.163384479852
 21
146.818481529656
  0
ARC
  5
5AF
100
AcDbEntity
  8
0-0
100
AcDbCircle
  6
CONTINUOUS
370
13
 10
165.16346300919
 20
189.318481529656
 40
31.5
100
AcDbArc
 50
63.6122000375686
 51
114.463218398386
  0
ARC
  5
5B0
100
AcDbEntity
  8
0-0
100
AcDbCircle
  6
CONTINUOUS
370
13
 10
165.16346300919
 20
189.318481529656
 40
31.5
100
AcDbArc
 50
245.536781601614
 51
296.387799962431
  0
ARC
  5
5B1
100
AcDbEntity
  8
0-0
100
AcDbCircle
  6
CONTINUOUS
370
13
 10
165.16346300919
 20
189.318481529656
 40
31.5
100
AcDbArc
 50
63.6122000375686
 51
114.463218398386
  0
ARC
  5
5B2
100
AcDbEntity
  8
0-0
100
AcDbCircle
  6
CONTINUOUS
370
13
 10
165.16346300919
 20
189.318481529656
 40
31.5
100
AcDbArc
 50
245.536781601614
 51
296.387799962431
  0
LINE
  5
5B3
100
AcDbEntity
  8
0-0
100
AcDbLine
  6
DIVIDE
370
13
 10
140.163384479852
 20
148.318481529656
 11
137.663384479852
 21
148.318481529656
  0
LINE
  5
5B4
100
AcDbEntity
  8
0-0
100
AcDbLine
  6
DIVIDE
370
13
 10
127.663384479852
 20
148.318481529656
 11
125.163384479852
 21
148.318481529656
  0
LINE
  5
5B5
100
AcDbEntity
  8
0-0
100
AcDbLine
  6
DIVIDE
370
13
 10
137.663384479852
 20
152.318481529656
 11
129.663384479852
 21
152.318481529656
  0
LINE
  5
5B6
100
AcDbEntity
  8
0-0
100
AcDbLine
  6
DIVIDE
370
13
 10
129.663384479852
 20
152.318481529656
 11
127.663384479852
 21
152.318481529656
  0
LINE
  5
5B7
100
AcDbEntity
  8
0-0
100
AcDbLine
  6
CONTINUOUS
370
13
 10
181.734750179061
 20
189.677510295858
 11
178.761119551023
 21
189.280621283676
  0
LINE
  5
5B8
100
AcDbEntity
  8
0-0
100
AcDbLine
  6
CONTINUOUS
370
13
 10
181.734750179061
 20
189.677510295858
 11
179.956007369853
 21
193.277485951762
  0
LINE
  5
5B9
100
AcDbEntity
  8
0-0
100
AcDbLine
  6
CONTINUOUS
370
13
 10
178.761119551023
 20
189.280621283676
 11
179.956007369853
 21
193.277485951762
  0
LINE
  5
5BA
100
AcDbEntity
  8
0-0
100
AcDbLine
  6
CONTINUOUS
370
13
 10
181.744869783222
 20
188.044906781259
 11
178.771239155183
 21
188.441795793442
  0
LINE
  5
5BB
100
AcDbEntity
  8
0-0
100
AcDbLine
  6
CONTINUOUS
370
13
 10
181.744869783222
 20
188.044906781259
 11
179.966126974014
 21
184.444931125356
  0
LINE
  5
5BC
100
AcDbEntity
  8
0-0
100
AcDbLine
  6
CONTINUOUS
370
13
 10
178.771239155183
 20
188.441795793442
 11
179.966126974014
 21
184.444931125356
  0
ARC
  5
5BD
100
AcDbEntity
  8
0-0
100
AcDbCircle
  6
BYLAYER
370
13
 10
188.444963045804
 20
153.037152555957
 40
1.994
100
AcDbArc
 50
89.9867691232329
 51
180.013230876767
  0
ARC
  5
5BE
100
AcDbEntity
  8
0-0
100
AcDbCircle
  6
BYLAYER
370
13
 10
188.444963045804
 20
157.600152626842
 40
1.994
100
AcDbArc
 50
179.986769123233
 51
270.013230876767
  0
CIRCLE
  5
5BF
100
AcDbEntity
  8
0-0
100
AcDbCircle
  6
BYLAYER
370
13
 10
186.163463010361
 20
155.3186525914
 40
4
  0
ARC
  5
5C0
100
AcDbEntity
  8
0-0
100
AcDbCircle
  6
BYLAYER
370
13
 10
183.881962974918
 20
153.037152555957
 40
1.994
100
AcDbArc
 50
359.986769123233
 51
450.013230876767
  0
ARC
  5
5C1
100
AcDbEntity
  8
0-0
100
AcDbCircle
  6
BYLAYER
370
13
 10
183.881962974918
 20
157.600152626842
 40
1.994
100
AcDbArc
 50
269.986769123233
 51
360.013230876767
  0
ARC
  5
5C2
100
AcDbEntity
  8
0-0
100
AcDbCircle
  6
BYLAYER
370
13
 10
186.163463010361
 20
155.3186525914
 40
2.3
100
AcDbArc
 50
180
 51
187.180758006241
  0
ARC
  5
5C3
100
AcDbEntity
  8
0-0
100
AcDbCircle
  6
BYLAYER
370
13
 10
186.163463010361
 20
155.3186525914
 40
2.3
100
AcDbArc
 50
172.819241993759
 51
180
  0
ARC
  5
5C4
100
AcDbEntity
  8
0-0
100
AcDbCircle
  6
BYLAYER
370
13
 10
186.163463010361
 20
155.3186525914
 40
2.3
100
AcDbArc
 50
262.819241993759
 51
270
  0
ARC
  5
5C5
100
AcDbEntity
  8
0-0
100
AcDbCircle
  6
BYLAYER
370
13
 10
186.163463010361
 20
155.3186525914
 40
2.3
100
AcDbArc
 50
270
 51
277.180758006241
  0
ARC
  5
5C6
100
AcDbEntity
  8
0-0
100
AcDbCircle
  6
BYLAYER
370
13
 10
186.163463010361
 20
155.3186525914
 40
2.3
100
AcDbArc
 50
90
 51
97.1807580062409
  0
ARC
  5
5C7
100
AcDbEntity
  8
0-0
100
AcDbCircle
  6
BYLAYER
370
13
 10
186.163463010361
 20
155.3186525914
 40
2.3
100
AcDbArc
 50
82.8192419937591
 51
90
  0
ARC
  5
5C8
100
AcDbEntity
  8
0-0
100
AcDbCircle
  6
BYLAYER
370
13
 10
186.163463010361
 20
155.3186525914
 40
2.3
100
AcDbArc
 50
0
 51
7.1807580062409
  0
ARC
  5
5C9
100
AcDbEntity
  8
0-0
100
AcDbCircle
  6
BYLAYER
370
13
 10
186.163463010361
 20
155.3186525914
 40
2.3
100
AcDbArc
 50
352.819241993759
 51
360
  0
LINE
  5
5CA
100
AcDbEntity
  8
0-0
100
AcDbLine
  6
BYLAYER
370
13
 10
124.441696979852
 20
173.068482112469
 11
125.885071979852
 21
173.068482112469
  0
LINE
  5
5CB
100
AcDbEntity
  8
0-0
100
AcDbLine
  6
BYLAYER
370
13
 10
125.885071979852
 20
175.568480946843
 11
124.441696979852
 21
175.568480946843
  0
CIRCLE
  5
5CC
100
AcDbEntity
  8
0-0
100
AcDbCircle
  6
BYLAYER
370
13
 10
125.163384479852
 20
174.318481529656
 40
2.4035896769725
  0
CIRCLE
  5
5CD
100
AcDbEntity
  8
0-0
100
AcDbCircle
  6
BYLAYER
370
13
 10
125.163384479852
 20
174.318481529656
 40
2.74999999999989
  0
LINE
  5
5CE
100
AcDbEntity
  8
0-0
100
AcDbLine
  6
BYLAYER
370
13
 10
123.720009479852
 20
174.318481529656
 11
124.441696979852
 21
173.068482112469
  0
LINE
  5
5CF
100
AcDbEntity
  8
0-0
100
AcDbLine
  6
BYLAYER
370
13
 10
124.441696979852
 20
175.568480946843
 11
123.720009479852
 21
174.318481529656
  0
LINE
  5
5D0
100
AcDbEntity
  8
0-0
100
AcDbLine
  6
BYLAYER
370
13
 10
125.885071979852
 20
173.068482112469
 11
126.606759479852
 21
174.318481529656
  0
LINE
  5
5D1
100
AcDbEntity
  8
0-0
100
AcDbLine
  6
BYLAYER
370
13
 10
126.606759479852
 20
174.318481529656
 11
125.885071979852
 21
175.568480946843
  0
LINE
  5
5D2
100
AcDbEntity
  8
0-0
100
AcDbLine
  6
BYLAYER
370
13
 10
124.441696979852
 20
203.068482112469
 11
125.885071979852
 21
203.068482112469
  0
LINE
  5
5D3
100
AcDbEntity
  8
0-0
100
AcDbLine
  6
BYLAYER
370
13
 10
125.885071979852
 20
205.568480946843
 11
124.441696979852
 21
205.568480946843
  0
CIRCLE
  5
5D4
100
AcDbEntity
  8
0-0
100
AcDbCircle
  6
BYLAYER
370
13
 10
125.163384479852
 20
204.318481529656
 40
2.4035896769725
  0
CIRCLE
  5
5D5
100
AcDbEntity
  8
0-0
100
AcDbCircle
  6
BYLAYER
370
13
 10
125.163384479852
 20
204.318481529656
 40
2.74999999999989
  0
LINE
  5
5D6
100
AcDbEntity
  8
0-0
100
AcDbLine
  6
BYLAYER
370
13
 10
123.720009479852
 20
204.318481529656
 11
124.441696979852
 21
203.068482112469
  0
LINE
  5
5D7
100
AcDbEntity
  8
0-0
100
AcDbLine
  6
BYLAYER
370
13
 10
124.441696979852
 20
205.568480946843
 11
123.720009479852
 21
204.318481529656
  0
LINE
  5
5D8
100
AcDbEntity
  8
0-0
100
AcDbLine
  6
BYLAYER
370
13
 10
125.885071979852
 20
203.068482112469
 11
126.606759479852
 21
204.318481529656
  0
LINE
  5
5D9
100
AcDbEntity
  8
0-0
100
AcDbLine
  6
BYLAYER
370
13
 10
126.606759479852
 20
204.318481529656
 11
125.885071979852
 21
205.568480946843
  0
ARC
  5
5DA
100
AcDbEntity
  8
0-0
100
AcDbCircle
  6
DASHDOT
370
13
 10
186.163463010361
 20
155.3186525914
 40
75.0268092909675
100
AcDbArc
 50
2.67588430632735
 51
85.0510359560674
  0
LINE
  5
5DB
100
AcDbEntity
  8
0-0
100
AcDbLine
  6
DIVIDE
370
13
 10
161.3150308269
 20
238.288831650715
 11
174.941242282212
 21
224.662620195402
  0
LINE
  5
5DC
100
AcDbEntity
  8
0-0
100
AcDbLine
  6
DIVIDE
370
13
 10
169.093205419952
 20
246.067006243767
 11
182.719416875264
 21
232.440794788454
  0
ARC
  5
5DD
100
AcDbEntity
  8
0-0
100
AcDbCircle
  6
DIVIDE
370
13
 10
161.3150308269
 20
246.067006243767
 40
8
100
AcDbArc
 50
361.56746344221
 51
628.43253655779
  0
ARC
  5
5DE
100
AcDbEntity
  8
0-0
100
AcDbCircle
  6
DASHDOT
370
13
 10
183.063384479267
 20
224.318652591399
 40
42.1000785305083
100
AcDbArc
 50
5.12745437227094
 51
126.099704965178
  0
ARC
  5
5DF
100
AcDbEntity
  8
0-0
100
AcDbCircle
  6
DIVIDE
370
13
 10
158.243880930164
 20
249.138156140502
 40
8
100
AcDbArc
 50
38.5075617039838
 51
227.378731366869
  0
LINE
  5
5E0
100
AcDbEntity
  8
0-0
100
AcDbLine
  6
DIVIDE
370
13
 10
174.941242282212
 20
224.662620195402
 11
182.719416875264
 21
232.440794788454
  0
LINE
  5
5E1
100
AcDbEntity
  8
0-0
100
AcDbLine
  6
DIVIDE
370
13
 10
137.663384479852
 20
228.318481529656
 11
137.663384479852
 21
232.318481529656
  0
LINE
  5
5E2
100
AcDbEntity
  8
0-0
100
AcDbLine
  6
DIVIDE
370
13
 10
127.663384479852
 20
228.318481529656
 11
127.663384479852
 21
232.318481529656
  0
LINE
  5
5E3
100
AcDbEntity
  8
0-0
100
AcDbLine
  6
DIVIDE
370
13
 10
140.163384479852
 20
232.318481529656
 11
140.163384479852
 21
248.318481529656
  0
LINE
  5
5E4
100
AcDbEntity
  8
0-0
100
AcDbLine
  6
DIVIDE
370
13
 10
140.163384479852
 20
248.318481529656
 11
125.163384479852
 21
248.318481529656
  0
LWPOLYLINE
  5
5E5
100
AcDbEntity
  8
1-4
100
AcDbPolyline
  6
BYLAYER
370
13
 90
     7
 10
1102.59044513419
  20
-261.559947022379
 10
1102.57785628756
  20
-261.571032643322
 10
1102.5623084422
  20
-261.577331183683
 10
1102.54554183569
  20
-261.578131506389
 10
1102.52945260116
  20
-261.573336532415
 10
1102.51585863542
  20
-261.563487401275
 10
1102.51270490853
  20
-261.559947022379
  0
LWPOLYLINE
  5
5E6
100
AcDbEntity
  8
1-4
100
AcDbPolyline
  6
BYLAYER
370
13
 90
     8
 10
1102.76270490853
  20
-261.347046646275
 10
1102.77504897607
  20
-261.336113241731
 10
1102.78257612911
  20
-261.332253824976
 10
1102.79073138847
  20
-261.329686839186
 10
1102.80682594338
  20
-261.328773320595
 10
1102.82154507895
  20
-261.332658021082
 10
1102.83441199239
  20
-261.340790955001
 10
1102.84044513419
  20
-261.347046646275
  0
LWPOLYLINE
  5
5E7
100
AcDbEntity
  8
1-4
100
AcDbPolyline
  6
BYLAYER
370
13
 90
     7
 10
1103.09044513419
  20
-261.559947022379
 10
1103.07785628756
  20
-261.571032643322
 10
1103.0623084422
  20
-261.577331183683
 10
1103.04554183569
  20
-261.578131506389
 10
1103.02945260116
  20
-261.573336532415
 10
1103.01585863542
  20
-261.563487401275
 10
1103.01270490853
  20
-261.559947022379
  0
LWPOLYLINE
  5
5E8
100
AcDbEntity
  8
1-4
100
AcDbPolyline
  6
BYLAYER
370
13
 90
     8
 10
1103.26270490853
  20
-261.347046646275
 10
1103.27504897607
  20
-261.336113241731
 10
1103.28257612911
  20
-261.332253824976
 10
1103.29073138847
  20
-261.329686839186
 10
1103.30682594338
  20
-261.328773320595
 10
1103.32154507895
  20
-261.332658021082
 10
1103.33441199239
  20
-261.340790955001
 10
1103.34044513419
  20
-261.347046646275
  0
LWPOLYLINE
  5
5E9
100
AcDbEntity
  8
1-4
100
AcDbPolyline
  6
BYLAYER
370
13
 90
     7
 10
1234.74295235124
  20
305.169186903042
 10
1234.73036350461
  20
305.158101282099
 10
1234.71481565925
  20
305.151802741737
 10
1234.69804905274
  20
305.151002419031
 10
1234.68195981821
  20
305.155797393005
 10
1234.66836585247
  20
305.165646524145
 10
1234.66521212558
  20
305.169186903042
  0
LWPOLYLINE
  5
5EA
100
AcDbEntity
  8
1-4
100
AcDbPolyline
  6
BYLAYER
370
13
 90
     8
 10
1234.91521212558
  20
305.382087279145
 10
1234.92755619312
  20
305.39302068369
 10
1234.93508334616
  20
305.396880100444
 10
1234.94323860552
  20
305.399447086235
 10
1234.95933316044
  20
305.400360604826
 10
1234.97405229601
  20
305.396475904338
 10
1234.98691920944
  20
305.388342970419
 10
1234.99295235124
  20
305.382087279145
  0
LWPOLYLINE
  5
5EB
100
AcDbEntity
  8
1-4
100
AcDbPolyline
  6
BYLAYER
370
13
 90
     8
 10
1233.74295235124
  20
380.919194356762
 10
1233.7306082837
  20
380.908260952218
 10
1233.72308113066
  20
380.904401535463
 10
1233.7149258713
  20
380.901834549672
 10
1233.69883131638
  20
380.900921031082
 10
1233.68411218082
  20
380.904805731569
 10
1233.67124526738
  20
380.912938665488
 10
1233.66521212558
  20
380.919194356762
  0
LWPOLYLINE
  5
5EC
100
AcDbEntity
  8
1-4
100
AcDbPolyline
  6
BYLAYER
370
13
 90
     7
 10
1102.2650636731
  20
-167.607172370754
 10
1102.27765251973
  20
-167.596086749812
 10
1102.29320036509
  20
-167.58978820945
 10
1102.3099669716
  20
-167.588987886745
 10
1102.32605620613
  20
-167.593782860719
 10
1102.33965017187
  20
-167.603631991859
 10
1102.34280389876
  20
-167.607172370754
  0
LWPOLYLINE
  5
5ED
100
AcDbEntity
  8
1-4
100
AcDbPolyline
  6
BYLAYER
370
13
 90
     8
 10
1102.09280389876
  20
-167.820072746858
 10
1102.08045983122
  20
-167.831006151403
 10
1102.07293267818
  20
-167.834865568158
 10
1102.06477741882
  20
-167.837432553948
 10
1102.0486828639
  20
-167.838346072538
 10
1102.03396372834
  20
-167.834461372051
 10
1102.0210968149
  20
-167.826328438132
 10
1102.0150636731
  20
-167.820072746858
  0
LINE
  5
5EE
100
AcDbEntity
  8
0-0
100
AcDbLine
  6
DIVIDE
370
13
 10
140.163384479852
 20
232.318481529656
 11
137.663384479852
 21
232.318481529656
  0
LINE
  5
5EF
100
AcDbEntity
  8
0-0
100
AcDbLine
  6
DIVIDE
370
13
 10
127.663384479852
 20
232.318481529656
 11
125.163384479852
 21
232.318481529656
  0
LINE
  5
5F0
100
AcDbEntity
  8
0-0
100
AcDbLine
  6
DIVIDE
370
13
 10
137.663384479852
 20
228.318481529656
 11
129.663384479852
 21
228.318481529656
  0
LINE
  5
5F1
100
AcDbEntity
  8
0-0
100
AcDbLine
  6
DIVIDE
370
13
 10
129.663384479852
 20
228.318481529656
 11
127.663384479852
 21
228.318481529656
  0
LINE
  5
5F2
100
AcDbEntity
  8
0-0
100
AcDbLine
  6
DIVIDE
370
13
 10
125.163384479852
 20
232.318481529656
 11
125.163384479852
 21
248.318481529656
  0
LINE
  5
5F3
100
AcDbEntity
  8
0-0
100
AcDbLine
  6
DIVIDE
370
13
 10
127.163384479852
 20
232.318481529656
 11
127.163384479852
 21
248.318481529656
  0
LINE
  5
5F4
100
AcDbEntity
  8
0-0
100
AcDbLine
  6
DIVIDE
370
13
 10
138.163384479852
 20
232.318481529656
 11
138.163384479852
 21
248.318481529656
  0
LINE
  5
5F5
100
AcDbEntity
  8
0-0
100
AcDbLine
  6
DIVIDE
370
13
 10
127.163384479852
 20
148.318481529656
 11
127.163384479852
 21
132.318481529656
  0
LINE
  5
5F6
100
AcDbEntity
  8
0-0
100
AcDbLine
  6
DIVIDE
370
13
 10
138.163384479852
 20
148.318481529656
 11
138.163384479852
 21
132.318481529656
  0
LINE
  5
5F7
100
AcDbEntity
  8
0-0
100
AcDbLine
  6
DIVIDE
370
13
 10
160.040518580295
 20
225.389904834497
 11
77.0636764650337
 21
225.389904834497
  0
LINE
  5
5F8
100
AcDbEntity
  8
0-0
100
AcDbLine
  6
DIVIDE
370
13
 10
160.888851087097
 20
223.389904834497
 11
78.0088970365861
 21
223.389904834497
  0
LWPOLYLINE
  5
5F9
100
AcDbEntity
  8
0-4
100
AcDbPolyline
  6
DIVIDE
370
13
 90
     37
 10
77.0636764650337
  20
225.389904834497
 10
77.5360182622619
  20
224.471273650704
 10
77.8197926111394
  20
223.675424791681
 10
77.9421126539642
  20
222.98861017514
 10
77.9300915330344
  20
222.397081718792
 10
77.8108423906483
  20
221.88709134035
 10
77.6114783691041
  20
221.444890957526
 10
77.3591126107
  20
221.056732488033
 10
77.0808582577341
  20
220.708867849583
 10
76.8038284525046
  20
220.387548959887
 10
76.5508151340672
  20
220.081028553111
 10
76.3273254285083
  20
219.785562629227
 10
76.1345452586715
  20
219.49940800466
 10
75.9736605474006
  20
219.220821495834
 10
75.8458572175393
  20
218.948059919175
 10
75.7523211919315
  20
218.679380091107
 10
75.6942383934209
  20
218.413038828055
 10
75.6727947448512
  20
218.147292946443
 10
75.6891761690662
  20
217.880399262698
 10
75.7432138616267
  20
217.611536969421
 10
75.8293201089614
  20
217.343574763929
 10
75.9405524702157
  20
217.080303719718
 10
76.0699685045353
  20
216.825514910281
 10
76.2106257710657
  20
216.582999409114
 10
76.3555818289527
  20
216.356548289712
 10
76.4978942373417
  20
216.14995262557
 10
76.6306205553784
  20
215.967003490182
 10
76.7468183422083
  20
215.811491957044
 10
76.8411368780836
  20
215.685998945257
 10
76.9145923276824
  20
215.588264756354
 10
76.9697925767891
  20
215.514819537474
 10
77.0093455111884
  20
215.462193435757
 10
77.0358590166649
  20
215.426916598342
 10
77.0519409790031
  20
215.405519172369
 10
77.0601992839876
  20
215.394531304977
 10
77.0632418174029
  20
215.390483143307
 10
77.0636764650337
  20
215.389904834497
  0
LWPOLYLINE
  5
5FA
100
AcDbEntity
  8
0-4
100
AcDbPolyline
  6
DIVIDE
370
13
 90
     19
 10
77.0636764650337
  20
225.389904834497
 10
76.5670600123267
  20
224.682888388437
 10
76.2322696346328
  20
224.035317317887
 10
76.0356131080335
  20
223.446221989889
 10
75.9533982086105
  20
222.914632771488
 10
75.9619327124454
  20
222.439580029727
 10
76.0375243956199
  20
222.020094131648
 10
76.1564810342156
  20
221.655205444294
 10
76.2951104043142
  20
221.343944334711
 10
76.4297202819972
  20
221.085341169939
 10
76.5410803272648
  20
220.877630731556
 10
76.6278077357912
  20
220.715865459267
 10
76.692981587169
  20
220.59430220731
 10
76.739680960991
  20
220.507197829924
 10
76.7709849368496
  20
220.448809181346
 10
76.7899725943376
  20
220.413393115815
 10
76.7997230130477
  20
220.395206487569
 10
76.8033152725724
  20
220.388506150847
 10
76.8038284525046
  20
220.387548959887
  0
LINE
  5
5FB
100
AcDbEntity
  8
0-0
100
AcDbLine
  6
DIVIDE
370
13
 10
168.523843648316
 20
223.50159155303
 11
179.163463009775
 21
218.518104865901
  0
LINE
  5
5FC
100
AcDbEntity
  8
0-0
100
AcDbLine
  6
DIVIDE
370
13
 10
168.523843648315
 20
221.690422881177
 11
179.163463009775
 21
216.706936194048
  0
ARC
  5
5FD
100
AcDbEntity
  8
0-0
100
AcDbCircle
  6
DIVIDE
370
13
 10
160.040518580295
 20
205.389904834497
 40
20
100
AcDbArc
 50
64.9020986225904
 51
90
  0
ARC
  5
5FE
100
AcDbEntity
  8
0-0
100
AcDbCircle
  6
DIVIDE
370
13
 10
160.888851087097
 20
205.389904834497
 40
18
100
AcDbArc
 50
64.9020986225906
 51
90
  0
LINE
  5
5FF
100
AcDbEntity
  8
0-0
100
AcDbLine
  6
DIVIDE
370
13
 10
160.040518580295
 20
153.392170861744
 11
77.0636764650337
 21
153.392170861744
  0
LINE
  5
600
100
AcDbEntity
  8
0-0
100
AcDbLine
  6
DIVIDE
370
13
 10
160.888851087097
 20
155.392170861744
 11
78.0088970365861
 21
155.392170861744
  0
LWPOLYLINE
  5
601
100
AcDbEntity
  8
0-4
100
AcDbPolyline
  6
DIVIDE
370
13
 90
     37
 10
77.0636764650337
  20
153.392170861744
 10
77.5360182622619
  20
154.310802045537
 10
77.8197926111394
  20
155.10665090456
 10
77.9421126539642
  20
155.793465521102
 10
77.9300915330344
  20
156.384993977449
 10
77.8108423906483
  20
156.894984355891
 10
77.6114783691041
  20
157.337184738715
 10
77.3591126107
  20
157.725343208208
 10
77.0808582577341
  20
158.073207846659
 10
76.8038284525046
  20
158.394526736354
 10
76.5508151340672
  20
158.70104714313
 10
76.3273254285083
  20
158.996513067014
 10
76.1345452586715
  20
159.282667691582
 10
75.9736605474006
  20
159.561254200407
 10
75.8458572175393
  20
159.834015777067
 10
75.7523211919315
  20
160.102695605135
 10
75.6942383934209
  20
160.369036868187
 10
75.6727947448512
  20
160.634782749798
 10
75.6891761690662
  20
160.901676433544
 10
75.7432138616267
  20
161.170538726821
 10
75.8293201089614
  20
161.438500932312
 10
75.9405524702157
  20
161.701771976524
 10
76.0699685045353
  20
161.95656078596
 10
76.2106257710657
  20
162.199076287127
 10
76.3555818289527
  20
162.425527406529
 10
76.4978942373417
  20
162.632123070671
 10
76.6306205553784
  20
162.815072206059
 10
76.7468183422083
  20
162.970583739198
 10
76.8411368780836
  20
163.096076750985
 10
76.9145923276824
  20
163.193810939888
 10
76.9697925767891
  20
163.267256158768
 10
77.0093455111884
  20
163.319882260485
 10
77.0358590166649
  20
163.355159097899
 10
77.0519409790031
  20
163.376556523872
 10
77.0601992839876
  20
163.387544391264
 10
77.0632418174029
  20
163.391592552934
 10
77.0636764650337
  20
163.392170861744
  0
LWPOLYLINE
  5
602
100
AcDbEntity
  8
0-4
100
AcDbPolyline
  6
DIVIDE
370
13
 90
     19
 10
77.0636764650337
  20
153.392170861744
 10
76.5670600123267
  20
154.099187307804
 10
76.2322696346328
  20
154.746758378355
 10
76.0356131080335
  20
155.335853706352
 10
75.9533982086105
  20
155.867442924753
 10
75.9619327124454
  20
156.342495666515
 10
76.0375243956199
  20
156.761981564594
 10
76.1564810342156
  20
157.126870251947
 10
76.2951104043142
  20
157.438131361531
 10
76.4297202819972
  20
157.696734526302
 10
76.5410803272648
  20
157.904444964685
 10
76.6278077357912
  20
158.066210236974
 10
76.692981587169
  20
158.187773488931
 10
76.739680960991
  20
158.274877866318
 10
76.7709849368496
  20
158.333266514896
 10
76.7899725943376
  20
158.368682580426
 10
76.7997230130477
  20
158.386869208672
 10
76.8033152725724
  20
158.393569545394
 10
76.8038284525046
  20
158.394526736354
  0
LINE
  5
603
100
AcDbEntity
  8
0-0
100
AcDbLine
  6
DIVIDE
370
13
 10
168.523843648316
 20
155.280484143211
 11
179.163463009775
 21
160.26397083034
  0
LINE
  5
604
100
AcDbEntity
  8
0-0
100
AcDbLine
  6
DIVIDE
370
13
 10
168.523843648315
 20
157.091652815064
 11
179.163463009775
 21
162.075139502194
  0
ARC
  5
605
100
AcDbEntity
  8
0-0
100
AcDbCircle
  6
DIVIDE
370
13
 10
160.040518580295
 20
173.392170861744
 40
20
100
AcDbArc
 50
270
 51
295.09790137741
  0
ARC
  5
606
100
AcDbEntity
  8
0-0
100
AcDbCircle
  6
DIVIDE
370
13
 10
160.888851087097
 20
173.392170861744
 40
18
100
AcDbArc
 50
270
 51
295.097901377409
  0
LINE
  5
607
100
AcDbEntity
  8
0-0
100
AcDbLine
  6
DIVIDE
370
13
 10
77.0636764650337
 20
163.392170861744
 11
120.163384479852
 21
163.392170861744
  0
LINE
  5
608
100
AcDbEntity
  8
0-0
100
AcDbLine
  6
DIVIDE
370
13
 10
127.163384479852
 20
163.392170861744
 11
138.163384479852
 21
163.392170861744
  0
LINE
  5
609
100
AcDbEntity
  8
0-0
100
AcDbLine
  6
DIVIDE
370
13
 10
76.0284221534952
 20
161.392170861744
 11
120.163384479852
 21
161.392170861744
  0
LINE
  5
60A
100
AcDbEntity
  8
0-0
100
AcDbLine
  6
DIVIDE
370
13
 10
127.163384479852
 20
161.392170861744
 11
138.163384479852
 21
161.392170861744
  0
LINE
  5
60B
100
AcDbEntity
  8
0-0
100
AcDbLine
  6
DIVIDE
370
13
 10
77.0636764650337
 20
215.389904834497
 11
120.163384479852
 21
215.389904834497
  0
LINE
  5
60C
100
AcDbEntity
  8
0-0
100
AcDbLine
  6
DIVIDE
370
13
 10
127.163384479852
 20
215.389904834497
 11
138.163384479852
 21
215.389904834497
  0
LINE
  5
60D
100
AcDbEntity
  8
0-0
100
AcDbLine
  6
DIVIDE
370
13
 10
76.0284221534952
 20
217.389904834497
 11
120.163384479852
 21
217.389904834497
  0
LINE
  5
60E
100
AcDbEntity
  8
0-0
100
AcDbLine
  6
DIVIDE
370
13
 10
127.163384479852
 20
217.389904834497
 11
138.163384479852
 21
217.389904834497
  0
LINE
  5
60F
100
AcDbEntity
  8
0-0
100
AcDbLine
  6
DIVIDE
370
13
 10
77.0657432438397
 20
331.272539940767
 11
177.06574324384
 21
331.272539940767
  0
LINE
  5
610
100
AcDbEntity
  8
0-0
100
AcDbLine
  6
DIVIDE
370
13
 10
177.06574324384
 20
341.272539940767
 11
77.0657432438397
 21
341.272539940767
  0
LINE
  5
611
100
AcDbEntity
  8
0-0
100
AcDbLine
  6
DIVIDE
370
13
 10
177.06574324384
 20
339.272539940767
 11
78.0109638153921
 21
339.272539940767
  0
LINE
  5
612
100
AcDbEntity
  8
0-0
100
AcDbLine
  6
DIVIDE
370
13
 10
76.0304889323012
 20
333.272539940767
 11
177.06574324384
 21
333.272539940767
  0
LWPOLYLINE
  5
613
100
AcDbEntity
  8
0-4
100
AcDbPolyline
  6
DIVIDE
370
13
 90
     37
 10
77.0657432438397
  20
341.272539940767
 10
77.5380850410679
  20
340.353908756974
 10
77.8218593899454
  20
339.558059897951
 10
77.9441794327701
  20
338.87124528141
 10
77.9321583118404
  20
338.279716825062
 10
77.8129091694543
  20
337.76972644662
 10
77.6135451479101
  20
337.327526063796
 10
77.361179389506
  20
336.939367594303
 10
77.0829250365401
  20
336.591502955852
 10
76.8058952313106
  20
336.270184066157
 10
76.5528819128732
  20
335.963663659381
 10
76.3293922073143
  20
335.668197735497
 10
76.1366120374775
  20
335.382043110929
 10
75.9757273262066
  20
335.103456602104
 10
75.8479239963453
  20
334.830695025445
 10
75.7543879707375
  20
334.562015197376
 10
75.6963051722268
  20
334.295673934324
 10
75.6748615236571
  20
334.029928052713
 10
75.6912429478722
  20
333.763034368967
 10
75.7452806404327
  20
333.494172075691
 10
75.8313868877673
  20
333.226209870199
 10
75.9426192490216
  20
332.962938825987
 10
76.0720352833412
  20
332.708150016551
 10
76.2126925498717
  20
332.465634515384
 10
76.3576486077586
  20
332.239183395982
 10
76.4999610161477
  20
332.03258773184
 10
76.6326873341844
  20
331.849638596452
 10
76.7488851210143
  20
331.694127063313
 10
76.8432036568896
  20
331.568634051526
 10
76.9166591064884
  20
331.470899862623
 10
76.9718593555951
  20
331.397454643743
 10
77.0114122899945
  20
331.344828542026
 10
77.0379257954709
  20
331.309551704612
 10
77.0540077578091
  20
331.288154278639
 10
77.0622660627936
  20
331.277166411247
 10
77.0653085962089
  20
331.273118249577
 10
77.0657432438397
  20
331.272539940767
  0
LWPOLYLINE
  5
614
100
AcDbEntity
  8
0-4
100
AcDbPolyline
  6
DIVIDE
370
13
 90
     19
 10
77.0657432438397
  20
341.272539940767
 10
76.5691267911327
  20
340.565523494707
 10
76.2343364134388
  20
339.917952424157
 10
76.0376798868395
  20
339.328857096159
 10
75.9554649874165
  20
338.797267877758
 10
75.9639994912514
  20
338.322215135996
 10
76.0395911744259
  20
337.902729237917
 10
76.1585478130216
  20
337.537840550564
 10
76.2971771831202
  20
337.226579440981
 10
76.4317870608032
  20
336.967976276209
 10
76.5431471060708
  20
336.760265837826
 10
76.6298745145972
  20
336.598500565537
 10
76.6950483659751
  20
336.47693731358
 10
76.741747739797
  20
336.389832936193
 10
76.7730517156556
  20
336.331444287616
 10
76.7920393731436
  20
336.296028222085
 10
76.8017897918537
  20
336.277841593839
 10
76.8053820513784
  20
336.271141257117
 10
76.8058952313106
  20
336.270184066157
  0
LINE
  5
615
100
AcDbEntity
  8
0-0
100
AcDbLine
  6
CONTINUOUS
370
13
 10
355.505667121388
 20
214.084290493782
 11
351.505667121388
 21
214.084290493782
  0
LINE
  5
616
100
AcDbEntity
  8
0-0
100
AcDbLine
  6
CONTINUOUS
370
13
 10
349.505667121388
 20
166.084290493782
 11
349.505667121388
 21
212.084290493782
  0
LINE
  5
617
100
AcDbEntity
  8
0-0
100
AcDbLine
  6
CONTINUOUS
370
13
 10
355.505667121388
 20
164.084290493782
 11
351.505667121388
 21
164.084290493782
  0
LINE
  5
618
100
AcDbEntity
  8
0-0
100
AcDbLine
  6
CONTINUOUS
370
13
 10
357.505667121388
 20
166.084290493782
 11
357.505667121388
 21
212.084290493782
  0
LINE
  5
619
100
AcDbEntity
  8
0-0
100
AcDbLine
  6
CONTINUOUS
370
13
 10
351.505667121388
 20
214.084290493782
 11
349.505667121388
 21
212.084290493782
  0
LINE
  5
61A
100
AcDbEntity
  8
0-0
100
AcDbLine
  6
CONTINUOUS
370
13
 10
357.505667121388
 20
212.084290493782
 11
355.505667121388
 21
214.084290493782
  0
LINE
  5
61B
100
AcDbEntity
  8
0-0
100
AcDbLine
  6
CONTINUOUS
370
13
 10
351.505667121388
 20
164.084290493782
 11
349.505667121388
 21
166.084290493782
  0
LINE
  5
61C
100
AcDbEntity
  8
0-0
100
AcDbLine
  6
CONTINUOUS
370
13
 10
355.505667121388
 20
164.084290493782
 11
357.505667121388
 21
166.084290493782
  0
LINE
  5
61D
100
AcDbEntity
  8
0-0
100
AcDbLine
  6
CONTINUOUS
370
13
 10
369.105667121388
 20
148.084290493782
 11
369.105667121388
 21
230.084461688804
  0
LINE
  5
61E
100
AcDbEntity
  8
0-0
100
AcDbLine
  6
CONTINUOUS
370
13
 10
368.605667121388
 20
159.584461555525
 11
368.605667121388
 21
150.584461555525
  0
LINE
  5
61F
100
AcDbEntity
  8
0-0
100
AcDbLine
  6
CONTINUOUS
370
13
 10
368.605667121388
 20
150.584461555525
 11
369.105667121388
 21
150.584461555525
  0
LINE
  5
620
100
AcDbEntity
  8
0-0
100
AcDbLine
  6
CONTINUOUS
370
13
 10
369.105667121388
 20
159.584461555525
 11
368.605667121388
 21
159.584461555525
  0
LINE
  5
621
100
AcDbEntity
  8
0-0
100
AcDbLine
  6
CONTINUOUS
370
13
 10
387.105667121388
 20
148.084290493782
 11
369.105667121388
 21
148.084290493782
  0
LINE
  5
622
100
AcDbEntity
  8
0-0
100
AcDbLine
  6
CONTINUOUS
370
13
 10
374.464164650383
 20
230.084461688804
 11
369.105667121388
 21
230.084461688804
  0
LINE
  5
623
100
AcDbEntity
  8
0-0
100
AcDbLine
  6
CONTINUOUS
370
13
 10
387.105667121388
 20
231.584290493785
 11
401.105667121388
 21
231.584290493785
  0
LINE
  5
624
100
AcDbEntity
  8
0-0
100
AcDbLine
  6
CONTINUOUS
370
13
 10
387.105667121388
 20
146.584290493781
 11
401.105667121388
 21
146.584290493781
  0
LINE
  5
625
100
AcDbEntity
  8
0-0
100
AcDbLine
  6
CONTINUOUS
370
13
 10
387.105667121388
 20
159.084290493782
 11
387.105667121388
 21
219.084290493782
  0
LINE
  5
626
100
AcDbEntity
  8
0-0
100
AcDbLine
  6
CONTINUOUS
370
13
 10
367.105667121388
 20
214.084290493782
 11
369.105667121388
 21
214.084290493782
  0
LINE
  5
627
100
AcDbEntity
  8
0-0
100
AcDbLine
  6
CONTINUOUS
370
13
 10
367.105667121388
 20
215.065052607315
 11
369.105667121388
 21
215.065052607315
  0
LINE
  5
628
100
AcDbEntity
  8
0-0
100
AcDbLine
  6
CONTINUOUS
370
13
 10
367.105667121388
 20
163.103528380249
 11
369.105667121388
 21
163.103528380249
  0
LINE
  5
629
100
AcDbEntity
  8
0-0
100
AcDbLine
  6
CONTINUOUS
370
13
 10
372.60566712138
 20
227.672984928708
 11
372.60566712138
 21
230.084461688804
  0
LINE
  5
62A
100
AcDbEntity
  8
0-0
100
AcDbLine
  6
DASHED
370
13
 10
355.505667121388
 20
185.690784311686
 11
355.505667121388
 21
176.154885926824
  0
LINE
  5
62B
100
AcDbEntity
  8
0-0
100
AcDbLine
  6
DASHED
370
13
 10
351.505667121388
 20
185.690784311686
 11
351.505667121388
 21
176.154885926824
  0
LINE
  5
62C
100
AcDbEntity
  8
0-0
100
AcDbLine
  6
CONTINUOUS
370
13
 10
383.628650708489
 20
217.084461688807
 11
387.105667121388
 21
217.084461688807
  0
CIRCLE
  5
62D
100
AcDbEntity
  8
0-0
100
AcDbCircle
  6
CONTINUOUS
370
13
 10
379.755667121388
 20
224.084461555525
 40
8
  0
LINE
  5
62E
100
AcDbEntity
  8
0-0
100
AcDbLine
  6
CONTINUOUS
370
13
 10
387.105667121388
 20
228.584290493785
 11
401.105667121388
 21
228.584290493785
  0
LINE
  5
62F
100
AcDbEntity
  8
0-0
100
AcDbLine
  6
CONTINUOUS
370
13
 10
387.105667121388
 20
149.584290493781
 11
401.105667121388
 21
149.584290493781
  0
LINE
  5
630
100
AcDbEntity
  8
0-0
100
AcDbLine
  6
CONTINUOUS
370
13
 10
387.105667121388
 20
220.584290493782
 11
387.105667121388
 21
157.584290493782
  0
LINE
  5
631
100
AcDbEntity
  8
0-0
100
AcDbLine
  6
CONTINUOUS
370
13
 10
360.105667121388
 20
164.084582479548
 11
369.105667121388
 21
164.084582479548
  0
LINE
  5
632
100
AcDbEntity
  8
0-0
100
AcDbLine
  6
CONTINUOUS
370
13
 10
360.105667121388
 20
214.084582479548
 11
369.105667121388
 21
214.084582479548
  0
LINE
  5
633
100
AcDbEntity
  8
0-0
100
AcDbLine
  6
CONTINUOUS
370
13
 10
358.105667121388
 20
166.084582479548
 11
358.105667121388
 21
212.084582479548
  0
LINE
  5
634
100
AcDbEntity
  8
0-0
100
AcDbLine
  6
CONTINUOUS
370
13
 10
360.105667121388
 20
214.084582479548
 11
358.105667121388
 21
212.084582479548
  0
LINE
  5
635
100
AcDbEntity
  8
0-0
100
AcDbLine
  6
CONTINUOUS
370
13
 10
360.105667121388
 20
164.084582479548
 11
358.105667121388
 21
166.084582479548
  0
LINE
  5
636
100
AcDbEntity
  8
0-0
100
AcDbLine
  6
CONTINUOUS
370
13
 10
357.505667121388
 20
185.084290493782
 11
358.105667121388
 21
185.084290493782
  0
LINE
  5
637
100
AcDbEntity
  8
0-0
100
AcDbLine
  6
CONTINUOUS
370
13
 10
357.505667121388
 20
193.084290493782
 11
358.105667121388
 21
193.084290493782
  0
ARC
  5
638
100
AcDbEntity
  8
0-0
100
AcDbCircle
  6
CONTINUOUS
370
13
 10
370.105667121388
 20
216.084290493782
 40
3
100
AcDbArc
 50
109.471220634491
 51
180
  0
ARC
  5
639
100
AcDbEntity
  8
0-0
100
AcDbCircle
  6
CONTINUOUS
370
13
 10
370.105667121388
 20
162.084290493782
 40
3
100
AcDbArc
 50
180
 51
-120
  0
LINE
  5
63A
100
AcDbEntity
  8
0-0
100
AcDbLine
  6
CONTINUOUS
370
13
 10
369.105667121388
 20
210.165877401763
 11
387.105667121388
 21
210.165877401763
  0
LINE
  5
63B
100
AcDbEntity
  8
0-0
100
AcDbLine
  6
CONTINUOUS
370
13
 10
369.105667121388
 20
168.003045975847
 11
387.105667121388
 21
168.003045975847
  0
LINE
  5
63C
100
AcDbEntity
  8
0-0
100
AcDbLine
  6
CONTINUOUS
370
13
 10
387.105667121388
 20
148.084290493782
 11
387.105667121388
 21
220.925743461107
  0
LINE
  5
63D
100
AcDbEntity
  8
0-0
100
AcDbLine
  6
CONTINUOUS
370
13
 10
387.105667121388
 20
227.243179649943
 11
387.105667121388
 21
230.084461688804
  0
LINE
  5
63E
100
AcDbEntity
  8
0-0
100
AcDbLine
  6
CONTINUOUS
370
13
 10
387.105667121388
 20
231.584290493785
 11
387.105667121388
 21
227.243179649943
  0
LINE
  5
63F
100
AcDbEntity
  8
0-0
100
AcDbLine
  6
CONTINUOUS
370
13
 10
387.105667121388
 20
220.925743461107
 11
387.105667121388
 21
146.584290493781
  0
LINE
  5
640
100
AcDbEntity
  8
0-0
100
AcDbLine
  6
CONTINUOUS
370
13
 10
367.105667121388
 20
162.084290493782
 11
367.105667121388
 21
164.084582479548
  0
LINE
  5
641
100
AcDbEntity
  8
0-0
100
AcDbLine
  6
CONTINUOUS
370
13
 10
367.105667121388
 20
214.084290493782
 11
367.105667121388
 21
216.084290493782
  0
LINE
  5
642
100
AcDbEntity
  8
0-0
100
AcDbLine
  6
CONTINUOUS
370
13
 10
360.105667121388
 20
214.084582479548
 11
360.105667121388
 21
164.084582479548
  0
LINE
  5
643
100
AcDbEntity
  8
0-0
100
AcDbLine
  6
CONTINUOUS
370
13
 10
351.505667121388
 20
214.084290493782
 11
355.505667121388
 21
214.084290493782
  0
LINE
  5
644
100
AcDbEntity
  8
0-0
100
AcDbLine
  6
CONTINUOUS
370
13
 10
351.505667121388
 20
164.084290493782
 11
355.505667121388
 21
164.084290493782
  0
CIRCLE
  5
645
100
AcDbEntity
  8
0-0
100
AcDbCircle
  6
CONTINUOUS
370
13
 10
353.505667121388
 20
189.084290493782
 40
1.65
  0
CIRCLE
  5
646
100
AcDbEntity
  8
0-0
100
AcDbCircle
  6
CONTINUOUS
370
13
 10
353.505667121388
 20
189.084290493782
 40
2
  0
CIRCLE
  5
647
100
AcDbEntity
  8
0-0
100
AcDbCircle
  6
CONTINUOUS
370
13
 10
353.505667121388
 20
189.084290493782
 40
2.25
  0
LINE
  5
648
100
AcDbEntity
  8
0-0
100
AcDbLine
  6
CONTINUOUS
370
13
 10
352.384500699509
 20
214.084290493782
 11
351.505667121388
 21
213.20545691566
  0
LINE
  5
649
100
AcDbEntity
  8
0-0
100
AcDbLine
  6
CONTINUOUS
370
13
 10
353.798714261882
 20
214.084290493782
 11
351.505667121388
 21
211.791243353287
  0
LINE
  5
64A
100
AcDbEntity
  8
0-0
100
AcDbLine
  6
CONTINUOUS
370
13
 10
355.212927824256
 20
214.084290493782
 11
351.505667121388
 21
210.377029790914
  0
LINE
  5
64B
100
AcDbEntity
  8
0-0
100
AcDbLine
  6
CONTINUOUS
370
13
 10
355.505667121388
 20
212.962816228541
 11
351.505667121388
 21
208.962816228541
  0
LINE
  5
64C
100
AcDbEntity
  8
0-0
100
AcDbLine
  6
CONTINUOUS
370
13
 10
355.505667121388
 20
211.548602666168
 11
351.505667121388
 21
207.548602666168
  0
LINE
  5
64D
100
AcDbEntity
  8
0-0
100
AcDbLine
  6
CONTINUOUS
370
13
 10
355.505667121388
 20
210.134389103795
 11
351.505667121388
 21
206.134389103795
  0
LINE
  5
64E
100
AcDbEntity
  8
0-0
100
AcDbLine
  6
CONTINUOUS
370
13
 10
355.505667121388
 20
208.720175541422
 11
351.505667121388
 21
204.720175541422
  0
LINE
  5
64F
100
AcDbEntity
  8
0-0
100
AcDbLine
  6
CONTINUOUS
370
13
 10
355.505667121388
 20
207.305961979049
 11
351.505667121388
 21
203.305961979049
  0
LINE
  5
650
100
AcDbEntity
  8
0-0
100
AcDbLine
  6
CONTINUOUS
370
13
 10
355.505667121388
 20
205.891748416676
 11
351.505667121388
 21
201.891748416676
  0
LINE
  5
651
100
AcDbEntity
  8
0-0
100
AcDbLine
  6
CONTINUOUS
370
13
 10
355.505667121388
 20
204.477534854303
 11
351.505667121388
 21
200.477534854303
  0
LINE
  5
652
100
AcDbEntity
  8
0-0
100
AcDbLine
  6
CONTINUOUS
370
13
 10
355.505667121388
 20
203.063321291929
 11
351.505667121388
 21
199.063321291929
  0
LINE
  5
653
100
AcDbEntity
  8
0-0
100
AcDbLine
  6
CONTINUOUS
370
13
 10
355.505667121388
 20
201.649107729556
 11
351.505667121388
 21
197.649107729556
  0
LINE
  5
654
100
AcDbEntity
  8
0-0
100
AcDbLine
  6
CONTINUOUS
370
13
 10
355.505667121388
 20
200.234894167183
 11
351.505667121388
 21
196.234894167183
  0
LINE
  5
655
100
AcDbEntity
  8
0-0
100
AcDbLine
  6
CONTINUOUS
370
13
 10
355.505667121388
 20
198.82068060481
 11
351.505667121388
 21
194.82068060481
  0
LINE
  5
656
100
AcDbEntity
  8
0-0
100
AcDbLine
  6
CONTINUOUS
370
13
 10
355.505667121388
 20
197.406467042437
 11
351.505667121388
 21
193.406467042437
  0
LINE
  5
657
100
AcDbEntity
  8
0-0
100
AcDbLine
  6
CONTINUOUS
370
13
 10
355.505667121388
 20
195.992253480064
 11
351.505667121388
 21
191.992253480064
  0
LINE
  5
658
100
AcDbEntity
  8
0-0
100
AcDbLine
  6
CONTINUOUS
370
13
 10
355.505667121388
 20
194.578039917691
 11
351.505667121388
 21
190.578039917691
  0
LINE
  5
659
100
AcDbEntity
  8
0-0
100
AcDbLine
  6
CONTINUOUS
370
13
 10
355.505667121388
 20
193.163826355318
 11
353.670113727215
 21
191.328272961144
  0
LINE
  5
65A
100
AcDbEntity
  8
0-0
100
AcDbLine
  6
CONTINUOUS
370
13
 10
353.420388621671
 20
186.835907168482
 11
351.505667121388
 21
184.921185668198
  0
LINE
  5
65B
100
AcDbEntity
  8
0-0
100
AcDbLine
  6
CONTINUOUS
370
13
 10
355.505667121388
 20
187.506972105825
 11
351.505667121388
 21
183.506972105825
  0
LINE
  5
65C
100
AcDbEntity
  8
0-0
100
AcDbLine
  6
CONTINUOUS
370
13
 10
355.505667121388
 20
186.092758543452
 11
351.505667121388
 21
182.092758543452
  0
LINE
  5
65D
100
AcDbEntity
  8
0-0
100
AcDbLine
  6
CONTINUOUS
370
13
 10
355.505667121388
 20
184.678544981079
 11
351.505667121388
 21
180.678544981079
  0
LINE
  5
65E
100
AcDbEntity
  8
0-0
100
AcDbLine
  6
CONTINUOUS
370
13
 10
355.505667121388
 20
183.264331418706
 11
351.505667121388
 21
179.264331418706
  0
LINE
  5
65F
100
AcDbEntity
  8
0-0
100
AcDbLine
  6
CONTINUOUS
370
13
 10
355.505667121388
 20
181.850117856333
 11
351.505667121388
 21
177.850117856333
  0
LINE
  5
660
100
AcDbEntity
  8
0-0
100
AcDbLine
  6
CONTINUOUS
370
13
 10
355.505667121388
 20
180.43590429396
 11
351.505667121388
 21
176.43590429396
  0
LINE
  5
661
100
AcDbEntity
  8
0-0
100
AcDbLine
  6
CONTINUOUS
370
13
 10
355.505667121388
 20
179.021690731587
 11
351.505667121388
 21
175.021690731587
  0
LINE
  5
662
100
AcDbEntity
  8
0-0
100
AcDbLine
  6
CONTINUOUS
370
13
 10
355.505667121388
 20
177.607477169214
 11
351.505667121388
 21
173.607477169214
  0
LINE
  5
663
100
AcDbEntity
  8
0-0
100
AcDbLine
  6
CONTINUOUS
370
13
 10
355.505667121388
 20
176.193263606841
 11
351.505667121388
 21
172.193263606841
  0
LINE
  5
664
100
AcDbEntity
  8
0-0
100
AcDbLine
  6
CONTINUOUS
370
13
 10
355.505667121388
 20
174.779050044468
 11
351.505667121388
 21
170.779050044468
  0
LINE
  5
665
100
AcDbEntity
  8
0-0
100
AcDbLine
  6
CONTINUOUS
370
13
 10
355.505667121388
 20
173.364836482094
 11
351.505667121388
 21
169.364836482095
  0
LINE
  5
666
100
AcDbEntity
  8
0-0
100
AcDbLine
  6
CONTINUOUS
370
13
 10
355.505667121388
 20
171.950622919721
 11
351.505667121388
 21
167.950622919721
  0
LINE
  5
667
100
AcDbEntity
  8
0-0
100
AcDbLine
  6
CONTINUOUS
370
13
 10
355.505667121388
 20
170.536409357348
 11
351.505667121388
 21
166.536409357348
  0
LINE
  5
668
100
AcDbEntity
  8
0-0
100
AcDbLine
  6
CONTINUOUS
370
13
 10
355.505667121388
 20
169.122195794975
 11
351.505667121388
 21
165.122195794975
  0
LINE
  5
669
100
AcDbEntity
  8
0-0
100
AcDbLine
  6
CONTINUOUS
370
13
 10
355.505667121388
 20
167.707982232602
 11
351.881975382568
 21
164.084290493782
  0
LINE
  5
66A
100
AcDbEntity
  8
0-0
100
AcDbLine
  6
CONTINUOUS
370
13
 10
355.505667121388
 20
166.293768670229
 11
353.296188944941
 21
164.084290493782
  0
LINE
  5
66B
100
AcDbEntity
  8
0-0
100
AcDbLine
  6
CONTINUOUS
370
13
 10
355.505667121388
 20
164.879555107856
 11
354.710402507314
 21
164.084290493782
  0
LINE
  5
66C
100
AcDbEntity
  8
0-0
100
AcDbLine
  6
CONTINUOUS
370
13
 10
355.505667121388
 20
213.390162645377
 11
354.811539272983
 21
214.084290493782
  0
LINE
  5
66D
100
AcDbEntity
  8
0-0
100
AcDbLine
  6
CONTINUOUS
370
13
 10
355.505667121388
 20
211.975949083004
 11
353.39732571061
 21
214.084290493782
  0
LINE
  5
66E
100
AcDbEntity
  8
0-0
100
AcDbLine
  6
CONTINUOUS
370
13
 10
355.505667121388
 20
210.561735520631
 11
351.983112148237
 21
214.084290493782
  0
LINE
  5
66F
100
AcDbEntity
  8
0-0
100
AcDbLine
  6
CONTINUOUS
370
13
 10
355.505667121388
 20
209.147521958258
 11
351.505667121388
 21
213.147521958258
  0
LINE
  5
670
100
AcDbEntity
  8
0-0
100
AcDbLine
  6
CONTINUOUS
370
13
 10
355.505667121388
 20
207.733308395885
 11
351.505667121388
 21
211.733308395885
  0
LINE
  5
671
100
AcDbEntity
  8
0-0
100
AcDbLine
  6
CONTINUOUS
370
13
 10
355.505667121388
 20
206.319094833512
 11
351.505667121388
 21
210.319094833512
  0
LINE
  5
672
100
AcDbEntity
  8
0-0
100
AcDbLine
  6
CONTINUOUS
370
13
 10
355.505667121388
 20
204.904881271138
 11
351.505667121388
 21
208.904881271138
  0
LINE
  5
673
100
AcDbEntity
  8
0-0
100
AcDbLine
  6
CONTINUOUS
370
13
 10
355.505667121388
 20
203.490667708765
 11
351.505667121388
 21
207.490667708765
  0
LINE
  5
674
100
AcDbEntity
  8
0-0
100
AcDbLine
  6
CONTINUOUS
370
13
 10
355.505667121388
 20
202.076454146392
 11
351.505667121388
 21
206.076454146392
  0
LINE
  5
675
100
AcDbEntity
  8
0-0
100
AcDbLine
  6
CONTINUOUS
370
13
 10
355.505667121388
 20
200.662240584019
 11
351.505667121388
 21
204.662240584019
  0
LINE
  5
676
100
AcDbEntity
  8
0-0
100
AcDbLine
  6
CONTINUOUS
370
13
 10
355.505667121388
 20
199.248027021646
 11
351.505667121388
 21
203.248027021646
  0
LINE
  5
677
100
AcDbEntity
  8
0-0
100
AcDbLine
  6
CONTINUOUS
370
13
 10
355.505667121388
 20
197.833813459273
 11
351.505667121388
 21
201.833813459273
  0
LINE
  5
678
100
AcDbEntity
  8
0-0
100
AcDbLine
  6
CONTINUOUS
370
13
 10
355.505667121388
 20
196.4195998969
 11
351.505667121388
 21
200.4195998969
  0
LINE
  5
679
100
AcDbEntity
  8
0-0
100
AcDbLine
  6
CONTINUOUS
370
13
 10
355.505667121388
 20
195.005386334527
 11
351.505667121388
 21
199.005386334527
  0
LINE
  5
67A
100
AcDbEntity
  8
0-0
100
AcDbLine
  6
CONTINUOUS
370
13
 10
355.505667121388
 20
193.591172772154
 11
351.505667121388
 21
197.591172772154
  0
LINE
  5
67B
100
AcDbEntity
  8
0-0
100
AcDbLine
  6
CONTINUOUS
370
13
 10
355.505667121388
 20
192.176959209781
 11
351.505667121388
 21
196.17695920978
  0
LINE
  5
67C
100
AcDbEntity
  8
0-0
100
AcDbLine
  6
CONTINUOUS
370
13
 10
355.505667121388
 20
190.762745647407
 11
351.505667121388
 21
194.762745647407
  0
LINE
  5
67D
100
AcDbEntity
  8
0-0
100
AcDbLine
  6
CONTINUOUS
370
13
 10
353.505667121388
 20
191.348532085034
 11
351.505667121388
 21
193.348532085034
  0
LINE
  5
67E
100
AcDbEntity
  8
0-0
100
AcDbLine
  6
CONTINUOUS
370
13
 10
355.505667121388
 20
185.105891397915
 11
353.762555152387
 21
186.849003366916
  0
LINE
  5
67F
100
AcDbEntity
  8
0-0
100
AcDbLine
  6
CONTINUOUS
370
13
 10
355.505667121388
 20
183.691677835542
 11
351.505667121388
 21
187.691677835542
  0
LINE
  5
680
100
AcDbEntity
  8
0-0
100
AcDbLine
  6
CONTINUOUS
370
13
 10
355.505667121388
 20
182.277464273169
 11
351.505667121388
 21
186.277464273169
  0
LINE
  5
681
100
AcDbEntity
  8
0-0
100
AcDbLine
  6
CONTINUOUS
370
13
 10
355.505667121388
 20
180.863250710796
 11
351.505667121388
 21
184.863250710796
  0
LINE
  5
682
100
AcDbEntity
  8
0-0
100
AcDbLine
  6
CONTINUOUS
370
13
 10
355.505667121388
 20
179.449037148423
 11
351.505667121388
 21
183.449037148423
  0
LINE
  5
683
100
AcDbEntity
  8
0-0
100
AcDbLine
  6
CONTINUOUS
370
13
 10
355.505667121388
 20
178.03482358605
 11
351.505667121388
 21
182.03482358605
  0
LINE
  5
684
100
AcDbEntity
  8
0-0
100
AcDbLine
  6
CONTINUOUS
370
13
 10
355.505667121388
 20
176.620610023677
 11
351.505667121388
 21
180.620610023676
  0
LINE
  5
685
100
AcDbEntity
  8
0-0
100
AcDbLine
  6
CONTINUOUS
370
13
 10
355.505667121388
 20
175.206396461303
 11
351.505667121388
 21
179.206396461303
  0
LINE
  5
686
100
AcDbEntity
  8
0-0
100
AcDbLine
  6
CONTINUOUS
370
13
 10
355.505667121388
 20
173.79218289893
 11
351.505667121388
 21
177.79218289893
  0
LINE
  5
687
100
AcDbEntity
  8
0-0
100
AcDbLine
  6
CONTINUOUS
370
13
 10
355.505667121388
 20
172.377969336557
 11
351.505667121388
 21
176.377969336557
  0
LINE
  5
688
100
AcDbEntity
  8
0-0
100
AcDbLine
  6
CONTINUOUS
370
13
 10
355.505667121388
 20
170.963755774184
 11
351.505667121388
 21
174.963755774184
  0
LINE
  5
689
100
AcDbEntity
  8
0-0
100
AcDbLine
  6
CONTINUOUS
370
13
 10
355.505667121388
 20
169.549542211811
 11
351.505667121388
 21
173.549542211811
  0
LINE
  5
68A
100
AcDbEntity
  8
0-0
100
AcDbLine
  6
CONTINUOUS
370
13
 10
355.505667121388
 20
168.135328649438
 11
351.505667121388
 21
172.135328649438
  0
LINE
  5
68B
100
AcDbEntity
  8
0-0
100
AcDbLine
  6
CONTINUOUS
370
13
 10
355.505667121388
 20
166.721115087065
 11
351.505667121388
 21
170.721115087065
  0
LINE
  5
68C
100
AcDbEntity
  8
0-0
100
AcDbLine
  6
CONTINUOUS
370
13
 10
355.505667121388
 20
165.306901524692
 11
351.505667121388
 21
169.306901524692
  0
LINE
  5
68D
100
AcDbEntity
  8
0-0
100
AcDbLine
  6
CONTINUOUS
370
13
 10
355.314064589925
 20
164.084290493782
 11
351.505667121388
 21
167.892687962319
  0
LINE
  5
68E
100
AcDbEntity
  8
0-0
100
AcDbLine
  6
CONTINUOUS
370
13
 10
353.899851027552
 20
164.084290493782
 11
351.505667121388
 21
166.478474399945
  0
LINE
  5
68F
100
AcDbEntity
  8
0-0
100
AcDbLine
  6
CONTINUOUS
370
13
 10
352.485637465179
 20
164.084290493782
 11
351.505667121388
 21
165.064260837572
  0
LINE
  5
690
100
AcDbEntity
  8
0-0
100
AcDbLine
  6
CONTINUOUS
370
13
 10
355.505667121388
 20
186.520104960288
 11
354.789356482189
 21
187.236415599487
  0
LINE
  5
691
100
AcDbEntity
  8
0-0
100
AcDbLine
  6
CONTINUOUS
370
13
 10
351.657792227093
 20
190.367979854583
 11
351.505667121388
 21
190.520104960288
  0
LINE
  5
692
100
AcDbEntity
  8
0-0
100
AcDbLine
  6
CONTINUOUS
370
13
 10
355.505667121388
 20
187.934318522661
 11
355.463852061566
 21
187.976133582483
  0
LINE
  5
693
100
AcDbEntity
  8
0-0
100
AcDbLine
  6
CONTINUOUS
370
13
 10
352.397510210089
 20
191.04247543396
 11
351.505667121388
 21
191.934318522661
  0
LINE
  5
694
100
AcDbEntity
  8
0-0
100
AcDbLine
  6
CONTINUOUS
370
13
 10
355.505667121388
 20
191.749612792945
 11
354.728829406377
 21
190.972775077934
  0
LINE
  5
695
100
AcDbEntity
  8
0-0
100
AcDbLine
  6
CONTINUOUS
370
13
 10
351.617182537236
 20
187.861128208792
 11
351.505667121388
 21
187.749612792945
  0
LINE
  5
696
100
AcDbEntity
  8
0-0
100
AcDbLine
  6
CONTINUOUS
370
13
 10
355.505667121388
 20
190.335399230572
 11
355.426411711465
 21
190.256143820649
  0
LINE
  5
697
100
AcDbEntity
  8
0-0
100
AcDbLine
  6
CONTINUOUS
370
13
 10
352.333813794521
 20
187.163545903704
 11
351.505667121388
 21
186.335399230572
  0
LINE
  5
698
100
AcDbEntity
  8
0-0
100
AcDbLine
  6
CONTINUOUS
370
13
 10
355.505667121388
 20
164.084290493782
 11
355.505667121388
 21
188.053514087377
  0
LINE
  5
699
100
AcDbEntity
  8
0-0
100
AcDbLine
  6
CONTINUOUS
370
13
 10
355.505667121388
 20
190.115066900186
 11
355.505667121388
 21
214.084290493782
  0
LINE
  5
69A
100
AcDbEntity
  8
0-0
100
AcDbLine
  6
CONTINUOUS
370
13
 10
351.505667121388
 20
214.084290493782
 11
351.505667121388
 21
190.115066900186
  0
LINE
  5
69B
100
AcDbEntity
  8
0-0
100
AcDbLine
  6
CONTINUOUS
370
13
 10
351.505667121388
 20
188.053514087377
 11
351.505667121388
 21
164.084290493782
  0
LINE
  5
69C
100
AcDbEntity
  8
0-0
100
AcDbLine
  6
CONTINUOUS
370
13
 10
351.505667121388
 20
164.154885926824
 11
351.505667121388
 21
188.053514087377
  0
LINE
  5
69D
100
AcDbEntity
  8
0-0
100
AcDbLine
  6
CONTINUOUS
370
13
 10
351.505667121388
 20
190.115066900186
 11
351.505667121388
 21
214.084290493782
  0
LINE
  5
69E
100
AcDbEntity
  8
0-0
100
AcDbLine
  6
CONTINUOUS
370
13
 10
355.505667121388
 20
214.084290493782
 11
355.505667121388
 21
190.115066900186
  0
LINE
  5
69F
100
AcDbEntity
  8
0-0
100
AcDbLine
  6
CONTINUOUS
370
13
 10
355.505667121388
 20
188.053514087377
 11
355.505667121388
 21
164.154885926824
  0
ARC
  5
6A0
100
AcDbEntity
  8
0-0
100
AcDbCircle
  6
BYLAYER
370
13
 10
375.744556010277
 20
154.960208249713
 40
9.33888888888887
100
AcDbArc
 50
154.639233016361
 51
205.360766983639
  0
LINE
  5
6A1
100
AcDbEntity
  8
0-0
100
AcDbLine
  6
BYLAYER
370
13
 10
367.605667121388
 20
150.960208249713
 11
367.605667121388
 21
158.960208249713
  0
LINE
  5
6A2
100
AcDbEntity
  8
0-0
100
AcDbLine
  6
BYLAYER
370
13
 10
367.305667121388
 20
150.960208249713
 11
367.305667121388
 21
158.960208249713
  0
LINE
  5
6A3
100
AcDbEntity
  8
0-0
100
AcDbLine
  6
BYLAYER
370
13
 10
367.305667121388
 20
150.960208249713
 11
367.605667121388
 21
150.960208249713
  0
LINE
  5
6A4
100
AcDbEntity
  8
0-0
100
AcDbLine
  6
BYLAYER
370
13
 10
367.305667121388
 20
158.960208249713
 11
367.605667121388
 21
158.960208249713
  0
LINE
  5
6A5
100
AcDbEntity
  8
0-0
100
AcDbLine
  6
CONTINUOUS
370
13
 10
368.105667121388
 20
159.584461555525
 11
368.605667121388
 21
159.584461555525
  0
LINE
  5
6A6
100
AcDbEntity
  8
0-0
100
AcDbLine
  6
CONTINUOUS
370
13
 10
367.605667121388
 20
151.084461555525
 11
367.605667121388
 21
159.084461555525
  0
LINE
  5
6A7
100
AcDbEntity
  8
0-0
100
AcDbLine
  6
CONTINUOUS
370
13
 10
368.105667121388
 20
150.584461555525
 11
368.605667121388
 21
150.584461555525
  0
LINE
  5
6A8
100
AcDbEntity
  8
0-0
100
AcDbLine
  6
CONTINUOUS
370
13
 10
368.605667121388
 20
150.584461555525
 11
368.605667121388
 21
159.584461555525
  0
ARC
  5
6A9
100
AcDbEntity
  8
0-0
100
AcDbCircle
  6
CONTINUOUS
370
13
 10
368.105667121388
 20
159.084461555525
 40
0.5
100
AcDbArc
 50
90
 51
180
  0
ARC
  5
6AA
100
AcDbEntity
  8
0-0
100
AcDbCircle
  6
CONTINUOUS
370
13
 10
368.105667121388
 20
151.084461555525
 40
0.5
100
AcDbArc
 50
180
 51
-90
  0
TEXT
  5
6AB
100
AcDbEntity
  8
0-0
100
AcDbText
  6
CONTINUOUS
 10
714.783545516567
 20
14.1959106828207
 40
5
  1
ＭＣＲＰ３２６Ｄｉ外観図
  7
Font_0
 11
714.783545516567
 21
19.1959106828207
100
AcDbText
 73
3
  0
LINE
  5
6AC
100
AcDbEntity
  8
0-0
100
AcDbLine
  6
CONTINUOUS
370
13
 10
109.165821773762
 20
113.579480342881
 11
71.3549849843455
 21
113.579480342881
  0
LINE
  5
6AD
100
AcDbEntity
  8
0-0
100
AcDbLine
  6
CONTINUOUS
370
13
 10
71.8549849843455
 20
113.579480342881
 11
71.8549849843455
 21
118.076813500057
  0
LINE
  5
6AE
100
AcDbEntity
  8
0-0
100
AcDbLine
  6
CONTINUOUS
370
13
 10
71.8549849843455
 20
113.579480342881
 11
72.3726230745505
 21
111.647628690302
  0
LINE
  5
6AF
100
AcDbEntity
  8
0-0
100
AcDbLine
  6
CONTINUOUS
370
13
 10
71.8549849843455
 20
113.579480342881
 11
71.3373468941405
 21
111.647628690302
  0
LINE
  5
6B0
100
AcDbEntity
  8
0-0
100
AcDbLine
  6
CONTINUOUS
370
13
 10
71.8549849843455
 20
118.076813500057
 11
71.3373468941405
 21
120.008665152635
  0
LINE
  5
6B1
100
AcDbEntity
  8
0-0
100
AcDbLine
  6
CONTINUOUS
370
13
 10
71.8549849843455
 20
118.076813500057
 11
72.3726230745505
 21
120.008665152635
  0
TEXT
  5
6B2
100
AcDbEntity
  8
0-0
100
AcDbText
  6
CONTINUOUS
 10
71.6049849843455
 20
109.828146921469
 40
8
  1
4.5
  7
Font_0
 50
90
 72
1
 11
71.6049849843455
 21
115.828146921469
100
AcDbText
  0
LINE
  5
6B3
100
AcDbEntity
  8
0-0
100
AcDbLine
  6
CONTINUOUS
370
13
 10
87.2854033790538
 20
118.076813500057
 11
71.3549849843455
 21
118.076813500057
  0
LINE
  5
6B4
100
AcDbEntity
  8
0-0
100
AcDbLine
  6
CONTINUOUS
370
13
 10
103.715821773762
 20
498.622539940767
 11
61.4690829024969
 21
498.622539940767
  0
LINE
  5
6B5
100
AcDbEntity
  8
0-0
100
AcDbLine
  6
CONTINUOUS
370
13
 10
61.9690829024969
 20
498.622539940767
 11
61.9690829024969
 21
358.622539940767
  0
LINE
  5
6B6
100
AcDbEntity
  8
0-0
100
AcDbLine
  6
CONTINUOUS
370
13
 10
61.9690829024969
 20
498.622539940767
 11
62.4867209927019
 21
496.690688288189
  0
LINE
  5
6B7
100
AcDbEntity
  8
0-0
100
AcDbLine
  6
CONTINUOUS
370
13
 10
61.9690829024969
 20
498.622539940767
 11
61.4514448122919
 21
496.690688288189
  0
LINE
  5
6B8
100
AcDbEntity
  8
0-0
100
AcDbLine
  6
CONTINUOUS
370
13
 10
61.9690829024969
 20
358.622539940767
 11
61.4514448122919
 21
360.554391593345
  0
LINE
  5
6B9
100
AcDbEntity
  8
0-0
100
AcDbLine
  6
CONTINUOUS
370
13
 10
61.9690829024969
 20
358.622539940767
 11
62.4867209927019
 21
360.554391593345
  0
TEXT
  5
6BA
100
AcDbEntity
  8
0-0
100
AcDbText
  6
CONTINUOUS
 10
61.7190829024969
 20
422.622539940767
 40
8
  1
140
  7
Font_0
 50
90
 72
1
 11
61.7190829024969
 21
428.622539940767
100
AcDbText
  0
LINE
  5
6BB
100
AcDbEntity
  8
0-0
100
AcDbLine
  6
CONTINUOUS
370
13
 10
103.715821773762
 20
358.622539940767
 11
61.4690829024969
 21
358.622539940767
  0
LINE
  5
6BC
100
AcDbEntity
  8
0-0
100
AcDbLine
  6
CONTINUOUS
370
13
 10
141.915821773762
 20
306.022539940767
 11
61.4690829024969
 21
306.022539940767
  0
LINE
  5
6BD
100
AcDbEntity
  8
0-0
100
AcDbLine
  6
CONTINUOUS
370
13
 10
61.9690829024969
 20
306.022539940767
 11
61.9690829024969
 21
358.622539940767
  0
LINE
  5
6BE
100
AcDbEntity
  8
0-0
100
AcDbLine
  6
CONTINUOUS
370
13
 10
61.9690829024969
 20
306.022539940767
 11
61.4514448122919
 21
307.954391593345
  0
LINE
  5
6BF
100
AcDbEntity
  8
0-0
100
AcDbLine
  6
CONTINUOUS
370
13
 10
61.9690829024969
 20
306.022539940767
 11
62.4867209927019
 21
307.954391593345
  0
LINE
  5
6C0
100
AcDbEntity
  8
0-0
100
AcDbLine
  6
CONTINUOUS
370
13
 10
61.9690829024969
 20
358.622539940767
 11
62.4867209927019
 21
356.690688288189
  0
LINE
  5
6C1
100
AcDbEntity
  8
0-0
100
AcDbLine
  6
CONTINUOUS
370
13
 10
61.9690829024969
 20
358.622539940767
 11
61.4514448122919
 21
356.690688288189
  0
TEXT
  5
6C2
100
AcDbEntity
  8
0-0
100
AcDbText
  6
CONTINUOUS
 10
61.7190829024969
 20
324.322539940767
 40
8
  1
52.6
  7
Font_0
 50
90
 72
1
 11
61.7190829024969
 21
332.322539940767
100
AcDbText
  0
LINE
  5
6C3
100
AcDbEntity
  8
0-0
100
AcDbLine
  6
CONTINUOUS
370
13
 10
88.2840089017866
 20
358.622539940767
 11
61.4690829024969
 21
358.622539940767
  0
LINE
  5
6C4
100
AcDbEntity
  8
0-0
100
AcDbLine
  6
CONTINUOUS
370
13
 10
202.065846773762
 20
504.243450940767
 11
61.4690829024969
 21
504.243450940767
  0
LINE
  5
6C5
100
AcDbEntity
  8
0-0
100
AcDbLine
  6
CONTINUOUS
370
13
 10
61.9690829024969
 20
504.243450940767
 11
61.9690829024969
 21
498.622539940767
  0
LINE
  5
6C6
100
AcDbEntity
  8
0-0
100
AcDbLine
  6
CONTINUOUS
370
13
 10
61.9690829024969
 20
504.243450940767
 11
61.4514448122919
 21
506.175302593345
  0
LINE
  5
6C7
100
AcDbEntity
  8
0-0
100
AcDbLine
  6
CONTINUOUS
370
13
 10
61.9690829024969
 20
504.243450940767
 11
62.4867209927019
 21
506.175302593345
  0
LINE
  5
6C8
100
AcDbEntity
  8
0-0
100
AcDbLine
  6
CONTINUOUS
370
13
 10
61.9690829024969
 20
498.622539940767
 11
62.4867209927019
 21
496.690688288189
  0
LINE
  5
6C9
100
AcDbEntity
  8
0-0
100
AcDbLine
  6
CONTINUOUS
370
13
 10
61.9690829024969
 20
498.622539940767
 11
61.4514448122919
 21
496.690688288189
  0
TEXT
  5
6CA
100
AcDbEntity
  8
0-0
100
AcDbText
  6
CONTINUOUS
 10
61.7190829024969
 20
495.432995440767
 40
8
  1
5.6
  7
Font_0
 50
90
 72
1
 11
61.7190829024969
 21
501.432995440767
100
AcDbText
  0
LINE
  5
6CB
100
AcDbEntity
  8
0-0
100
AcDbLine
  6
CONTINUOUS
370
13
 10
95.5448839006882
 20
498.622539940767
 11
61.4690829024969
 21
498.622539940767
  0
LINE
  5
6CC
100
AcDbEntity
  8
0-0
100
AcDbLine
  6
BYLAYER
370
13
 10
413.150044738077
 20
363.714107353368
 11
426.150044738077
 21
363.714107353368
  0
LINE
  5
6CD
100
AcDbEntity
  8
0-0
100
AcDbLine
  6
BYLAYER
370
13
 10
413.150044738077
 20
379.414107353368
 11
426.150044738077
 21
379.414107353368
  0
LINE
  5
6CE
100
AcDbEntity
  8
0-0
100
AcDbLine
  6
BYLAYER
370
13
 10
426.150044738077
 20
363.714107353368
 11
426.150044738077
 21
379.414107353368
  0
LINE
  5
6CF
100
AcDbEntity
  8
0-0
100
AcDbLine
  6
BYLAYER
370
13
 10
413.150044738077
 20
363.714107353368
 11
413.150044738077
 21
379.414107353368
  0
CIRCLE
  5
6D0
100
AcDbEntity
  8
0-0
100
AcDbCircle
  6
BYLAYER
370
13
 10
419.650044738077
 20
369.414107353368
 40
1.05000000000001
  0
CIRCLE
  5
6D1
100
AcDbEntity
  8
0-0
100
AcDbCircle
  6
BYLAYER
370
13
 10
419.650044738077
 20
369.414107353368
 40
3.30000000000001
  0
CIRCLE
  5
6D2
100
AcDbEntity
  8
0-0
100
AcDbCircle
  6
BYLAYER
370
13
 10
410.150044738077
 20
371.564107353368
 40
2.75
  0
ARC
  5
6D3
100
AcDbEntity
  8
0-0
100
AcDbCircle
  6
BYLAYER
370
13
 10
408.410144738077
 20
373.304007353368
 40
1.5524
100
AcDbArc
 50
269.99902698449
 51
0.0009730155102177
  0
ARC
  5
6D4
100
AcDbEntity
  8
0-0
100
AcDbCircle
  6
BYLAYER
370
13
 10
408.410144738077
 20
369.824207353368
 40
1.5524
100
AcDbArc
 50
359.99902698449
 51
90.0009730155102
  0
ARC
  5
6D5
100
AcDbEntity
  8
0-0
100
AcDbCircle
  6
BYLAYER
370
13
 10
410.150044738077
 20
371.564107353368
 40
1.75
100
AcDbArc
 50
263.84936016469
 51
270
  0
ARC
  5
6D6
100
AcDbEntity
  8
0-0
100
AcDbCircle
  6
BYLAYER
370
13
 10
410.150044738077
 20
371.564107353368
 40
1.75
100
AcDbArc
 50
90
 51
96.1506398353101
  0
ARC
  5
6D7
100
AcDbEntity
  8
0-0
100
AcDbCircle
  6
BYLAYER
370
13
 10
411.889944738077
 20
373.304007353368
 40
1.5524
100
AcDbArc
 50
179.99902698449
 51
270.00097301551
  0
ARC
  5
6D8
100
AcDbEntity
  8
0-0
100
AcDbCircle
  6
BYLAYER
370
13
 10
411.889944738077
 20
369.824207353368
 40
1.5524
100
AcDbArc
 50
89.9990269844898
 51
180.00097301551
  0
ARC
  5
6D9
100
AcDbEntity
  8
0-0
100
AcDbCircle
  6
BYLAYER
370
13
 10
410.150044738077
 20
371.564107353368
 40
1.75
100
AcDbArc
 50
180
 51
186.150639835312
  0
ARC
  5
6DA
100
AcDbEntity
  8
0-0
100
AcDbCircle
  6
BYLAYER
370
13
 10
410.150044738077
 20
371.564107353368
 40
1.75
100
AcDbArc
 50
173.849360164688
 51
180
  0
ARC
  5
6DB
100
AcDbEntity
  8
0-0
100
AcDbCircle
  6
BYLAYER
370
13
 10
410.150044738077
 20
371.564107353368
 40
1.75
100
AcDbArc
 50
353.849360164688
 51
0
  0
ARC
  5
6DC
100
AcDbEntity
  8
0-0
100
AcDbCircle
  6
BYLAYER
370
13
 10
410.150044738077
 20
371.564107353368
 40
1.75
100
AcDbArc
 50
0
 51
6.15063983531177
  0
ARC
  5
6DD
100
AcDbEntity
  8
0-0
100
AcDbCircle
  6
BYLAYER
370
13
 10
410.150044738077
 20
371.564107353368
 40
1.75
100
AcDbArc
 50
270
 51
276.15063983531
  0
ARC
  5
6DE
100
AcDbEntity
  8
0-0
100
AcDbCircle
  6
BYLAYER
370
13
 10
410.150044738077
 20
371.564107353368
 40
1.75
100
AcDbArc
 50
83.8493601646898
 51
90
  0
CIRCLE
  5
6DF
100
AcDbEntity
  8
0-0
100
AcDbCircle
  6
BYLAYER
370
13
 10
429.150044738077
 20
371.564107353368
 40
2.75
  0
ARC
  5
6E0
100
AcDbEntity
  8
0-0
100
AcDbCircle
  6
BYLAYER
370
13
 10
427.410144738077
 20
373.304007353368
 40
1.5524
100
AcDbArc
 50
269.99902698449
 51
0.0009730155102177
  0
ARC
  5
6E1
100
AcDbEntity
  8
0-0
100
AcDbCircle
  6
BYLAYER
370
13
 10
427.410144738077
 20
369.824207353368
 40
1.5524
100
AcDbArc
 50
359.99902698449
 51
90.0009730155102
  0
ARC
  5
6E2
100
AcDbEntity
  8
0-0
100
AcDbCircle
  6
BYLAYER
370
13
 10
429.150044738077
 20
371.564107353368
 40
1.75
100
AcDbArc
 50
263.84936016469
 51
270
  0
ARC
  5
6E3
100
AcDbEntity
  8
0-0
100
AcDbCircle
  6
BYLAYER
370
13
 10
429.150044738077
 20
371.564107353368
 40
1.75
100
AcDbArc
 50
90
 51
96.1506398353101
  0
ARC
  5
6E4
100
AcDbEntity
  8
0-0
100
AcDbCircle
  6
BYLAYER
370
13
 10
430.889944738077
 20
373.304007353368
 40
1.5524
100
AcDbArc
 50
179.99902698449
 51
270.00097301551
  0
ARC
  5
6E5
100
AcDbEntity
  8
0-0
100
AcDbCircle
  6
BYLAYER
370
13
 10
430.889944738077
 20
369.824207353368
 40
1.5524
100
AcDbArc
 50
89.9990269844898
 51
180.00097301551
  0
ARC
  5
6E6
100
AcDbEntity
  8
0-0
100
AcDbCircle
  6
BYLAYER
370
13
 10
429.150044738077
 20
371.564107353368
 40
1.75
100
AcDbArc
 50
180
 51
186.150639835312
  0
ARC
  5
6E7
100
AcDbEntity
  8
0-0
100
AcDbCircle
  6
BYLAYER
370
13
 10
429.150044738077
 20
371.564107353368
 40
1.75
100
AcDbArc
 50
173.849360164688
 51
180
  0
ARC
  5
6E8
100
AcDbEntity
  8
0-0
100
AcDbCircle
  6
BYLAYER
370
13
 10
429.150044738077
 20
371.564107353368
 40
1.75
100
AcDbArc
 50
353.849360164688
 51
0
  0
ARC
  5
6E9
100
AcDbEntity
  8
0-0
100
AcDbCircle
  6
BYLAYER
370
13
 10
429.150044738077
 20
371.564107353368
 40
1.75
100
AcDbArc
 50
0
 51
6.15063983531177
  0
ARC
  5
6EA
100
AcDbEntity
  8
0-0
100
AcDbCircle
  6
BYLAYER
370
13
 10
429.150044738077
 20
371.564107353368
 40
1.75
100
AcDbArc
 50
270
 51
276.15063983531
  0
ARC
  5
6EB
100
AcDbEntity
  8
0-0
100
AcDbCircle
  6
BYLAYER
370
13
 10
429.150044738077
 20
371.564107353368
 40
1.75
100
AcDbArc
 50
83.8493601646898
 51
90
  0
LINE
  5
6EC
100
AcDbEntity
  8
0-0
100
AcDbLine
  6
CONTINUOUS
370
13
 10
122.100357876326
 20
431.137816450951
 11
123.312838184309
 21
431.137816450951
  0
LINE
  5
6ED
100
AcDbEntity
  8
0-0
100
AcDbLine
  6
CONTINUOUS
370
13
 10
126.077621182143
 20
431.137816450951
 11
127.100357876326
 21
431.137816450951
  0
LINE
  5
6EE
100
AcDbEntity
  8
0-0
100
AcDbLine
  6
CONTINUOUS
370
13
 10
134.965821773762
 20
428.622539940767
 11
137.465821773762
 21
428.622539940767
  0
LINE
  5
6EF
100
AcDbEntity
  8
0-0
100
AcDbLine
  6
CONTINUOUS
370
13
 10
127.100357876326
 20
431.137816450951
 11
124.585081366142
 21
428.622539940767
  0
LINE
  5
6F0
100
AcDbEntity
  8
0-0
100
AcDbLine
  6
CONTINUOUS
370
13
 10
122.100357876326
 20
431.137816450951
 11
124.600357876326
 21
428.637816450951
  0
LINE
  5
6F1
100
AcDbEntity
  8
0-0
100
AcDbLine
  6
CONTINUOUS
370
13
 10
138.644777420789
 20
426.122539940767
 11
137.437166324633
 21
426.122539940767
  0
LINE
  5
6F2
100
AcDbEntity
  8
0-0
100
AcDbLine
  6
CONTINUOUS
370
13
 10
134.672383326799
 20
426.122539940767
 11
133.644777420789
 21
426.122539940767
  0
LINE
  5
6F3
100
AcDbEntity
  8
0-0
100
AcDbLine
  6
CONTINUOUS
370
13
 10
125.78418273518
 20
428.637816450951
 11
123.28418273518
 21
428.637816450951
  0
LINE
  5
6F4
100
AcDbEntity
  8
0-0
100
AcDbLine
  6
CONTINUOUS
370
13
 10
133.644777420789
 20
426.122539940767
 11
136.160053930974
 21
428.637816450951
  0
LINE
  5
6F5
100
AcDbEntity
  8
0-0
100
AcDbLine
  6
CONTINUOUS
370
13
 10
138.644777420789
 20
426.122539940767
 11
136.144777420789
 21
428.622539940767
  0
ARC
  5
6F6
100
AcDbEntity
  8
0-0
100
AcDbCircle
  6
CONTINUOUS
370
13
 10
130.165821773762
 20
428.622539940767
 40
4.8
100
AcDbArc
 50
0
 51
148.397979610506
  0
ARC
  5
6F7
100
AcDbEntity
  8
0-0
100
AcDbCircle
  6
CONTINUOUS
370
13
 10
130.165821773762
 20
428.622539940767
 40
7.3
100
AcDbArc
 50
0
 51
159.845157210895
  0
ARC
  5
6F8
100
AcDbEntity
  8
0-0
100
AcDbCircle
  6
CONTINUOUS
370
13
 10
130.58418273518
 20
428.637816450951
 40
4.8
100
AcDbArc
 50
180
 51
-31.6020203894942
  0
ARC
  5
6F9
100
AcDbEntity
  8
0-0
100
AcDbCircle
  6
CONTINUOUS
370
13
 10
130.58418273518
 20
428.637816450951
 40
7.3
100
AcDbArc
 50
180
 51
-20.154842789105
  0
LINE
  5
6FA
100
AcDbEntity
  8
0-0
100
AcDbLine
  6
CONTINUOUS
370
13
 10
143.893612001531
 20
431.137816450951
 11
145.106092309514
 21
431.137816450951
  0
LINE
  5
6FB
100
AcDbEntity
  8
0-0
100
AcDbLine
  6
CONTINUOUS
370
13
 10
147.870875307348
 20
431.137816450951
 11
148.893612001531
 21
431.137816450951
  0
LINE
  5
6FC
100
AcDbEntity
  8
0-0
100
AcDbLine
  6
CONTINUOUS
370
13
 10
156.759075898967
 20
428.622539940767
 11
159.259075898967
 21
428.622539940767
  0
LINE
  5
6FD
100
AcDbEntity
  8
0-0
100
AcDbLine
  6
CONTINUOUS
370
13
 10
148.893612001531
 20
431.137816450951
 11
146.378335491346
 21
428.622539940767
  0
LINE
  5
6FE
100
AcDbEntity
  8
0-0
100
AcDbLine
  6
CONTINUOUS
370
13
 10
143.893612001531
 20
431.137816450951
 11
146.393612001531
 21
428.637816450951
  0
LINE
  5
6FF
100
AcDbEntity
  8
0-0
100
AcDbLine
  6
CONTINUOUS
370
13
 10
160.438031545994
 20
426.122539940767
 11
159.230420449838
 21
426.122539940767
  0
LINE
  5
700
100
AcDbEntity
  8
0-0
100
AcDbLine
  6
CONTINUOUS
370
13
 10
156.465637452004
 20
426.122539940767
 11
155.438031545994
 21
426.122539940767
  0
LINE
  5
701
100
AcDbEntity
  8
0-0
100
AcDbLine
  6
CONTINUOUS
370
13
 10
147.577436860385
 20
428.637816450951
 11
145.077436860385
 21
428.637816450951
  0
LINE
  5
702
100
AcDbEntity
  8
0-0
100
AcDbLine
  6
CONTINUOUS
370
13
 10
155.438031545994
 20
426.122539940767
 11
157.953308056179
 21
428.637816450951
  0
LINE
  5
703
100
AcDbEntity
  8
0-0
100
AcDbLine
  6
CONTINUOUS
370
13
 10
160.438031545994
 20
426.122539940767
 11
157.938031545994
 21
428.622539940767
  0
ARC
  5
704
100
AcDbEntity
  8
0-0
100
AcDbCircle
  6
CONTINUOUS
370
13
 10
151.959075898967
 20
428.622539940767
 40
4.8
100
AcDbArc
 50
0
 51
148.397979610506
  0
ARC
  5
705
100
AcDbEntity
  8
0-0
100
AcDbCircle
  6
CONTINUOUS
370
13
 10
151.959075898967
 20
428.622539940767
 40
7.3
100
AcDbArc
 50
0
 51
159.845157210895
  0
ARC
  5
706
100
AcDbEntity
  8
0-0
100
AcDbCircle
  6
CONTINUOUS
370
13
 10
152.377436860385
 20
428.637816450951
 40
4.8
100
AcDbArc
 50
180
 51
-31.6020203894942
  0
ARC
  5
707
100
AcDbEntity
  8
0-0
100
AcDbCircle
  6
CONTINUOUS
370
13
 10
152.377436860385
 20
428.637816450951
 40
7.3
100
AcDbArc
 50
180
 51
-20.154842789105
  0
LINE
  5
708
100
AcDbEntity
  8
0-0
100
AcDbLine
  6
CONTINUOUS
370
13
 10
148.877436860385
 20
415.494555430019
 11
155.877436860385
 21
415.494555430019
  0
LINE
  5
709
100
AcDbEntity
  8
0-0
100
AcDbLine
  6
CONTINUOUS
370
13
 10
148.877436860385
 20
415.494555430019
 11
152.377436860385
 21
418.994555430019
  0
LINE
  5
70A
100
AcDbEntity
  8
0-0
100
AcDbLine
  6
CONTINUOUS
370
13
 10
152.377436860385
 20
418.994555430019
 11
155.877436860385
 21
415.494555430019
  0
LINE
  5
70B
100
AcDbEntity
  8
0-0
100
AcDbLine
  6
CONTINUOUS
370
13
 10
148.877436860385
 20
411.994555430019
 11
155.877436860385
 21
411.994555430019
  0
LINE
  5
70C
100
AcDbEntity
  8
0-0
100
AcDbLine
  6
CONTINUOUS
370
13
 10
148.877436860385
 20
411.994555430019
 11
152.377436860385
 21
415.494555430019
  0
LINE
  5
70D
100
AcDbEntity
  8
0-0
100
AcDbLine
  6
CONTINUOUS
370
13
 10
152.377436860385
 20
415.494555430019
 11
155.877436860385
 21
411.994555430019
  0
LWPOLYLINE
  5
70E
100
AcDbEntity
  8
0-0
100
AcDbPolyline
  6
CONTINUOUS
370
13
 90
     4
 70
     1
 10
155.877436860385
  20
411.145948460177
 10
148.877436860385
  20
411.145948460177
 10
148.877436860385
  20
409.645948460177
 10
155.877436860385
  20
409.645948460177
  0
LINE
  5
70F
100
AcDbEntity
  8
0-0
100
AcDbLine
  6
CONTINUOUS
370
13
 10
131.986083036676
 20
418.271145272455
 11
131.986083036676
 21
411.271145272455
  0
LINE
  5
710
100
AcDbEntity
  8
0-0
100
AcDbLine
  6
CONTINUOUS
370
13
 10
131.986083036676
 20
418.271145272455
 11
135.486083036676
 21
414.771145272455
  0
LINE
  5
711
100
AcDbEntity
  8
0-0
100
AcDbLine
  6
CONTINUOUS
370
13
 10
135.486083036676
 20
414.771145272455
 11
131.986083036676
 21
411.271145272455
  0
LINE
  5
712
100
AcDbEntity
  8
0-0
100
AcDbLine
  6
CONTINUOUS
370
13
 10
128.486083036676
 20
418.271145272455
 11
128.486083036676
 21
411.271145272455
  0
LINE
  5
713
100
AcDbEntity
  8
0-0
100
AcDbLine
  6
CONTINUOUS
370
13
 10
128.486083036676
 20
418.271145272455
 11
131.986083036676
 21
414.771145272455
  0
LINE
  5
714
100
AcDbEntity
  8
0-0
100
AcDbLine
  6
CONTINUOUS
370
13
 10
131.986083036676
 20
414.771145272455
 11
128.486083036676
 21
411.271145272455
  0
LWPOLYLINE
  5
715
100
AcDbEntity
  8
0-0
100
AcDbPolyline
  6
CONTINUOUS
370
13
 90
     4
 70
     1
 10
127.637476066834
  20
411.271145272455
 10
127.637476066834
  20
418.271145272455
 10
126.137476066834
  20
418.271145272455
 10
126.137476066834
  20
411.271145272455
  0
ENDSEC
  0
SECTION
  2
OBJECTS
  0
DICTIONARY
  5
716
100
AcDbDictionary
  3
ACAD_GROUP
350
717
  3
ACAD_MLINESTYLE
350
718
  0
DICTIONARY
  5
717
102
{ACAD_REACTORS
330
716
102
}
100
AcDbDictionary
  0
DICTIONARY
  5
718
102
{ACAD_REACTORS
330
716
102
}
100
AcDbDictionary
  3
STANDARD
350
719
  0
MLINESTYLE
  5
719
102
{ACAD_REACTORS
330
718
102
}
100
AcDbMlineStyle
  2
Standard
 70
     0
  3

 62
     0
 51
90.0
 52
90.0
 71
     2
 49
0.5
 62
   256
  6
ByLayer
 49
-0.5
 62
   256
  6
ByLayer
  0
ENDSEC
  0
EOF
